  0
SECTION
  2
HEADER
  9
$ACADVER
  1
AC1009
  9
$INSBASE
 10
0.000000
 20
0.000000
 30
0.0
  9
$VIEWCTR
 10
7.531722
 20
4.5
  9
$VIEWSIZE
 40
9.0
  9
$SNAPMODE
 70
     0
  9
$SNAPUNIT
 10
1.0
 20
1.0
  9
$SNAPBASE
 10
0.0
 20
0.0
  9
$SNAPANG
 50
0.0
  9
$SNAPSTYLE
 70
     0
  9
$SNAPISOPAIR
 70
     0
  9
$GRIDMODE
 70
     0
  9
$GRIDUNIT
 10
0.0
 20
0.0
  9
$ORTHOMODE
 70
     0
  9
$REGENMODE
 70
     1
  9
$FILLMODE
 70
     1
  9
$QTEXTMODE
 70
     0
  9
$DRAGMODE
 70
     2
  9
$LTSCALE
  40
     1.000000
  9
$OSMODE
 70
     0
  9
$ATTMODE
 70
     1
  9
$TEXTSIZE
 40
0.2
  9
$TRACEWID
 40
0.05
  9
$TEXTSTYLE
  7
STANDARD
  9
$CELTYPE
  6
BYLAYER
  9
$CECOLOR
 62
   256
  9
$DIMSCALE
 40
1.0
  9
$DIMASZ
 40
0.18
  9
$DIMEXO
 40
0.0625
  9
$DIMDLI
 40
0.38
  9
$DIMRND
 40
0.0
  9
$DIMDLE
 40
0.0
  9
$DIMEXE
 40
0.18
  9
$DIMTP
 40
0.0
  9
$DIMTM
 40
0.0
  9
$DIMTXT
 40
0.18
  9
$DIMCEN
 40
0.09
  9
$DIMTSZ
 40
0.0
  9
$DIMTOL
 70
     0
  9
$DIMLIM
 70
     0
  9
$DIMTIH
 70
     1
  9
$DIMTOH
 70
     1
  9
$DIMSE1
 70
     0
  9
$DIMSE2
 70
     0
  9
$DIMTAD
 70
     0
  9
$DIMZIN
 70
     0
  9
$DIMBLK
  1

  9
$LUNITS
 70
     2
  9
$LUPREC
 70
     4
  9
$AXISMODE
 70
     0
  9
$AXISUNIT
 10
0.0
 20
0.0
  9
$SKETCHINC
 40
0.1
  9
$FILLETRAD
 40
0.0
  9
$AUNITS
 70
     0
  9
$AUPREC
 70
     0
  9
$MENU
  1
ACAD
  9
$ELEVATION
 40
0.0
  9
$THICKNESS
 40
0.0
  9
$VIEWDIR
 10
0.0
 20
0.0
 30
1.0
  9
$LIMCHECK
 70
     0
  9
$BLIPMODE
 70
     1
  9
$CHAMFERA
 40
0.0
  9
$CHAMFERB
 40
0.0
  9
$FASTZOOM
 70
     1
  9
$SKPOLY
 70
     0
  9
$TDCREATE
 40
0000000.0000000000
  9
$TDUPDATE
 40
0000000.0000000000
  9
$TDINDWG
 40
0.0000000000
  9
$TDUSRTIMER
 40
0.0000000000
  9
$USRTIMER
 70
     1
  9
$ANGBASE
 50
0.0
  9
$ANGDIR
 70
     0
  9
$PDMODE
 70
     0
  9
$PDSIZE
 40
0.0
  9
$PLINEWID
 40
0.0
  9
$COORDS
 70
     0
  9
$USERI1
 70
     0
  9
$USERI2
 70
     0
  9
$USERI3
 70
     0
  9
$USERI4
 70
     0
  9
$USERI5
 70
     0
  9
$USERR1
 40
0.0
  9
$USERR2
 40
0.0
  9
$USERR3
 40
0.0
  9
$USERR4
 40
0.0
  9
$USERR5
 40
0.0
  9
$CLAYER
  8
M0
  9
$EXTMIN
 10
0.0
 20
0.0
  9
$EXTMAX
 10
420.0
 20
297.0
  9
$LIMMIN
 10
0.0
 20
0.0
  9
$LIMMAX
 10
420.0
 20
297.0
  0
ENDSEC
  0
SECTION
  2
TABLES
  0
TABLE
  2
VPORT
  0
VPORT
  2
*ACTIVE
 70
     0
 10
0.0
 20
0.0
 11
1.0
 21
1.0
 12
484.0
 22
297.0
 13
0.0
 23
0.0
 14
1.0
 24
1.0
 15
0.0
 25
0.0
 16
0.0
 26
0.0
 36
1.0
 17
0.0
 27
0.0
 37
0.0
 40
594.0
 41
2.0
 42
50.0
 43
0.0
 44
0.0
 50
0.0
 51
0.0
 71
     0
 72
   100
 73
     1
 74
     1
 75
     0
 76
     0
 77
     0
 78
     0
  0
ENDTAB
  0
TABLE
  2
LTYPE
 70
     5
  0
LTYPE
  2
CONTINUOUS
 70
    64
  3
Solid line
 72
    65
 73
     0
 40
0.0
  0
LTYPE
  2
DASHED
 70
    64
  3
__ __ __ __ __ __ __ __ __ __ __ __ __ __ __ __
 72
    65
 73
     2
 40
0.75
 49
0.5
 49
-0.25
  0
LTYPE
  2
DASHDOT
 70
    64
  3
__ . __ . __ . __ . __ . __ . __ . __ . __ . __
 72
    65
 73
     4
 40
1.0
 49
0.5
 49
-0.25
 49
0.0
 49
-0.25
  0
LTYPE
  2
DIVIDE
 70
    64
  3
____ . . ____ . . ____ . . ____ . . ____ . . __
 72
    65
 73
     6
 40
1.25
 49
0.5
 49
-0.25
 49
0.0
 49
-0.25
 49
0.0
 49
-0.25
  0
LTYPE
  2
DOT
 70
    64
  3
. . . . . . . . . . . . . . . . . . . . . . . .
 72
    65
 73
     2
 40
0.25
 49
0.0
 49
-0.25
  0
ENDTAB
  0
TABLE
  2
LAYER
 70
   102
  0
LAYER
  2
0
 70
     0
 62
     7
  6
CONTINUOUS
  0
LAYER
  2
DEFPOINTS
 70
     0
 62
     7
  6
CONTINUOUS
  0
LAYER
  2
M0
 70
     0
 62
     3
  6
CONTINUOUS
  0
LAYER
  2
DT0
 70
     0
 62
     7
  6
CONTINUOUS
  0
ENDTAB
  0
TABLE
  2
STYLE
 70
     2
  0
STYLE
  2
STANDARD
 70
     0
 40
0.0
 41
1.0
 50
0.0
 71
     0
 42
0.2
  3
txt
  4
BIGFONT
  0
ENDTAB
  0
TABLE
  2
VIEW
 70
     0
  0
ENDTAB
  0
TABLE
  2
DIMSTYLE
 70
     2
  0
DIMSTYLE
  2
STANDARD
 70
     0
  3

  4

  5

  6
_OPEN
  7
_OPEN
 40
1.0
 41
3.0
 42
1.0
 43
8.0
 44
1.5
 45
0.0
 46
0.0
 47
0.0
 48
0.0
140
4.0
141
0.09
142
0.0
143
0.03937
144
1.0
145
0.0
146
1.0
147
1.0
 71
     0
 72
     0
 73
     1
 74
     1
 75
     0
 76
     0
 77
     3
 78
     8
170
     0
171
     2
172
     0
173
     1
174
     0
175
     0
176
     0
177
     0
178
     0
  0
ENDTAB
  0
ENDSEC
  0
SECTION
  2
BLOCKS
  0
BLOCK
  8
0
  2
DOT
 70
     0
 10
0.0
 20
0.0
  0
POLYLINE
  8
0
 62
     0
 66
     1
 70
     1
 40
0.5
 41
0.5
  0
VERTEX
  8
0
 62
     0
 10
-0.25
 20
0.0
 42
1.0
  0
VERTEX
  8
0
 62
     0
 10
0.25
 20
0.0
 42
1.0
  0
SEQEND
  8
0
 62
     0
  0
ENDBLK
  8
0
  0
BLOCK
  8
0
  2
_NONE
 70
     0
 10
0.0
 20
0.0
  0
CIRCLE
  8
0
 62
     0
 10
0.0
 20
0.0
 40
0.25
  0
ENDBLK
  8
0
  0
BLOCK
  8
0
  2
_OPEN
 70
     0
 10
0.0
 20
0.0
  0
LINE
  8
0
 62
     0
 10
-0.965926
 20
0.258819
 11
0.0
 21
0.0
  0
LINE
  8
0
 62
     0
 10
0.0
 20
0.0
 11
-0.965926
 21
-0.258819
  0
LINE
  8
0
 62
     0
 10
0.0
 20
0.0
 11
-1.0
 21
0.0
  0
ENDBLK
  8
0
  0
BLOCK
  8
0
  2
_CLOSED
 70
     0
 10
0.0
 20
0.0
  0
LINE
  8
0
 62
     0
 10
-0.965926
 20
0.258819
 11
0.0
 21
0.0
  0
LINE
  8
0
 62
     0
 10
0.0
 20
0.0
 11
-0.965926
 21
-0.258819
  0
LINE
  8
0
 62
     0
 10
-0.965926
 20
0.258819
 11
-0.965926
 21
-0.258819
  0
LINE
  8
0
 62
     0
 10
0.0
 20
0.0
 11
-1.0
 21
0.0
  0
ENDBLK
  8
0
  0
BLOCK
  8
0
  2
_ORIGIN
 70
     0
 10
0.0
 20
0.0
  0
CIRCLE
  8
0
 62
     0
 10
0.0
 20
0.0
 40
0.5
  0
LINE
  8
0
 62
     0
 10
0.0
 20
0.0
 11
-1.0
 21
0.0
  0
ENDBLK
  8
0
  0
BLOCK
  8
0
  2
OBLIQUE
 70
     0
 10
0.0
 20
0.0
  0
LINE
  8
0
 62
     0
 10
-0.353553
 20
-0.353553
 11
0.353553
 21
0.353553
  0
LINE
  8
0
 62
     0
 10
0.0
 20
0.0
 11
-1.0
 21
0.0
  0
ENDBLK
  8
0
  0
ENDSEC
  0
SECTION
  2
ENTITIES
  0
LINE
  8
M0
 62
   253
 10
107.278107
 20
95.348933
 11
143.278107
 21
95.348933
  0
LINE
  8
M0
 62
   253
 10
143.278107
 20
95.348933
 11
143.278107
 21
110.348933
  0
LINE
  8
M0
 62
   253
 10
71.278107
 20
110.348933
 11
71.278107
 21
95.348933
  0
LINE
  8
M0
 62
   253
 10
72.778107
 20
111.848933
 11
72.778107
 21
122.348933
  0
LINE
  8
M0
 62
   253
 10
141.778107
 20
111.848933
 11
141.778107
 21
122.348933
  0
LINE
  8
M0
 62
   253
 10
71.278107
 20
110.348933
 11
72.778107
 21
111.848933
  0
LINE
  8
M0
 62
   253
 10
143.278107
 20
110.348933
 11
141.778107
 21
111.848933
  0
LINE
  8
M0
 62
   253
 10
97.903107
 20
122.348933
 11
116.653107
 21
122.348933
  0
LINE
  8
M0
 62
   253
 10
72.778107
 20
129.098933
 11
141.778107
 21
129.098933
  0
LINE
  8
M0
 62
   253
 10
116.653107
 20
129.098933
 11
116.653107
 21
122.348933
  0
LINE
  8
M0
 62
   253
 10
97.903107
 20
129.098933
 11
97.903107
 21
122.348933
  0
LINE
  8
M0
  6
DASHDOT
 62
   253
 10
107.278107
 20
95.348933
 11
107.278107
 21
129.098933
  0
LINE
  8
M0
 62
   253
 10
140.480607
 20
122.348933
 11
141.778107
 21
122.348933
  0
LINE
  8
M0
 62
   253
 10
140.480607
 20
122.348933
 11
140.480607
 21
129.098933
  0
LINE
  8
M0
 62
   253
 10
74.075607
 20
122.348933
 11
72.778107
 21
122.348933
  0
LINE
  8
M0
 62
   253
 10
74.075607
 20
122.348933
 11
74.075607
 21
129.098933
  0
LINE
  8
M0
 62
   253
 10
72.778107
 20
111.848933
 11
143.278107
 21
111.848933
  0
LINE
  8
M0
 62
   253
 10
71.278107
 20
110.348933
 11
143.278107
 21
110.348933
  0
LINE
  8
M0
 62
     1
 10
71.278107
 20
95.348933
 11
71.278107
 21
91.973933
  0
LINE
  8
M0
 62
     1
 10
71.278107
 20
95.348933
 11
107.278107
 21
95.348933
  0
LINE
  8
M0
 62
     1
 10
107.278107
 20
95.348933
 11
143.278107
 21
95.348933
  0
LINE
  8
M0
 62
     1
 10
107.278107
 20
75.473933
 11
73.528107
 21
75.473933
  0
LINE
  8
M0
 62
     1
 10
107.278107
 20
75.473933
 11
141.028107
 21
75.473933
  0
LINE
  8
M0
 62
     1
 10
141.028107
 20
91.973933
 11
141.028107
 21
75.473933
  0
LINE
  8
M0
 62
     1
 10
141.028107
 20
91.973933
 11
143.278107
 21
91.973933
  0
LINE
  8
M0
 62
     1
 10
143.278107
 20
91.973933
 11
143.278107
 21
95.348933
  0
LINE
  8
M0
  6
DASHDOT
 62
     1
 10
107.278107
 20
75.473933
 11
107.278107
 21
95.348933
  0
LINE
  8
M0
 62
     1
 10
73.528107
 20
91.973933
 11
73.528107
 21
75.473933
  0
LINE
  8
M0
 62
     1
 10
73.528107
 20
91.973933
 11
71.278107
 21
91.973933
  0
LINE
  8
M0
 62
     1
 10
119.805576
 20
91.973933
 11
119.805576
 21
75.473933
  0
LINE
  8
M0
 62
     1
 10
119.805576
 20
91.973933
 11
94.750637
 21
75.473933
  0
LINE
  8
M0
 62
     1
 10
119.805576
 20
91.973933
 11
94.750637
 21
91.973933
  0
LINE
  8
M0
 62
     1
 10
94.750637
 20
91.973933
 11
119.805576
 21
75.473933
  0
LINE
  8
M0
 62
     1
 10
94.750637
 20
91.973933
 11
94.750637
 21
75.473933
  0
LINE
  8
M0
 62
     7
 10
221.814447
 20
68.348933
 11
221.814447
 21
66.098933
  0
LINE
  8
M0
 62
     7
 10
221.814447
 20
45.848933
 11
297.564447
 21
45.848933
  0
LINE
  8
M0
  6
DASHDOT
 62
     7
 10
259.689447
 20
45.848933
 11
259.689447
 21
75.473933
  0
LINE
  8
M0
 62
     7
 10
259.689447
 20
48.098933
 11
221.607545
 21
48.098933
  0
LINE
  8
M0
 62
     7
 10
221.607545
 20
66.098933
 11
259.689447
 21
66.098933
  0
LINE
  8
M0
 62
     7
 10
221.814447
 20
48.098933
 11
221.814447
 21
45.848933
  0
ARC
  8
M0
 62
     7
 10
234.430519
 20
57.098933
 40
16.741071
 50
152.237728
 51
207.762272
  0
ARC
  8
M0
 62
     7
 10
221.607545
 20
63.848933
 40
2.25
 50
90.0
 51
152.237728
  0
ARC
  8
M0
 62
     7
 10
221.607545
 20
50.348933
 40
2.25
 50
207.762272
 51
270.0
  0
LINE
  8
M0
 62
     7
 10
225.189447
 20
74.723933
 11
225.189447
 21
68.348933
  0
LINE
  8
M0
 62
     7
 10
225.939447
 20
75.473933
 11
259.689447
 21
75.473933
  0
LINE
  8
M0
 62
     7
 10
259.689447
 20
68.348933
 11
221.814447
 21
68.348933
  0
ARC
  8
M0
 62
     7
 10
225.939447
 20
74.723933
 40
0.75
 50
90.0
 51
180.0
  0
LINE
  8
M0
 62
     7
 10
259.689447
 20
68.348933
 11
297.564447
 21
68.348933
  0
ARC
  8
M0
 62
     7
 10
297.771349
 20
50.348933
 40
2.25
 50
270.0
 51
332.237728
  0
ARC
  8
M0
 62
     7
 10
297.771349
 20
63.848933
 40
2.25
 50
27.762272
 51
90.0
  0
ARC
  8
M0
 62
     7
 10
293.439447
 20
74.723933
 40
0.75
 50
0.0
 51
90.0
  0
ARC
  8
M0
 62
     7
 10
284.948376
 20
57.098933
 40
16.741071
 50
-27.762272
 51
27.762272
  0
LINE
  8
M0
 62
     7
 10
297.564447
 20
48.098933
 11
297.564447
 21
45.848933
  0
LINE
  8
M0
 62
     7
 10
297.771349
 20
66.098933
 11
259.689447
 21
66.098933
  0
LINE
  8
M0
 62
     7
 10
297.564447
 20
68.348933
 11
297.564447
 21
66.098933
  0
LINE
  8
M0
 62
     7
 10
259.689447
 20
48.098933
 11
297.771349
 21
48.098933
  0
LINE
  8
M0
 62
     7
 10
294.189447
 20
74.723933
 11
294.189447
 21
68.348933
  0
LINE
  8
M0
 62
     7
 10
259.689447
 20
75.473933
 11
293.439447
 21
75.473933
  0
LINE
  8
M0
 62
     1
 10
223.689447
 20
95.348933
 11
223.689447
 21
91.973933
  0
LINE
  8
M0
 62
     1
 10
223.689447
 20
95.348933
 11
259.689447
 21
95.348933
  0
LINE
  8
M0
 62
     1
 10
259.689447
 20
95.348933
 11
295.689447
 21
95.348933
  0
LINE
  8
M0
 62
     1
 10
259.689447
 20
75.473933
 11
293.439447
 21
75.473933
  0
LINE
  8
M0
 62
     1
 10
259.689447
 20
75.473933
 11
225.939447
 21
75.473933
  0
LINE
  8
M0
  6
DASHDOT
 62
     1
 10
259.689447
 20
75.473933
 11
259.689447
 21
95.348933
  0
LINE
  8
M0
  6
DASHDOT
 62
     1
 10
265.41266
 20
84.473933
 11
252.979866
 21
84.473933
  0
LINE
  8
M0
 62
     1
 10
272.216917
 20
91.973933
 11
272.216917
 21
75.473933
  0
LINE
  8
M0
 62
     1
 10
272.216917
 20
91.973933
 11
247.161977
 21
91.973933
  0
LINE
  8
M0
 62
     1
 10
247.161977
 20
91.973933
 11
247.161977
 21
75.473933
  0
LINE
  8
M0
 62
     1
 10
264.328549
 20
80.66884
 11
272.216917
 21
75.473933
  0
LINE
  8
M0
 62
     1
 10
272.216917
 20
91.973933
 11
265.01756
 21
87.232777
  0
LINE
  8
M0
 62
     1
 10
247.161977
 20
91.973933
 11
254.361335
 21
87.232777
  0
LINE
  8
M0
 62
     1
 10
255.050346
 20
80.66884
 11
247.161977
 21
75.473933
  0
LINE
  8
M0
 62
     1
 10
295.689447
 20
91.973933
 11
295.689447
 21
95.348933
  0
LINE
  8
M0
 62
     1
 10
293.439447
 20
91.973933
 11
293.439447
 21
75.473933
  0
LINE
  8
M0
 62
     1
 10
295.689447
 20
91.973933
 11
293.439447
 21
91.973933
  0
LINE
  8
M0
 62
     1
 10
225.939447
 20
91.973933
 11
225.939447
 21
75.473933
  0
LINE
  8
M0
 62
     1
 10
223.689447
 20
91.973933
 11
225.939447
 21
91.973933
  0
LINE
  8
M0
 62
     7
 10
69.403107
 20
68.348933
 11
69.403107
 21
66.098933
  0
LINE
  8
M0
 62
     7
 10
69.403107
 20
45.848933
 11
145.153107
 21
45.848933
  0
LINE
  8
M0
  6
DASHDOT
 62
     7
 10
107.278107
 20
45.848933
 11
107.278107
 21
75.473933
  0
LINE
  8
M0
 62
     7
 10
107.278107
 20
48.098933
 11
69.196204
 21
48.098933
  0
LINE
  8
M0
 62
     7
 10
69.196204
 20
66.098933
 11
107.278107
 21
66.098933
  0
LINE
  8
M0
 62
     7
 10
69.403107
 20
48.098933
 11
69.403107
 21
45.848933
  0
ARC
  8
M0
 62
     7
 10
82.019178
 20
57.098933
 40
16.741071
 50
152.237728
 51
207.762272
  0
ARC
  8
M0
 62
     7
 10
69.196204
 20
63.848933
 40
2.25
 50
90.0
 51
152.237728
  0
ARC
  8
M0
 62
     7
 10
69.196204
 20
50.348933
 40
2.25
 50
207.762272
 51
270.0
  0
LINE
  8
M0
 62
     7
 10
72.778107
 20
74.723933
 11
72.778107
 21
68.348933
  0
LINE
  8
M0
 62
     7
 10
73.528107
 20
75.473933
 11
107.278107
 21
75.473933
  0
LINE
  8
M0
 62
     7
 10
107.278107
 20
68.348933
 11
69.403107
 21
68.348933
  0
ARC
  8
M0
 62
     7
 10
73.528107
 20
74.723933
 40
0.75
 50
90.0
 51
180.0
  0
LINE
  8
M0
 62
     7
 10
107.278107
 20
68.348933
 11
145.153107
 21
68.348933
  0
ARC
  8
M0
 62
     7
 10
145.360009
 20
50.348933
 40
2.25
 50
270.0
 51
332.237728
  0
ARC
  8
M0
 62
     7
 10
145.360009
 20
63.848933
 40
2.25
 50
27.762272
 51
90.0
  0
ARC
  8
M0
 62
     7
 10
141.028107
 20
74.723933
 40
0.75
 50
0.0
 51
90.0
  0
ARC
  8
M0
 62
     7
 10
132.537035
 20
57.098933
 40
16.741071
 50
-27.762272
 51
27.762272
  0
LINE
  8
M0
 62
     7
 10
145.153107
 20
48.098933
 11
145.153107
 21
45.848933
  0
LINE
  8
M0
 62
     7
 10
145.360009
 20
66.098933
 11
107.278107
 21
66.098933
  0
LINE
  8
M0
 62
     7
 10
145.153107
 20
68.348933
 11
145.153107
 21
66.098933
  0
LINE
  8
M0
 62
     7
 10
107.278107
 20
48.098933
 11
145.360009
 21
48.098933
  0
LINE
  8
M0
 62
     7
 10
141.778107
 20
74.723933
 11
141.778107
 21
68.348933
  0
LINE
  8
M0
 62
     7
 10
107.278107
 20
75.473933
 11
141.028107
 21
75.473933
  0
LINE
  8
M0
 62
   114
 10
141.778107
 20
129.098933
 11
141.778107
 21
130.598933
  0
LINE
  8
M0
 62
   114
 10
141.778107
 20
130.598933
 11
72.778107
 21
130.598933
  0
LINE
  8
M0
 62
   114
 10
72.778107
 20
130.598933
 11
72.778107
 21
129.098933
  0
LINE
  8
M0
  6
DASHDOT
 62
   114
 10
107.278107
 20
129.098933
 11
107.278107
 21
131.987514
  0
LINE
  8
M0
  6
DASHDOT
 62
   114
 10
128.49131
 20
130.598933
 11
128.49131
 21
129.098933
  0
LINE
  8
M0
 62
   114
 10
141.778107
 20
129.098933
 11
72.778107
 21
129.098933
  0
LINE
  8
M0
 10
121.129135
 20
130.598933
 11
121.303107
 21
130.424961
  0
LINE
  8
M0
  6
DASHDOT
 62
   114
 10
86.064903
 20
130.598933
 11
86.064903
 21
129.098933
  0
LINE
  8
M0
  6
DASHDOT
 62
     6
 10
128.49131
 20
130.598933
 11
128.49131
 21
131.198933
  0
LINE
  8
M0
 62
     6
 10
132.91631
 20
130.598933
 11
124.06631
 21
130.598933
  0
LINE
  8
M0
 62
     6
 10
132.91631
 20
131.198933
 11
132.91631
 21
130.598933
  0
LINE
  8
M0
 62
     6
 10
124.06631
 20
131.198933
 11
132.91631
 21
131.198933
  0
LINE
  8
M0
 62
     6
 10
124.06631
 20
130.598933
 11
124.06631
 21
131.198933
  0
LINE
  8
M0
 62
   253
 10
292.455447
 20
95.348933
 11
295.689447
 21
95.348933
  0
LINE
  8
M0
 62
   253
 10
295.689447
 20
95.348933
 11
295.689447
 21
110.348933
  0
LINE
  8
M0
 62
   253
 10
223.689447
 20
110.348933
 11
223.689447
 21
95.348933
  0
LINE
  8
M0
 62
   253
 10
225.189447
 20
111.848933
 11
225.189447
 21
122.348933
  0
LINE
  8
M0
 62
   253
 10
294.189447
 20
111.848933
 11
294.189447
 21
122.348933
  0
LINE
  8
M0
 62
   253
 10
223.689447
 20
110.348933
 11
225.189447
 21
111.848933
  0
LINE
  8
M0
 62
   253
 10
295.689447
 20
110.348933
 11
294.189447
 21
111.848933
  0
LINE
  8
M0
 62
   253
 10
294.189447
 20
129.098933
 11
225.189447
 21
129.098933
  0
LINE
  8
M0
  6
DASHDOT
 62
   253
 10
238.475697
 20
129.098933
 11
238.475697
 21
118.985585
  0
LINE
  8
M0
 62
   253
 10
225.189447
 20
111.848933
 11
294.189447
 21
111.848933
  0
LINE
  8
M0
 62
   253
 10
223.689447
 20
110.348933
 11
295.689447
 21
110.348933
  0
LINE
  8
M0
  6
DASHDOT
 62
   253
 10
259.689447
 20
95.348933
 11
259.689447
 21
132.695939
  0
LINE
  8
M0
  6
DASHDOT
 62
   253
 10
280.903197
 20
129.098933
 11
280.903197
 21
118.985585
  0
LINE
  8
M0
 62
   253
 10
250.314447
 20
122.348933
 11
269.064447
 21
122.348933
  0
LINE
  8
M0
 62
   253
 10
269.064447
 20
122.348933
 11
269.064447
 21
129.098933
  0
LINE
  8
M0
 62
   253
 10
250.314447
 20
122.348933
 11
250.314447
 21
129.098933
  0
LINE
  8
M0
 62
   253
 10
292.891947
 20
122.348933
 11
294.189447
 21
122.348933
  0
LINE
  8
M0
 62
   253
 10
292.891947
 20
122.348933
 11
292.891947
 21
129.098933
  0
LINE
  8
M0
 62
   253
 10
226.486947
 20
122.348933
 11
225.189447
 21
122.348933
  0
LINE
  8
M0
 62
   253
 10
226.486947
 20
122.348933
 11
226.486947
 21
129.098933
  0
LINE
  8
M0
 62
   114
 10
294.189447
 20
129.098933
 11
294.189447
 21
130.598933
  0
LINE
  8
M0
 62
   114
 10
294.189447
 20
130.598933
 11
225.189447
 21
130.598933
  0
LINE
  8
M0
 62
   114
 10
225.189447
 20
130.598933
 11
225.189447
 21
129.098933
  0
LINE
  8
M0
 62
   114
 10
225.189447
 20
129.098933
 11
294.189447
 21
129.098933
  0
LINE
  8
M0
  6
DASHDOT
 62
   114
 10
238.475697
 20
129.098933
 11
238.475697
 21
130.598933
  0
LINE
  8
M0
  6
DASHDOT
 62
   114
 10
280.903197
 20
129.098933
 11
280.903197
 21
130.598933
  0
LINE
  8
M0
  6
DASHDOT
 62
     6
 10
238.475697
 20
130.598933
 11
238.475697
 21
131.198933
  0
LINE
  8
M0
 62
     6
 10
234.050697
 20
130.598933
 11
242.900697
 21
130.598933
  0
LINE
  8
M0
 62
     6
 10
234.050697
 20
131.198933
 11
234.050697
 21
130.598933
  0
LINE
  8
M0
 62
     6
 10
242.900697
 20
131.198933
 11
234.050697
 21
131.198933
  0
LINE
  8
M0
 62
     6
 10
242.900697
 20
130.598933
 11
242.900697
 21
131.198933
  0
CIRCLE
  8
M0
 10
107.278107
 20
223.10008
 40
36.0
  0
LINE
  8
M0
  6
DASHDOT
 10
107.278107
 20
181.10008
 11
107.278107
 21
265.10008
  0
CIRCLE
  8
M0
 10
107.278107
 20
223.10008
 40
34.5
  0
LINE
  8
M0
  6
DASHDOT
 10
86.064903
 20
201.886876
 11
82.882923
 21
198.704896
  0
LINE
  8
M0
  6
DASHDOT
 10
128.49131
 20
244.313283
 11
131.67329
 21
247.495264
  0
LINE
  8
M0
  6
DASHDOT
 10
65.278107
 20
223.10008
 11
145.278107
 21
223.10008
  0
LINE
  8
M0
  6
DASHDOT
 62
     7
 10
89.193851
 20
198.757929
 11
82.935956
 21
205.015824
  0
CIRCLE
  8
M0
 62
     7
 10
86.064903
 20
201.886876
 40
4.425
  0
LINE
  8
M0
  6
DASHDOT
 62
     7
 10
125.362362
 20
247.442231
 11
131.620257
 21
241.184336
  0
CIRCLE
  8
M0
 62
     7
 10
128.49131
 20
244.313283
 40
4.425
  0
LINE
  8
M0
  6
DASHDOT
 62
     6
 10
280.903197
 20
130.598933
 11
280.903197
 21
131.198933
  0
LINE
  8
M0
 62
     6
 10
285.328197
 20
130.598933
 11
276.478197
 21
130.598933
  0
LINE
  8
M0
 62
     6
 10
285.328197
 20
131.198933
 11
285.328197
 21
130.598933
  0
LINE
  8
M0
 62
     6
 10
276.478197
 20
131.198933
 11
285.328197
 21
131.198933
  0
LINE
  8
M0
 62
     6
 10
276.478197
 20
130.598933
 11
276.478197
 21
131.198933
  0
LINE
  8
M0
 62
     6
 10
277.528197
 20
131.198933
 11
284.278197
 21
131.198933
  0
LINE
  8
M0
  6
DASHDOT
 62
     6
 10
280.903197
 20
133.673933
 11
280.903197
 21
130.598933
  0
LINE
  8
M0
 62
     6
 10
277.528197
 20
132.164552
 11
277.528197
 21
131.198933
  0
LINE
  8
M0
 62
     6
 10
284.278197
 20
132.164552
 11
284.278197
 21
131.198933
  0
ARC
  8
M0
 62
     6
 10
280.903197
 20
124.673933
 40
9.0
 50
73.808648
 51
106.191352
  0
ARC
  8
M0
 62
     6
 10
278.728197
 20
132.164552
 40
1.2
 50
106.191352
 51
180.0
  0
ARC
  8
M0
 62
     6
 10
283.078197
 20
132.164552
 40
1.2
 50
0.0
 51
73.808648
  0
LINE
  8
M0
 62
     6
 10
241.850697
 20
131.198933
 11
235.100697
 21
131.198933
  0
LINE
  8
M0
  6
DASHDOT
 62
     6
 10
238.475697
 20
133.673933
 11
238.475697
 21
130.598933
  0
LINE
  8
M0
 62
     6
 10
241.850697
 20
132.164552
 11
241.850697
 21
131.198933
  0
LINE
  8
M0
 62
     6
 10
235.100697
 20
132.164552
 11
235.100697
 21
131.198933
  0
ARC
  8
M0
 62
     6
 10
238.475697
 20
124.673933
 40
9.0
 50
73.808648
 51
106.191352
  0
ARC
  8
M0
 62
     6
 10
240.650697
 20
132.164552
 40
1.2
 50
0.0
 51
73.808648
  0
ARC
  8
M0
 62
     6
 10
236.300697
 20
132.164552
 40
1.2
 50
106.191352
 51
180.0
  0
LINE
  8
M0
 62
     6
 10
131.86631
 20
131.198933
 11
125.11631
 21
131.198933
  0
LINE
  8
M0
  6
DASHDOT
 62
     6
 10
128.49131
 20
133.673933
 11
128.49131
 21
131.198933
  0
LINE
  8
M0
 62
     6
 10
131.86631
 20
132.164552
 11
131.86631
 21
131.198933
  0
LINE
  8
M0
 62
     6
 10
125.11631
 20
132.164552
 11
125.11631
 21
131.198933
  0
ARC
  8
M0
 62
     6
 10
128.49131
 20
124.673933
 40
9.0
 50
73.808648
 51
106.191352
  0
ARC
  8
M0
 62
     6
 10
130.66631
 20
132.164552
 40
1.2
 50
0.0
 51
73.808648
  0
ARC
  8
M0
 62
     6
 10
126.31631
 20
132.164552
 40
1.2
 50
106.191352
 51
180.0
  0
LINE
  8
M0
 62
     7
 10
126.90032
 20
243.358689
 11
127.600355
 21
244.058725
  0
LINE
  8
M0
 62
     7
 10
129.445904
 20
245.904273
 11
130.0823
 21
245.267877
  0
LINE
  8
M0
 62
     7
 10
130.0823
 20
245.267877
 11
129.382264
 21
244.567841
  0
ARC
  8
M0
 62
     7
 10
127.345797
 20
244.313283
 40
0.36
 50
315.0
 51
405.0
  0
ARC
  8
M0
 62
     7
 10
128.49131
 20
245.458796
 40
0.36
 50
225.0
 51
315.0
  0
ARC
  8
M0
 62
     7
 10
129.636823
 20
244.313283
 40
0.36
 50
135.0
 51
225.0
  0
ARC
  8
M0
 62
     7
 10
128.49131
 20
243.16777
 40
0.36
 50
45.0
 51
135.0
  0
LINE
  8
M0
 62
     7
 10
127.536716
 20
245.904273
 11
128.236752
 21
245.204238
  0
LINE
  8
M0
 62
     7
 10
128.745868
 20
245.204238
 11
129.445904
 21
245.904273
  0
LINE
  8
M0
 62
     7
 10
127.536716
 20
242.722293
 11
126.90032
 21
243.358689
  0
LINE
  8
M0
 62
     7
 10
129.445904
 20
242.722293
 11
128.745868
 21
243.422328
  0
LINE
  8
M0
 62
     7
 10
129.382264
 20
244.058725
 11
130.0823
 21
243.358689
  0
LINE
  8
M0
 62
     7
 10
130.0823
 20
243.358689
 11
129.445904
 21
242.722293
  0
LINE
  8
M0
 62
     7
 10
127.600355
 20
244.567841
 11
126.90032
 21
245.267877
  0
LINE
  8
M0
 62
     7
 10
126.90032
 20
245.267877
 11
127.536716
 21
245.904273
  0
LINE
  8
M0
 62
     7
 10
128.236752
 20
243.422328
 11
127.536716
 21
242.722293
  0
CIRCLE
  8
M0
 62
     7
 10
128.49131
 20
244.313283
 40
3.375
  0
LINE
  8
M0
  6
DASHDOT
 10
124.975892
 20
240.797865
 11
131.67329
 21
247.495264
  0
LINE
  8
M0
 62
     7
 10
87.019497
 20
203.477866
 11
86.319462
 21
202.777831
  0
LINE
  8
M0
 62
     7
 10
84.473913
 20
200.932282
 11
85.110309
 21
200.295886
  0
LINE
  8
M0
 62
     7
 10
85.110309
 20
200.295886
 11
85.810345
 21
200.995922
  0
ARC
  8
M0
 62
     7
 10
86.064903
 20
203.032389
 40
0.36
 50
225.0
 51
315.0
  0
ARC
  8
M0
 62
     7
 10
84.91939
 20
201.886876
 40
0.36
 50
-45.0
 51
45.0
  0
ARC
  8
M0
 62
     7
 10
86.064903
 20
200.741363
 40
0.36
 50
45.0
 51
135.0
  0
ARC
  8
M0
 62
     7
 10
87.210416
 20
201.886876
 40
0.36
 50
135.0
 51
225.0
  0
LINE
  8
M0
 62
     7
 10
84.473913
 20
202.84147
 11
85.173949
 21
202.141435
  0
LINE
  8
M0
 62
     7
 10
85.173949
 20
201.632318
 11
84.473913
 21
200.932282
  0
LINE
  8
M0
 62
     7
 10
87.655893
 20
202.84147
 11
87.019497
 21
203.477866
  0
LINE
  8
M0
 62
     7
 10
87.655893
 20
200.932282
 11
86.955858
 21
201.632318
  0
LINE
  8
M0
 62
     7
 10
86.319462
 20
200.995922
 11
87.019497
 21
200.295886
  0
LINE
  8
M0
 62
     7
 10
87.019497
 20
200.295886
 11
87.655893
 21
200.932282
  0
LINE
  8
M0
 62
     7
 10
85.810345
 20
202.777831
 11
85.110309
 21
203.477866
  0
LINE
  8
M0
 62
     7
 10
85.110309
 20
203.477866
 11
84.473913
 21
202.84147
  0
LINE
  8
M0
 62
     7
 10
86.955858
 20
202.141435
 11
87.655893
 21
202.84147
  0
CIRCLE
  8
M0
 62
     7
 10
86.064903
 20
201.886876
 40
3.375
  0
LINE
  8
M0
  6
DASHDOT
 10
89.580321
 20
205.402295
 11
82.882923
 21
198.704896
  0
LINE
  8
M0
 62
     7
 10
142.835938
 20
217.47508
 11
149.278107
 21
217.47508
  0
LINE
  8
M0
 62
     7
 10
150.028107
 20
218.22508
 11
150.028107
 21
227.97508
  0
LINE
  8
M0
 62
     7
 10
149.278107
 20
228.72508
 11
142.835938
 21
228.72508
  0
LINE
  8
M0
  6
DASHDOT
 62
     7
 10
143.278107
 20
223.10008
 11
150.028107
 21
223.10008
  0
LINE
  8
M0
 10
143.259079
 20
221.929767
 11
147.713767
 21
217.47508
  0
LINE
  8
M0
 10
143.277877
 20
222.971629
 11
148.774427
 21
217.47508
  0
LINE
  8
M0
 10
143.265718
 20
224.044449
 11
149.283626
 21
218.026541
  0
LINE
  8
M0
 10
143.219627
 20
225.1512
 11
149.283626
 21
219.087201
  0
LINE
  8
M0
 10
143.136013
 20
226.295474
 11
149.283626
 21
220.147861
  0
LINE
  8
M0
 10
143.010467
 20
227.48168
 11
149.283626
 21
221.208521
  0
LINE
  8
M0
 10
142.837479
 20
228.715328
 11
149.283626
 21
222.269181
  0
LINE
  8
M0
 10
143.888388
 20
228.72508
 11
149.283626
 21
223.329841
  0
LINE
  8
M0
 10
144.949048
 20
228.72508
 11
149.283626
 21
224.390502
  0
LINE
  8
M0
 10
146.009708
 20
228.72508
 11
149.283626
 21
225.451162
  0
LINE
  8
M0
 10
147.070368
 20
228.72508
 11
149.283626
 21
226.511822
  0
LINE
  8
M0
 10
148.131029
 20
228.72508
 11
149.283626
 21
227.572482
  0
LINE
  8
M0
 10
149.191689
 20
228.72508
 11
149.283626
 21
228.633142
  0
LINE
  8
M0
 10
143.080635
 20
219.334589
 11
149.283626
 21
225.53758
  0
LINE
  8
M0
 10
143.183988
 20
220.498602
 11
149.283626
 21
226.59824
  0
LINE
  8
M0
 10
143.247794
 20
221.623068
 11
149.283626
 21
227.6589
  0
LINE
  8
M0
 10
143.276014
 20
222.711948
 11
149.289145
 21
228.72508
  0
LINE
  8
M0
 10
143.271901
 20
223.768495
 11
148.228485
 21
228.72508
  0
LINE
  8
M0
 10
143.238165
 20
224.79542
 11
147.167825
 21
228.72508
  0
LINE
  8
M0
 10
143.177095
 20
225.795009
 11
146.107165
 21
228.72508
  0
LINE
  8
M0
 10
143.090639
 20
226.769213
 11
145.046505
 21
228.72508
  0
LINE
  8
M0
 10
142.980474
 20
227.719709
 11
143.985845
 21
228.72508
  0
LINE
  8
M0
 10
142.848054
 20
228.647949
 11
142.925184
 21
228.72508
  0
LINE
  8
M0
 62
     7
 10
149.278107
 20
217.47508
 11
150.028107
 21
218.22508
  0
LINE
  8
M0
 62
     7
 10
149.278107
 20
228.72508
 11
150.028107
 21
227.97508
  0
LINE
  8
M0
 62
     7
 10
149.283626
 20
217.480599
 11
149.283626
 21
228.71956
  0
LINE
  8
M0
 10
142.932837
 20
218.126131
 11
149.283626
 21
224.476919
  0
LINE
  8
M0
 10
143.342446
 20
217.47508
 11
149.283626
 21
223.416259
  0
LINE
  8
M0
 10
144.403107
 20
217.47508
 11
149.283626
 21
222.355599
  0
LINE
  8
M0
 10
145.463767
 20
217.47508
 11
149.283626
 21
221.294939
  0
LINE
  8
M0
 10
146.524427
 20
217.47508
 11
149.283626
 21
220.234279
  0
LINE
  8
M0
 10
147.585087
 20
217.47508
 11
149.283626
 21
219.173619
  0
LINE
  8
M0
 10
148.645747
 20
217.47508
 11
149.283626
 21
218.112958
  0
LINE
  8
M0
 10
143.211815
 20
220.916371
 11
146.653107
 21
217.47508
  0
LINE
  8
M0
 10
143.1382
 20
219.929326
 11
145.592446
 21
217.47508
  0
LINE
  8
M0
 10
143.040044
 20
218.966822
 11
144.531786
 21
217.47508
  0
LINE
  8
M0
 10
142.91891
 20
218.027296
 11
143.471126
 21
217.47508
  0
CIRCLE
  8
M0
 10
259.689447
 20
84.473933
 40
5.625
  0
LINE
  8
M0
 10
265.264223
 20
83.723933
 11
254.114671
 21
83.723933
  0
LINE
  8
M0
 10
265.264223
 20
85.223933
 11
254.114671
 21
85.223933
  0
ARC
  8
M0
 10
259.689447
 20
84.473933
 40
4.875
 50
8.849883
 51
171.150117
  0
ARC
  8
M0
 10
259.689447
 20
84.473933
 40
4.875
 50
188.849883
 51
351.150117
  0
LINE
  8
M0
 62
     7
 10
141.028107
 20
78.848933
 11
149.278107
 21
78.848933
  0
LINE
  8
M0
 62
     7
 10
150.028107
 20
79.598933
 11
150.028107
 21
83.723933
  0
LINE
  8
M0
 62
     7
 10
149.278107
 20
90.098933
 11
141.028107
 21
90.098933
  0
LINE
  8
M0
  6
DASHDOT
 62
     7
 10
141.028107
 20
84.473933
 11
150.028107
 21
84.473933
  0
LINE
  8
M0
 62
     7
 10
141.028107
 20
78.848933
 11
141.028107
 21
90.098933
  0
LINE
  8
M0
 10
141.028107
 20
85.534593
 11
147.713767
 21
78.848933
  0
LINE
  8
M0
 10
141.028107
 20
86.595254
 11
148.774427
 21
78.848933
  0
LINE
  8
M0
 10
141.028107
 20
87.655914
 11
149.283626
 21
79.400394
  0
LINE
  8
M0
 10
141.028107
 20
88.716574
 11
149.283626
 21
80.461054
  0
LINE
  8
M0
 10
141.028107
 20
89.777234
 11
149.283626
 21
81.521715
  0
LINE
  8
M0
 10
141.767068
 20
90.098933
 11
149.283626
 21
82.582375
  0
LINE
  8
M0
 10
142.827728
 20
90.098933
 11
148.528107
 21
84.398554
  0
LINE
  8
M0
 10
143.888388
 20
90.098933
 11
148.763388
 21
85.223933
  0
LINE
  8
M0
 10
144.949048
 20
90.098933
 11
149.283626
 21
85.764355
  0
LINE
  8
M0
 10
146.009708
 20
90.098933
 11
149.283626
 21
86.825016
  0
LINE
  8
M0
 10
147.070368
 20
90.098933
 11
149.283626
 21
87.885676
  0
LINE
  8
M0
 10
148.131029
 20
90.098933
 11
149.283626
 21
88.946336
  0
LINE
  8
M0
 10
149.191689
 20
90.098933
 11
149.283626
 21
90.006996
  0
LINE
  8
M0
 10
142.281786
 20
78.848933
 11
148.528107
 21
85.095254
  0
LINE
  8
M0
 10
141.221126
 20
78.848933
 11
149.283626
 21
86.911433
  0
LINE
  8
M0
 10
141.028107
 20
79.716574
 11
149.283626
 21
87.972093
  0
LINE
  8
M0
 10
141.028107
 20
80.777234
 11
149.283626
 21
89.032754
  0
LINE
  8
M0
 10
141.028107
 20
81.837894
 11
149.289145
 21
90.098933
  0
LINE
  8
M0
 10
141.028107
 20
82.898554
 11
148.228485
 21
90.098933
  0
LINE
  8
M0
 10
141.028107
 20
83.959215
 11
147.167825
 21
90.098933
  0
LINE
  8
M0
 10
141.028107
 20
85.019875
 11
146.107165
 21
90.098933
  0
LINE
  8
M0
 10
141.028107
 20
86.080535
 11
145.046505
 21
90.098933
  0
LINE
  8
M0
 10
141.028107
 20
87.141195
 11
143.985845
 21
90.098933
  0
LINE
  8
M0
 10
141.028107
 20
88.201855
 11
142.925184
 21
90.098933
  0
LINE
  8
M0
 10
141.028107
 20
89.262516
 11
141.864524
 21
90.098933
  0
LINE
  8
M0
 62
     7
 10
149.278107
 20
78.848933
 11
150.028107
 21
79.598933
  0
LINE
  8
M0
 62
     7
 10
149.278107
 20
90.098933
 11
150.028107
 21
89.348933
  0
LINE
  8
M0
 62
     7
 10
149.283626
 20
85.223933
 11
149.283626
 21
90.093414
  0
LINE
  8
M0
 10
150.028107
 20
83.723933
 11
148.528107
 21
83.723933
  0
LINE
  8
M0
 10
150.028107
 20
85.223933
 11
148.528107
 21
85.223933
  0
LINE
  8
M0
 10
148.528107
 20
83.723933
 11
148.528107
 21
85.223933
  0
LINE
  8
M0
 10
148.656786
 20
85.223933
 11
149.283626
 21
85.850773
  0
LINE
  8
M0
 62
     7
 10
150.028107
 20
85.223933
 11
150.028107
 21
89.348933
  0
LINE
  8
M0
 10
149.202728
 20
83.723933
 11
149.283626
 21
83.643035
  0
LINE
  8
M0
 62
     7
 10
149.283626
 20
83.723933
 11
149.283626
 21
78.854453
  0
LINE
  8
M0
 10
141.028107
 20
84.473933
 11
146.653107
 21
78.848933
  0
LINE
  8
M0
 10
141.028107
 20
83.413273
 11
145.592446
 21
78.848933
  0
LINE
  8
M0
 10
141.028107
 20
82.352613
 11
144.531786
 21
78.848933
  0
LINE
  8
M0
 10
141.028107
 20
81.291953
 11
143.471126
 21
78.848933
  0
LINE
  8
M0
 10
141.028107
 20
80.231293
 11
142.410466
 21
78.848933
  0
LINE
  8
M0
 10
141.028107
 20
79.170632
 11
141.349806
 21
78.848933
  0
LINE
  8
M0
 10
143.342446
 20
78.848933
 11
148.528107
 21
84.034593
  0
LINE
  8
M0
 10
144.403107
 20
78.848933
 11
149.278107
 21
83.723933
  0
LINE
  8
M0
 10
145.463767
 20
78.848933
 11
149.283626
 21
82.668793
  0
LINE
  8
M0
 10
146.524427
 20
78.848933
 11
149.283626
 21
81.608132
  0
LINE
  8
M0
 10
147.585087
 20
78.848933
 11
149.283626
 21
80.547472
  0
LINE
  8
M0
 10
148.645747
 20
78.848933
 11
149.283626
 21
79.486812
  0
LINE
  8
M0
  6
DASHDOT
 62
     6
 10
86.064903
 20
130.598933
 11
86.064903
 21
131.198933
  0
LINE
  8
M0
 62
     6
 10
81.639903
 20
130.598933
 11
90.489903
 21
130.598933
  0
LINE
  8
M0
 62
     6
 10
81.639903
 20
131.198933
 11
81.639903
 21
130.598933
  0
LINE
  8
M0
 62
     6
 10
90.489903
 20
131.198933
 11
81.639903
 21
131.198933
  0
LINE
  8
M0
 62
     6
 10
90.489903
 20
130.598933
 11
90.489903
 21
131.198933
  0
LINE
  8
M0
 62
     6
 10
82.689903
 20
131.198933
 11
89.439903
 21
131.198933
  0
LINE
  8
M0
  6
DASHDOT
 62
     6
 10
86.064903
 20
133.673933
 11
86.064903
 21
131.198933
  0
LINE
  8
M0
 62
     6
 10
82.689903
 20
132.164552
 11
82.689903
 21
131.198933
  0
LINE
  8
M0
 62
     6
 10
89.439903
 20
132.164552
 11
89.439903
 21
131.198933
  0
ARC
  8
M0
 62
     6
 10
86.064903
 20
124.673933
 40
9.0
 50
73.808648
 51
106.191352
  0
ARC
  8
M0
 62
     6
 10
83.889903
 20
132.164552
 40
1.2
 50
106.191352
 51
180.0
  0
ARC
  8
M0
 62
     6
 10
88.239903
 20
132.164552
 40
1.2
 50
0.0
 51
73.808648
  0
ARC
  8
M0
 10
107.278107
 20
223.10008
 40
42.0
 50
7.696669
 51
352.303331
  0
ARC
  8
M0
 10
107.278107
 20
223.10008
 40
37.875
 50
8.54087
 51
351.45913
  0
TEXT
  8
M0
 10
206.216014
 20
228.725078
 40
7.5
  1
φ２５　差込み式結合金具付き
  7
STANDARD
  0
TEXT
  8
M0
 10
206.216008
 20
218.225078
 40
7.5
  1
消火栓用小形空気弁　外形図
  7
STANDARD
  0
TEXT
  8
M0
 10
206.216002
 20
207.725078
 40
7.5
  1
（Ａ３　尺度３／４）
  7
STANDARD
  0
ENDSEC
  0
EOF
