  0
SECTION
  2
HEADER
  9
$ACADVER
  1
AC1014
  9
$ACADMAINTVER
 70
     0
  9
$DWGCODEPAGE
  3
ANSI_932
  9
$INSBASE
 10
0.0
 20
0.0
 30
0.0
  9
$EXTMIN
 10
339.0
 20
50.0
 30
0.0
  9
$EXTMAX
 10
2025.0
 20
1292.115356
 30
0.0
  9
$LIMMIN
 10
0.0
 20
0.0
  9
$LIMMAX
 10
2100.0
 20
1485.0
  9
$ORTHOMODE
 70
     0
  9
$REGENMODE
 70
     1
  9
$FILLMODE
 70
     1
  9
$QTEXTMODE
 70
     0
  9
$MIRRTEXT
 70
     1
  9
$DRAGMODE
 70
     2
  9
$LTSCALE
 40
42.0
  9
$OSMODE
 70
     0
  9
$ATTMODE
 70
     1
  9
$TEXTSIZE
 40
0.2
  9
$TRACEWID
 40
0.05
  9
$TEXTSTYLE
  7
STANDARD
  9
$CLAYER
  8
001
  9
$CELTYPE
  6
CONTINUOUS
  9
$CECOLOR
 62
   256
  9
$CELTSCALE
 40
1.0
  9
$DELOBJ
 70
     1
  9
$DISPSILH
 70
     0
  9
$DIMSCALE
 40
1.0
  9
$DIMASZ
 40
0.18
  9
$DIMEXO
 40
0.0625
  9
$DIMDLI
 40
0.38
  9
$DIMRND
 40
0.0
  9
$DIMDLE
 40
0.0
  9
$DIMEXE
 40
0.18
  9
$DIMTP
 40
0.0
  9
$DIMTM
 40
0.0
  9
$DIMTXT
 40
0.18
  9
$DIMCEN
 40
0.09
  9
$DIMTSZ
 40
0.0
  9
$DIMTOL
 70
     0
  9
$DIMLIM
 70
     0
  9
$DIMTIH
 70
     1
  9
$DIMTOH
 70
     1
  9
$DIMSE1
 70
     0
  9
$DIMSE2
 70
     0
  9
$DIMTAD
 70
     0
  9
$DIMZIN
 70
     0
  9
$DIMBLK
  1

  9
$DIMASO
 70
     1
  9
$DIMSHO
 70
     1
  9
$DIMPOST
  1

  9
$DIMAPOST
  1

  9
$DIMALT
 70
     0
  9
$DIMALTD
 70
     2
  9
$DIMALTF
 40
25.4
  9
$DIMLFAC
 40
1.0
  9
$DIMTOFL
 70
     0
  9
$DIMTVP
 40
0.0
  9
$DIMTIX
 70
     0
  9
$DIMSOXD
 70
     0
  9
$DIMSAH
 70
     0
  9
$DIMBLK1
  1

  9
$DIMBLK2
  1

  9
$DIMSTYLE
  2
STANDARD
  9
$DIMCLRD
 70
     0
  9
$DIMCLRE
 70
     0
  9
$DIMCLRT
 70
     0
  9
$DIMTFAC
 40
1.0
  9
$DIMGAP
 40
0.09
  9
$DIMJUST
 70
     0
  9
$DIMSD1
 70
     0
  9
$DIMSD2
 70
     0
  9
$DIMTOLJ
 70
     1
  9
$DIMTZIN
 70
     0
  9
$DIMALTZ
 70
     0
  9
$DIMALTTZ
 70
     0
  9
$DIMFIT
 70
     3
  9
$DIMUPT
 70
     0
  9
$DIMUNIT
 70
     2
  9
$DIMDEC
 70
     4
  9
$DIMTDEC
 70
     4
  9
$DIMALTU
 70
     2
  9
$DIMALTTD
 70
     2
  9
$DIMTXSTY
  7
STANDARD
  9
$DIMAUNIT
 70
     0
  9
$LUNITS
 70
     2
  9
$LUPREC
 70
     4
  9
$SKETCHINC
 40
0.1
  9
$FILLETRAD
 40
1.0
  9
$AUNITS
 70
     0
  9
$AUPREC
 70
     0
  9
$MENU
  1
acad
  9
$ELEVATION
 40
0.0
  9
$PELEVATION
 40
0.0
  9
$THICKNESS
 40
0.0
  9
$LIMCHECK
 70
     0
  9
$BLIPMODE
 70
     0
  9
$CHAMFERA
 40
0.0
  9
$CHAMFERB
 40
0.0
  9
$CHAMFERC
 40
0.0
  9
$CHAMFERD
 40
0.0
  9
$SKPOLY
 70
     0
  9
$TDCREATE
 40
0.0000000000
  9
$TDUPDATE
 40
0.0000000000
  9
$TDINDWG
 40
0.0000000000
  9
$TDUSRTIMER
 40
0.0000000000
  9
$USRTIMER
 70
     1
  9
$ANGBASE
 50
0.0
  9
$ANGDIR
 70
     0
  9
$PDMODE
 70
     0
  9
$PDSIZE
 40
0.0
  9
$PLINEWID
 40
0.0
  9
$COORDS
 70
     1
  9
$SPLFRAME
 70
     0
  9
$SPLINETYPE
 70
     6
  9
$SPLINESEGS
 70
     8
  9
$ATTDIA
 70
     0
  9
$ATTREQ
 70
     1
  9
$HANDLING
 70
     1
  9
$HANDSEED
  5
361
  9
$SURFTAB1
 70
     6
  9
$SURFTAB2
 70
     6
  9
$SURFTYPE
 70
     6
  9
$SURFU
 70
     6
  9
$SURFV
 70
     6
  9
$UCSNAME
  2

  9
$UCSORG
 10
0.0
 20
0.0
 30
0.0
  9
$UCSXDIR
 10
1.0
 20
0.0
 30
0.0
  9
$UCSYDIR
 10
0.0
 20
1.0
 30
0.0
  9
$PUCSNAME
  2

  9
$PUCSORG
 10
0.0
 20
0.0
 30
0.0
  9
$PUCSXDIR
 10
1.0
 20
0.0
 30
0.0
  9
$PUCSYDIR
 10
0.0
 20
1.0
 30
0.0
  9
$USERI1
 70
     0
  9
$USERI2
 70
     0
  9
$USERI3
 70
     0
  9
$USERI4
 70
     0
  9
$USERI5
 70
     0
  9
$USERR1
 40
0.0
  9
$USERR2
 40
0.0
  9
$USERR3
 40
0.0
  9
$USERR4
 40
0.0
  9
$USERR5
 40
0.0
  9
$WORLDVIEW
 70
     1
  9
$SHADEDGE
 70
     3
  9
$SHADEDIF
 70
    70
  9
$TILEMODE
 70
     1
  9
$MAXACTVP
 70
    48
  9
$PINSBASE
 10
0.0
 20
0.0
 30
0.0
  9
$PLIMCHECK
 70
     0
  9
$PEXTMIN
 10
1.000000E+20
 20
1.000000E+20
 30
1.000000E+20
  9
$PEXTMAX
 10
-1.000000E+20
 20
-1.000000E+20
 30
-1.000000E+20
  9
$PLIMMIN
 10
0.0
 20
0.0
  9
$PLIMMAX
 10
12.0
 20
9.0
  9
$UNITMODE
 70
     0
  9
$VISRETAIN
 70
     1
  9
$PLINEGEN
 70
     0
  9
$PSLTSCALE
 70
     1
  9
$TREEDEPTH
 70
  3020
  9
$PICKSTYLE
 70
     1
  9
$CMLSTYLE
  2
STANDARD
  9
$CMLJUST
 70
     0
  9
$CMLSCALE
 40
1.0
  9
$PROXYGRAPHICS
 70
     1
  9
$MEASUREMENT
 70
     0
  0
ENDSEC
  0
SECTION
  2
CLASSES
  0
CLASS
  1
LWPOLYLINE
  2
AcDbPolyline
  3
"AutoCAD"
 90
        0
280
     0
281
     1
  0
ENDSEC
  0
SECTION
  2
TABLES
  0
TABLE
  2
VPORT
  5
8
100
AcDbSymbolTable
 70
     2
  0
VPORT
  5
360
100
AcDbSymbolTableRecord
100
AcDbViewportTableRecord
  2
*ACTIVE
 70
     0
 10
0.0
 20
0.0
 11
1.0
 21
1.0
 12
1275.674747
 22
648.732295
 13
0.0
 23
0.0
 14
1.0
 24
1.0
 15
0.0
 25
0.0
 16
0.0
 26
0.0
 36
1.0
 17
0.0
 27
0.0
 37
0.0
 40
1595.068944
 41
1.724907
 42
50.0
 43
0.0
 44
0.0
 50
0.0
 51
0.0
 71
     0
 72
   100
 73
     1
 74
     1
 75
     0
 76
     0
 77
     0
 78
     0
  0
ENDTAB
  0
TABLE
  2
LTYPE
  5
5
100
AcDbSymbolTable
 70
    25
  0
LTYPE
  5
12
100
AcDbSymbolTableRecord
100
AcDbLinetypeTableRecord
  2
BYBLOCK
 70
     0
  3

 72
    65
 73
     0
 40
0.0
  0
LTYPE
  5
13
100
AcDbSymbolTableRecord
100
AcDbLinetypeTableRecord
  2
BYLAYER
 70
     0
  3

 72
    65
 73
     0
 40
0.0
  0
LTYPE
  5
14
100
AcDbSymbolTableRecord
100
AcDbLinetypeTableRecord
  2
CONTINUOUS
 70
     0
  3
Solid line
 72
    65
 73
     0
 40
0.0
  0
LTYPE
  5
1F
100
AcDbSymbolTableRecord
100
AcDbLinetypeTableRecord
  2
BORDER
 70
     0
  3
__ __ . __ __ . __ __ . __ __ . __ __ . __ __ .
 72
    65
 73
     6
 40
1.75
 49
0.5
 74
     0
 49
-0.25
 74
     0
 49
0.5
 74
     0
 49
-0.25
 74
     0
 49
0.0
 74
     0
 49
-0.25
 74
     0
  0
LTYPE
  5
20
100
AcDbSymbolTableRecord
100
AcDbLinetypeTableRecord
  2
BORDER2
 70
     0
  3
__.__.__.__.__.__.__.__.__.__.__.__.__.__.__.__
 72
    65
 73
     6
 40
0.875
 49
0.25
 74
     0
 49
-0.125
 74
     0
 49
0.25
 74
     0
 49
-0.125
 74
     0
 49
0.0
 74
     0
 49
-0.125
 74
     0
  0
LTYPE
  5
21
100
AcDbSymbolTableRecord
100
AcDbLinetypeTableRecord
  2
BORDERX2
 70
     0
  3
____  ____  .  ____  ____  .  ____  ____  .  __
 72
    65
 73
     6
 40
3.5
 49
1.0
 74
     0
 49
-0.5
 74
     0
 49
1.0
 74
     0
 49
-0.5
 74
     0
 49
0.0
 74
     0
 49
-0.5
 74
     0
  0
LTYPE
  5
22
100
AcDbSymbolTableRecord
100
AcDbLinetypeTableRecord
  2
CENTER
 70
     0
  3
____ _ ____ _ ____ _ ____ _ ____ _ ____ _ ____ 
 72
    65
 73
     4
 40
2.0
 49
1.25
 74
     0
 49
-0.25
 74
     0
 49
0.25
 74
     0
 49
-0.25
 74
     0
  0
LTYPE
  5
23
100
AcDbSymbolTableRecord
100
AcDbLinetypeTableRecord
  2
CENTER2
 70
     0
  3
___ _ ___ _ ___ _ ___ _ ___ _ ___ _ ___ _ ___ _
 72
    65
 73
     4
 40
1.125
 49
0.75
 74
     0
 49
-0.125
 74
     0
 49
0.125
 74
     0
 49
-0.125
 74
     0
  0
LTYPE
  5
24
100
AcDbSymbolTableRecord
100
AcDbLinetypeTableRecord
  2
CENTERX2
 70
     0
  3
________  __  ________  __  ________  __  _____
 72
    65
 73
     4
 40
4.0
 49
2.5
 74
     0
 49
-0.5
 74
     0
 49
0.5
 74
     0
 49
-0.5
 74
     0
  0
LTYPE
  5
25
100
AcDbSymbolTableRecord
100
AcDbLinetypeTableRecord
  2
DASHDOT
 70
     0
  3
__ . __ . __ . __ . __ . __ . __ . __ . __ . __
 72
    65
 73
     4
 40
1.0
 49
0.5
 74
     0
 49
-0.25
 74
     0
 49
0.0
 74
     0
 49
-0.25
 74
     0
  0
LTYPE
  5
26
100
AcDbSymbolTableRecord
100
AcDbLinetypeTableRecord
  2
DASHDOT2
 70
     0
  3
_._._._._._._._._._._._._._._._._._._._._._._._
 72
    65
 73
     4
 40
0.5
 49
0.25
 74
     0
 49
-0.125
 74
     0
 49
0.0
 74
     0
 49
-0.125
 74
     0
  0
LTYPE
  5
27
100
AcDbSymbolTableRecord
100
AcDbLinetypeTableRecord
  2
DASHDOTX2
 70
     0
  3
____  .  ____  .  ____  .  ____  .  ____  .  __
 72
    65
 73
     4
 40
2.0
 49
1.0
 74
     0
 49
-0.5
 74
     0
 49
0.0
 74
     0
 49
-0.5
 74
     0
  0
LTYPE
  5
28
100
AcDbSymbolTableRecord
100
AcDbLinetypeTableRecord
  2
DASHED
 70
     0
  3
__ __ __ __ __ __ __ __ __ __ __ __ __ __ __ __
 72
    65
 73
     2
 40
0.75
 49
0.5
 74
     0
 49
-0.25
 74
     0
  0
LTYPE
  5
29
100
AcDbSymbolTableRecord
100
AcDbLinetypeTableRecord
  2
DASHED2
 70
     0
  3
_ _ _ _ _ _ _ _ _ _ _ _ _ _ _ _ _ _ _ _ _ _ _ _
 72
    65
 73
     2
 40
0.375
 49
0.25
 74
     0
 49
-0.125
 74
     0
  0
LTYPE
  5
2A
100
AcDbSymbolTableRecord
100
AcDbLinetypeTableRecord
  2
DASHEDX2
 70
     0
  3
____  ____  ____  ____  ____  ____  ____  ____ 
 72
    65
 73
     2
 40
1.5
 49
1.0
 74
     0
 49
-0.5
 74
     0
  0
LTYPE
  5
2B
100
AcDbSymbolTableRecord
100
AcDbLinetypeTableRecord
  2
DIVIDE
 70
     0
  3
____ . . ____ . . ____ . . ____ . . ____ . . __
 72
    65
 73
     6
 40
1.25
 49
0.5
 74
     0
 49
-0.25
 74
     0
 49
0.0
 74
     0
 49
-0.25
 74
     0
 49
0.0
 74
     0
 49
-0.25
 74
     0
  0
LTYPE
  5
2C
100
AcDbSymbolTableRecord
100
AcDbLinetypeTableRecord
  2
DIVIDE2
 70
     0
  3
__..__..__..__..__..__..__..__..__..__..__..__.
 72
    65
 73
     6
 40
0.625
 49
0.25
 74
     0
 49
-0.125
 74
     0
 49
0.0
 74
     0
 49
-0.125
 74
     0
 49
0.0
 74
     0
 49
-0.125
 74
     0
  0
LTYPE
  5
2D
100
AcDbSymbolTableRecord
100
AcDbLinetypeTableRecord
  2
DIVIDEX2
 70
     0
  3
________  .  .  ________  .  .  ________  .  . 
 72
    65
 73
     6
 40
2.5
 49
1.0
 74
     0
 49
-0.5
 74
     0
 49
0.0
 74
     0
 49
-0.5
 74
     0
 49
0.0
 74
     0
 49
-0.5
 74
     0
  0
LTYPE
  5
2E
100
AcDbSymbolTableRecord
100
AcDbLinetypeTableRecord
  2
DOT
 70
     0
  3
. . . . . . . . . . . . . . . . . . . . . . . .
 72
    65
 73
     2
 40
0.25
 49
0.0
 74
     0
 49
-0.25
 74
     0
  0
LTYPE
  5
2F
100
AcDbSymbolTableRecord
100
AcDbLinetypeTableRecord
  2
DOT2
 70
     0
  3
...............................................
 72
    65
 73
     2
 40
0.125
 49
0.0
 74
     0
 49
-0.125
 74
     0
  0
LTYPE
  5
30
100
AcDbSymbolTableRecord
100
AcDbLinetypeTableRecord
  2
DOTX2
 70
     0
  3
.  .  .  .  .  .  .  .  .  .  .  .  .  .  .  . 
 72
    65
 73
     2
 40
0.5
 49
0.0
 74
     0
 49
-0.5
 74
     0
  0
LTYPE
  5
31
100
AcDbSymbolTableRecord
100
AcDbLinetypeTableRecord
  2
HIDDEN
 70
     0
  3
__ __ __ __ __ __ __ __ __ __ __ __ __ __ __ __
 72
    65
 73
     2
 40
0.375
 49
0.25
 74
     0
 49
-0.125
 74
     0
  0
LTYPE
  5
32
100
AcDbSymbolTableRecord
100
AcDbLinetypeTableRecord
  2
HIDDEN2
 70
     0
  3
_ _ _ _ _ _ _ _ _ _ _ _ _ _ _ _ _ _ _ _ _ _ _ _
 72
    65
 73
     2
 40
0.1875
 49
0.125
 74
     0
 49
-0.0625
 74
     0
  0
LTYPE
  5
33
100
AcDbSymbolTableRecord
100
AcDbLinetypeTableRecord
  2
HIDDENX2
 70
     0
  3
____ ____ ____ ____ ____ ____ ____ ____ ____ __
 72
    65
 73
     2
 40
0.75
 49
0.5
 74
     0
 49
-0.25
 74
     0
  0
LTYPE
  5
34
100
AcDbSymbolTableRecord
100
AcDbLinetypeTableRecord
  2
PHANTOM
 70
     0
  3
______  __  __  ______  __  __  ______  __  __ 
 72
    65
 73
     6
 40
2.5
 49
1.25
 74
     0
 49
-0.25
 74
     0
 49
0.25
 74
     0
 49
-0.25
 74
     0
 49
0.25
 74
     0
 49
-0.25
 74
     0
  0
LTYPE
  5
35
100
AcDbSymbolTableRecord
100
AcDbLinetypeTableRecord
  2
PHANTOM2
 70
     0
  3
___ _ _ ___ _ _ ___ _ _ ___ _ _ ___ _ _ ___ _ _
 72
    65
 73
     6
 40
1.25
 49
0.625
 74
     0
 49
-0.125
 74
     0
 49
0.125
 74
     0
 49
-0.125
 74
     0
 49
0.125
 74
     0
 49
-0.125
 74
     0
  0
LTYPE
  5
36
100
AcDbSymbolTableRecord
100
AcDbLinetypeTableRecord
  2
PHANTOMX2
 70
     0
  3
____________    ____    ____    ____________   
 72
    65
 73
     6
 40
5.0
 49
2.5
 74
     0
 49
-0.5
 74
     0
 49
0.5
 74
     0
 49
-0.5
 74
     0
 49
0.5
 74
     0
 49
-0.5
 74
     0
  0
ENDTAB
  0
TABLE
  2
LAYER
  5
2
100
AcDbSymbolTable
 70
     5
  0
LAYER
  5
E
100
AcDbSymbolTableRecord
100
AcDbLayerTableRecord
  2
0
 70
     0
 62
     7
  6
CONTINUOUS
  0
LAYER
  5
38
100
AcDbSymbolTableRecord
100
AcDbLayerTableRecord
  2
001
 70
     0
 62
     7
  6
CONTINUOUS
  0
LAYER
  5
350
100
AcDbSymbolTableRecord
100
AcDbLayerTableRecord
  2
BODY
 70
     0
 62
     7
  6
CONTINUOUS
  0
LAYER
  5
351
100
AcDbSymbolTableRecord
100
AcDbLayerTableRecord
  2
SHAFT
 70
     0
 62
     6
  6
CONTINUOUS
  0
LAYER
  5
352
100
AcDbSymbolTableRecord
100
AcDbLayerTableRecord
  2
CENTER
 70
     0
 62
   144
  6
CENTER2
  0
ENDTAB
  0
TABLE
  2
STYLE
  5
3
100
AcDbSymbolTable
 70
     2
  0
STYLE
  5
F
100
AcDbSymbolTableRecord
100
AcDbTextStyleTableRecord
  2
STANDARD
 70
     0
 40
0.0
 41
1.0
 50
0.0
 71
     0
 42
0.2
  3
TXT
  4
BIGFONT
  0
STYLE
  5
37
100
AcDbSymbolTableRecord
100
AcDbTextStyleTableRecord
  2
STANDARD1
 70
     4
 40
0.0
 41
1.0
 50
0.0
 71
     0
 42
0.2
  3
TXT
  4
BIGFONT
  0
ENDTAB
  0
TABLE
  2
VIEW
  5
6
100
AcDbSymbolTable
 70
     0
  0
ENDTAB
  0
TABLE
  2
UCS
  5
7
100
AcDbSymbolTable
 70
     0
  0
ENDTAB
  0
TABLE
  2
APPID
  5
9
100
AcDbSymbolTable
 70
     1
  0
APPID
  5
10
100
AcDbSymbolTableRecord
100
AcDbRegAppTableRecord
  2
ACAD
 70
     0
  0
ENDTAB
  0
TABLE
  2
DIMSTYLE
  5
A
100
AcDbSymbolTable
 70
     1
  0
DIMSTYLE
105
306
100
AcDbSymbolTableRecord
100
AcDbDimStyleTableRecord
  2
STANDARD
 70
     0
  3

  4

  5

  6

  7

 40
1.0
 41
0.18
 42
0.0625
 43
0.38
 44
0.18
 45
0.0
 46
0.0
 47
0.0
 48
0.0
140
0.18
141
0.09
142
0.0
143
25.4
144
1.0
145
0.0
146
1.0
147
0.09
 71
     0
 72
     0
 73
     1
 74
     1
 75
     0
 76
     0
 77
     0
 78
     0
170
     0
171
     2
172
     0
173
     0
174
     0
175
     0
176
     0
177
     0
178
     0
270
     2
271
     4
272
     4
273
     2
274
     2
340
F
275
     0
280
     0
281
     0
282
     0
283
     1
284
     0
285
     0
286
     0
287
     3
288
     0
  0
ENDTAB
  0
TABLE
  2
BLOCK_RECORD
  5
1
100
AcDbSymbolTable
 70
     2
  0
BLOCK_RECORD
  5
18
100
AcDbSymbolTableRecord
100
AcDbBlockTableRecord
  2
*MODEL_SPACE
  0
BLOCK_RECORD
  5
15
100
AcDbSymbolTableRecord
100
AcDbBlockTableRecord
  2
*PAPER_SPACE
  0
BLOCK_RECORD
  5
307
100
AcDbSymbolTableRecord
100
AcDbBlockTableRecord
  2
A$C4D0D3218
  0
BLOCK_RECORD
  5
353
100
AcDbSymbolTableRecord
100
AcDbBlockTableRecord
  2
A$C3D2E53C4
  0
ENDTAB
  0
ENDSEC
  0
SECTION
  2
BLOCKS
  0
BLOCK
  5
19
100
AcDbEntity
  8
0
100
AcDbBlockBegin
  2
*MODEL_SPACE
 70
     0
 10
0.0
 20
0.0
 30
0.0
  3
*MODEL_SPACE
  1

  0
ENDBLK
  5
1A
100
AcDbEntity
  8
0
100
AcDbBlockEnd
  0
BLOCK
  5
16
100
AcDbEntity
 67
     1
  8
0
100
AcDbBlockBegin
  2
*PAPER_SPACE
 70
     0
 10
0.0
 20
0.0
 30
0.0
  3
*PAPER_SPACE
  1

  0
ENDBLK
  5
17
100
AcDbEntity
 67
     1
  8
0
100
AcDbBlockEnd
  0
BLOCK
  5
34E
100
AcDbEntity
  8
0
100
AcDbBlockBegin
  2
A$C4D0D3218
 70
     0
 10
0.0
 20
0.0
 30
0.0
  3
A$C4D0D3218
  1

  0
LINE
  5
308
100
AcDbEntity
  8
BODY
100
AcDbLine
 10
47.298566
 20
58.50411
 30
0.0
 11
30.0
 21
33.988262
 31
0.0
  0
LINE
  5
309
100
AcDbEntity
  8
BODY
100
AcDbLine
 10
47.830578
 20
57.227929
 30
0.0
 11
48.758497
 21
35.164071
 31
0.0
  0
LINE
  5
30A
100
AcDbEntity
  8
BODY
100
AcDbLine
 10
60.0
 20
62.643891
 30
0.0
 11
60.0
 21
35.143891
 31
0.0
  0
LINE
  5
30B
100
AcDbEntity
  8
BODY
100
AcDbLine
 10
0.0
 20
8.643891
 30
0.0
 11
0.0
 21
62.643891
 31
0.0
  0
LINE
  5
30C
100
AcDbEntity
  8
CENTER
100
AcDbLine
 10
30.0
 20
0.0
 30
0.0
 11
30.0
 21
136.35376
 31
0.0
  0
LINE
  5
30D
100
AcDbEntity
  8
BODY
100
AcDbLine
 10
57.0
 20
5.643891
 30
0.0
 11
3.0
 21
5.643891
 31
0.0
  0
ARC
  5
30E
100
AcDbEntity
  8
BODY
100
AcDbCircle
 10
3.0
 20
8.643891
 30
0.0
 40
3.0
100
AcDbArc
 50
180.0
 51
270.0
  0
ARC
  5
30F
100
AcDbEntity
  8
BODY
100
AcDbCircle
 10
51.917656
 20
7.643891
 30
0.0
 40
2.0
100
AcDbArc
 50
182.408216
 51
270.0
  0
LINE
  5
310
100
AcDbEntity
  8
BODY
100
AcDbLine
 10
30.0
 20
33.988262
 30
0.0
 11
50.0
 21
5.643891
 31
0.0
  0
LINE
  5
311
100
AcDbEntity
  8
CENTER
100
AcDbLine
 10
45.826748
 20
30.643891
 30
0.0
 11
72.990715
 21
30.643891
 31
0.0
  0
LINE
  5
312
100
AcDbEntity
  8
BODY
100
AcDbLine
 10
69.138318
 20
35.643891
 30
0.0
 11
48.738318
 21
35.643891
 31
0.0
  0
LINE
  5
313
100
AcDbEntity
  8
BODY
100
AcDbLine
 10
63.238318
 20
35.143891
 30
0.0
 11
48.738318
 21
35.143891
 31
0.0
  0
LINE
  5
314
100
AcDbEntity
  8
BODY
100
AcDbLine
 10
49.158879
 20
25.643891
 30
0.0
 11
69.138318
 21
25.643891
 31
0.0
  0
LINE
  5
315
100
AcDbEntity
  8
BODY
100
AcDbLine
 10
49.155391
 20
25.726818
 30
0.0
 11
49.919423
 21
7.559853
 31
0.0
  0
LINE
  5
316
100
AcDbEntity
  8
BODY
100
AcDbLine
 10
48.738318
 20
26.143891
 30
0.0
 11
63.238318
 21
26.143891
 31
0.0
  0
LWPOLYLINE
  5
317
100
AcDbEntity
  8
BODY
100
AcDbPolyline
 90
        4
 70
     0
 43
0.0
 10
30.0
 20
39.881496
 10
22.0
 20
35.262693
 10
22.0
 20
26.025089
 10
30.0
 20
21.406287
  0
ARC
  5
318
100
AcDbEntity
  8
BODY
100
AcDbCircle
 10
30.0
 20
30.643891
 30
0.0
 40
8.0
100
AcDbArc
 50
90.0
 51
270.0
  0
LINE
  5
319
100
AcDbEntity
  8
CENTER
100
AcDbLine
 10
20.361507
 20
30.643891
 30
0.0
 11
31.763323
 21
30.643891
 31
0.0
  0
LINE
  5
31A
100
AcDbEntity
  8
BODY
100
AcDbLine
 10
49.238318
 20
35.643891
 30
0.0
 11
49.238318
 21
25.643891
 31
0.0
  0
LINE
  5
31B
100
AcDbEntity
  8
BODY
100
AcDbLine
 10
48.738318
 20
35.143891
 30
0.0
 11
48.738318
 21
26.143891
 31
0.0
  0
LINE
  5
31C
100
AcDbEntity
  8
BODY
100
AcDbLine
 10
48.738318
 20
26.143891
 30
0.0
 11
49.238318
 21
25.643891
 31
0.0
  0
LINE
  5
31D
100
AcDbEntity
  8
BODY
100
AcDbLine
 10
48.738318
 20
35.143891
 30
0.0
 11
49.238318
 21
35.643891
 31
0.0
  0
LINE
  5
31E
100
AcDbEntity
  8
BODY
100
AcDbLine
 10
60.0
 20
26.143891
 30
0.0
 11
60.0
 21
8.643891
 31
0.0
  0
ARC
  5
31F
100
AcDbEntity
  8
BODY
100
AcDbCircle
 10
57.0
 20
8.643891
 30
0.0
 40
3.0
100
AcDbArc
 50
270.0
 51
0.0
  0
LINE
  5
320
100
AcDbEntity
  8
BODY
100
AcDbLine
 10
69.138318
 20
21.406287
 30
0.0
 11
63.738318
 21
21.406287
 31
0.0
  0
LINE
  5
321
100
AcDbEntity
  8
BODY
100
AcDbLine
 10
69.138318
 20
39.881496
 30
0.0
 11
63.738318
 21
39.881496
 31
0.0
  0
LINE
  5
322
100
AcDbEntity
  8
BODY
100
AcDbLine
 10
63.238318
 20
35.143891
 30
0.0
 11
63.238318
 21
26.143891
 31
0.0
  0
LINE
  5
323
100
AcDbEntity
  8
BODY
100
AcDbLine
 10
63.738318
 20
39.881496
 30
0.0
 11
63.738318
 21
21.406287
 31
0.0
  0
LINE
  5
324
100
AcDbEntity
  8
BODY
100
AcDbLine
 10
63.238318
 20
26.143891
 30
0.0
 11
63.738318
 21
25.643891
 31
0.0
  0
LINE
  5
325
100
AcDbEntity
  8
BODY
100
AcDbLine
 10
63.238318
 20
35.143891
 30
0.0
 11
63.738318
 21
35.643891
 31
0.0
  0
ARC
  5
326
100
AcDbEntity
  8
BODY
100
AcDbCircle
 10
57.138318
 20
30.643891
 30
0.0
 40
13.0
100
AcDbArc
 50
337.380135
 51
22.619865
  0
LINE
  5
327
100
AcDbEntity
  8
BODY
100
AcDbLine
 10
70.138318
 20
37.781496
 30
0.0
 11
70.138318
 21
23.506287
 31
0.0
  0
ARC
  5
328
100
AcDbEntity
  8
BODY
100
AcDbCircle
 10
67.393834
 20
23.525089
 30
0.0
 40
2.744549
100
AcDbArc
 50
309.465831
 51
50.534169
  0
ARC
  5
329
100
AcDbEntity
  8
BODY
100
AcDbCircle
 10
67.393834
 20
37.762693
 30
0.0
 40
2.744549
100
AcDbArc
 50
309.465831
 51
50.534169
  0
LINE
  5
32A
100
AcDbEntity
  8
BODY
100
AcDbLine
 10
15.25
 20
65.643891
 30
0.0
 11
30.0
 21
65.643891
 31
0.0
  0
LINE
  5
32B
100
AcDbEntity
  8
SHAFT
100
AcDbLine
 10
30.0
 20
123.315647
 30
0.0
 11
13.25
 21
115.643891
 31
0.0
  0
LINE
  5
32C
100
AcDbEntity
  8
SHAFT
100
AcDbLine
 10
14.0
 20
130.643891
 30
0.0
 11
30.0
 21
123.315647
 31
0.0
  0
LINE
  5
32D
100
AcDbEntity
  8
BODY
100
AcDbLine
 10
30.0
 20
115.643891
 30
0.0
 11
13.25
 21
115.643891
 31
0.0
  0
LINE
  5
32E
100
AcDbEntity
  8
SHAFT
100
AcDbLine
 10
14.0
 20
130.643891
 30
0.0
 11
46.0
 21
130.643891
 31
0.0
  0
LINE
  5
32F
100
AcDbEntity
  8
SHAFT
100
AcDbLine
 10
13.25
 20
115.643891
 30
0.0
 11
30.0
 21
115.643891
 31
0.0
  0
LINE
  5
330
100
AcDbEntity
  8
BODY
100
AcDbLine
 10
30.0
 20
90.643891
 30
0.0
 11
13.723903
 21
66.351209
 31
0.0
  0
LINE
  5
331
100
AcDbEntity
  8
BODY
100
AcDbLine
 10
13.25
 20
115.643891
 30
0.0
 11
30.0
 21
90.643891
 31
0.0
  0
LINE
  5
332
100
AcDbEntity
  8
BODY
100
AcDbLine
 10
13.25
 20
115.643891
 30
0.0
 11
13.25
 21
67.643891
 31
0.0
  0
LINE
  5
333
100
AcDbEntity
  8
BODY
100
AcDbLine
 10
13.25
 20
115.643891
 30
0.0
 11
11.085954
 21
67.553982
 31
0.0
  0
ARC
  5
334
100
AcDbEntity
  8
BODY
100
AcDbCircle
 10
15.25
 20
67.643891
 30
0.0
 40
2.0
100
AcDbArc
 50
180.0
 51
270.0
  0
ARC
  5
335
100
AcDbEntity
  8
BODY
100
AcDbCircle
 10
9.087976
 20
67.643891
 30
0.0
 40
2.0
100
AcDbArc
 50
270.0
 51
357.423428
  0
ARC
  5
336
100
AcDbEntity
  8
BODY
100
AcDbCircle
 10
3.0
 20
62.643891
 30
0.0
 40
3.0
100
AcDbArc
 50
90.0
 51
180.0
  0
LINE
  5
337
100
AcDbEntity
  8
BODY
100
AcDbLine
 10
3.0
 20
65.643891
 30
0.0
 11
9.087976
 21
65.643891
 31
0.0
  0
LINE
  5
338
100
AcDbEntity
  8
SHAFT
100
AcDbLine
 10
14.0
 20
130.643891
 30
0.0
 11
13.25
 21
115.643891
 31
0.0
  0
LINE
  5
339
100
AcDbEntity
  8
BODY
100
AcDbLine
 10
46.75
 20
115.643891
 30
0.0
 11
48.914046
 21
67.553982
 31
0.0
  0
ARC
  5
33A
100
AcDbEntity
  8
BODY
100
AcDbCircle
 10
50.912024
 20
67.643891
 30
0.0
 40
2.0
100
AcDbArc
 50
182.576572
 51
270.0
  0
LINE
  5
33B
100
AcDbEntity
  8
BODY
100
AcDbLine
 10
30.0
 20
59.143891
 30
0.0
 11
45.832345
 21
59.143891
 31
0.0
  0
ARC
  5
33C
100
AcDbEntity
  8
BODY
100
AcDbCircle
 10
45.832345
 20
57.143891
 30
0.0
 40
2.0
100
AcDbArc
 50
2.408216
 51
90.0
  0
ARC
  5
33D
100
AcDbEntity
  8
BODY
100
AcDbCircle
 10
57.0
 20
62.643891
 30
0.0
 40
3.0
100
AcDbArc
 50
0.0
 51
90.0
  0
LINE
  5
33E
100
AcDbEntity
  8
BODY
100
AcDbLine
 10
50.912024
 20
65.643891
 30
0.0
 11
57.0
 21
65.643891
 31
0.0
  0
LINE
  5
33F
100
AcDbEntity
  8
BODY
100
AcDbLine
 10
32.0
 20
126.893891
 30
0.0
 11
32.0
 21
106.343891
 31
0.0
  0
LINE
  5
340
100
AcDbEntity
  8
BODY
100
AcDbLine
 10
32.5
 20
127.393891
 30
0.0
 11
32.5
 21
106.643891
 31
0.0
  0
LINE
  5
341
100
AcDbEntity
  8
BODY
100
AcDbLine
 10
32.5
 20
106.643891
 30
0.0
 11
30.0
 21
105.143891
 31
0.0
  0
LINE
  5
342
100
AcDbEntity
  8
BODY
100
AcDbLine
 10
32.5
 20
106.643891
 30
0.0
 11
30.0
 21
106.643891
 31
0.0
  0
LINE
  5
343
100
AcDbEntity
  8
BODY
100
AcDbLine
 10
32.5
 20
111.143891
 30
0.0
 11
32.0
 21
110.643891
 31
0.0
  0
LINE
  5
344
100
AcDbEntity
  8
BODY
100
AcDbLine
 10
30.0
 20
111.143891
 30
0.0
 11
32.5
 21
111.143891
 31
0.0
  0
LINE
  5
345
100
AcDbEntity
  8
BODY
100
AcDbLine
 10
30.0
 20
110.643891
 30
0.0
 11
32.5
 21
110.643891
 31
0.0
  0
LINE
  5
346
100
AcDbEntity
  8
SHAFT
100
AcDbLine
 10
32.0
 20
115.643891
 30
0.0
 11
46.75
 21
115.643891
 31
0.0
  0
LINE
  5
347
100
AcDbEntity
  8
BODY
100
AcDbLine
 10
35.75
 20
130.643891
 30
0.0
 11
32.0
 21
126.893891
 31
0.0
  0
LINE
  5
348
100
AcDbEntity
  8
SHAFT
100
AcDbLine
 10
32.75
 20
127.643891
 30
0.0
 11
35.75
 21
130.643891
 31
0.0
  0
LINE
  5
349
100
AcDbEntity
  8
BODY
100
AcDbLine
 10
46.75
 20
115.643891
 30
0.0
 11
32.0
 21
115.643891
 31
0.0
  0
LINE
  5
34A
100
AcDbEntity
  8
SHAFT
100
AcDbLine
 10
32.75
 20
127.643891
 30
0.0
 11
32.75
 21
115.643891
 31
0.0
  0
LINE
  5
34B
100
AcDbEntity
  8
BODY
100
AcDbLine
 10
32.0
 20
126.893891
 30
0.0
 11
30.0
 21
126.893891
 31
0.0
  0
LINE
  5
34C
100
AcDbEntity
  8
BODY
100
AcDbLine
 10
32.5
 20
127.393891
 30
0.0
 11
30.0
 21
127.393891
 31
0.0
  0
LINE
  5
34D
100
AcDbEntity
  8
SHAFT
100
AcDbLine
 10
46.0
 20
130.643891
 30
0.0
 11
46.75
 21
115.643891
 31
0.0
  0
ENDBLK
  5
34F
100
AcDbEntity
  8
0
100
AcDbBlockEnd
  0
BLOCK
  5
356
100
AcDbEntity
  8
0
100
AcDbBlockBegin
  2
A$C3D2E53C4
 70
     0
 10
0.0
 20
0.0
 30
0.0
  3
A$C3D2E53C4
  1

  0
INSERT
  5
354
100
AcDbEntity
  8
0
  6
CONTINUOUS
100
AcDbBlockReference
  2
A$C4D0D3218
 10
-0.000001
 20
0.000001
 30
0.0
  0
INSERT
  5
355
100
AcDbEntity
  8
0
  6
CONTINUOUS
100
AcDbBlockReference
  2
A$C4D0D3218
 10
558.499999
 20
0.000001
 30
0.0
 41
-1.0
  0
ENDBLK
  5
357
100
AcDbEntity
  8
0
100
AcDbBlockEnd
  0
ENDSEC
  0
SECTION
  2
ENTITIES
  0
ARC
  5
3A
100
AcDbEntity
  8
001
  6
CONTINUOUS
 62
     7
100
AcDbCircle
 10
1568.75
 20
603.5
 30
0.0
 40
2.25
100
AcDbArc
 50
0.0
 51
90.0
  0
LINE
  5
3B
100
AcDbEntity
  8
001
  6
CONTINUOUS
 62
     7
100
AcDbLine
 10
1571.0
 20
603.5
 30
0.0
 11
1571.0
 21
593.0
 31
0.0
  0
ARC
  5
3C
100
AcDbEntity
  8
001
  6
CONTINUOUS
 62
     7
100
AcDbCircle
 10
1568.75
 20
593.0
 30
0.0
 40
2.25
100
AcDbArc
 50
270.0
 51
0.0
  0
ARC
  5
3D
100
AcDbEntity
  8
001
  6
CONTINUOUS
 62
     7
100
AcDbCircle
 10
1568.75
 20
616.250122
 30
0.0
 40
2.25
100
AcDbArc
 50
359.996892
 51
90.0
  0
LINE
  5
3E
100
AcDbEntity
  8
001
  6
CONTINUOUS
 62
     7
100
AcDbLine
 10
1571.0
 20
608.0
 30
0.0
 11
1571.0
 21
616.25
 31
0.0
  0
ARC
  5
3F
100
AcDbEntity
  8
001
  6
CONTINUOUS
 62
     7
100
AcDbCircle
 10
1568.75
 20
608.0
 30
0.0
 40
2.25
100
AcDbArc
 50
270.0
 51
0.0
  0
LINE
  5
40
100
AcDbEntity
  8
001
  6
CONTINUOUS
 62
     7
100
AcDbLine
 10
1539.5
 20
572.0
 30
0.0
 11
1539.5
 21
525.223389
 31
0.0
  0
ARC
  5
41
100
AcDbEntity
  8
001
  6
CONTINUOUS
 62
     7
100
AcDbCircle
 10
1505.406494
 20
706.500122
 30
0.0
 40
3.0
100
AcDbArc
 50
90.0
 51
180.0
  0
ARC
  5
42
100
AcDbEntity
  8
001
  6
CONTINUOUS
 62
     7
100
AcDbCircle
 10
1493.647461
 20
706.500122
 30
0.0
 40
3.0
100
AcDbArc
 50
90.0
 51
180.0
  0
LINE
  5
43
100
AcDbEntity
  8
001
  6
CONTINUOUS
 62
     7
100
AcDbLine
 10
1528.5
 20
673.500122
 30
0.0
 11
1518.148682
 21
707.376709
 31
0.0
  0
ARC
  5
44
100
AcDbEntity
  8
001
  6
CONTINUOUS
 62
     7
100
AcDbCircle
 10
1515.279606
 20
706.500122
 30
0.0
 40
3.0
100
AcDbArc
 50
16.989451
 51
89.996577
  0
LINE
  5
45
100
AcDbEntity
  8
001
  6
CONTINUOUS
 62
     7
100
AcDbLine
 10
1515.279785
 20
709.500122
 30
0.0
 11
1493.647461
 21
709.500122
 31
0.0
  0
ARC
  5
46
100
AcDbEntity
  8
001
  6
CONTINUOUS
 62
     7
100
AcDbCircle
 10
1500.906494
 20
700.000122
 30
0.0
 40
1.5
100
AcDbArc
 50
270.0
 51
0.004663
  0
ARC
  5
47
100
AcDbEntity
  8
001
  6
CONTINUOUS
 62
     7
100
AcDbCircle
 10
1489.147461
 20
700.000122
 30
0.0
 40
1.5
100
AcDbArc
 50
270.0
 51
0.004663
  0
LINE
  5
48
100
AcDbEntity
  8
001
  6
CONTINUOUS
 62
     7
100
AcDbLine
 10
1490.647461
 20
706.500122
 30
0.0
 11
1490.647461
 21
700.000244
 31
0.0
  0
LINE
  5
49
100
AcDbEntity
  8
001
  6
CONTINUOUS
 62
     7
100
AcDbLine
 10
1502.406738
 20
706.500122
 30
0.0
 11
1502.406738
 21
700.000244
 31
0.0
  0
ARC
  5
4A
100
AcDbEntity
  8
001
  6
CONTINUOUS
 62
     7
100
AcDbCircle
 10
1351.25
 20
603.5
 30
0.0
 40
2.25
100
AcDbArc
 50
90.006217
 51
180.0
  0
LINE
  5
4B
100
AcDbEntity
  8
001
  6
CONTINUOUS
 62
     7
100
AcDbLine
 10
1349.0
 20
603.5
 30
0.0
 11
1349.0
 21
593.0
 31
0.0
  0
ARC
  5
4C
100
AcDbEntity
  8
001
  6
CONTINUOUS
 62
     7
100
AcDbCircle
 10
1351.25
 20
593.0
 30
0.0
 40
2.25
100
AcDbArc
 50
180.0
 51
269.993783
  0
ARC
  5
4D
100
AcDbEntity
  8
001
  6
CONTINUOUS
 62
     7
100
AcDbCircle
 10
1351.25
 20
616.250122
 30
0.0
 40
2.25
100
AcDbArc
 50
90.006217
 51
180.003109
  0
LINE
  5
4E
100
AcDbEntity
  8
001
  6
CONTINUOUS
 62
     7
100
AcDbLine
 10
1349.0
 20
608.0
 30
0.0
 11
1349.0
 21
616.25
 31
0.0
  0
ARC
  5
4F
100
AcDbEntity
  8
001
  6
CONTINUOUS
 62
     7
100
AcDbCircle
 10
1351.25
 20
608.0
 30
0.0
 40
2.25
100
AcDbArc
 50
180.0
 51
269.993783
  0
LINE
  5
50
100
AcDbEntity
  8
001
  6
CONTINUOUS
 62
     7
100
AcDbLine
 10
1380.5
 20
572.0
 30
0.0
 11
1380.5
 21
525.223389
 31
0.0
  0
ARC
  5
51
100
AcDbEntity
  8
001
  6
CONTINUOUS
 62
     7
100
AcDbCircle
 10
1414.593506
 20
706.500122
 30
0.0
 40
3.0
100
AcDbArc
 50
0.0
 51
90.0
  0
ARC
  5
52
100
AcDbEntity
  8
001
  6
CONTINUOUS
 62
     7
100
AcDbCircle
 10
1426.352539
 20
706.500122
 30
0.0
 40
3.0
100
AcDbArc
 50
0.0
 51
90.0
  0
LINE
  5
53
100
AcDbEntity
  8
001
  6
CONTINUOUS
 62
     7
100
AcDbLine
 10
1391.5
 20
673.500122
 30
0.0
 11
1401.851318
 21
707.376709
 31
0.0
  0
ARC
  5
54
100
AcDbEntity
  8
001
  6
CONTINUOUS
 62
     7
100
AcDbCircle
 10
1404.720394
 20
706.500122
 30
0.0
 40
3.0
100
AcDbArc
 50
90.003423
 51
163.010549
  0
LINE
  5
55
100
AcDbEntity
  8
001
  6
CONTINUOUS
 62
     7
100
AcDbLine
 10
1404.720215
 20
709.500122
 30
0.0
 11
1426.352539
 21
709.500122
 31
0.0
  0
ARC
  5
56
100
AcDbEntity
  8
001
  6
CONTINUOUS
 62
     7
100
AcDbCircle
 10
1419.093506
 20
700.000122
 30
0.0
 40
1.5
100
AcDbArc
 50
179.995337
 51
270.0
  0
ARC
  5
57
100
AcDbEntity
  8
001
  6
CONTINUOUS
 62
     7
100
AcDbCircle
 10
1430.852539
 20
700.000122
 30
0.0
 40
1.5
100
AcDbArc
 50
179.995336
 51
269.990675
  0
LINE
  5
58
100
AcDbEntity
  8
001
  6
CONTINUOUS
 62
     7
100
AcDbLine
 10
1429.352539
 20
706.500122
 30
0.0
 11
1429.352539
 21
700.000244
 31
0.0
  0
LINE
  5
59
100
AcDbEntity
  8
001
  6
CONTINUOUS
 62
     7
100
AcDbLine
 10
1417.593262
 20
706.500122
 30
0.0
 11
1417.593262
 21
700.000244
 31
0.0
  0
LINE
  5
5A
100
AcDbEntity
  8
001
  6
CONTINUOUS
 62
     7
100
AcDbLine
 10
1533.875
 20
572.0
 30
0.0
 11
1386.125
 21
572.0
 31
0.0
  0
LINE
  5
5B
100
AcDbEntity
  8
001
  6
CONTINUOUS
 62
     7
100
AcDbLine
 10
1568.75
 20
590.75
 30
0.0
 11
1351.249756
 21
590.75
 31
0.0
  0
LINE
  5
5C
100
AcDbEntity
  8
001
  6
CONTINUOUS
 62
     7
100
AcDbLine
 10
1351.249756
 20
605.75
 30
0.0
 11
1568.75
 21
605.75
 31
0.0
  0
LINE
  5
5D
100
AcDbEntity
  8
001
  6
CONTINUOUS
 62
     7
100
AcDbLine
 10
1391.5
 20
673.500122
 30
0.0
 11
1528.5
 21
673.500122
 31
0.0
  0
LINE
  5
5E
100
AcDbEntity
  8
001
  6
CONTINUOUS
 62
     7
100
AcDbLine
 10
1500.906494
 20
698.500122
 30
0.0
 11
1419.093506
 21
698.500122
 31
0.0
  0
LINE
  5
5F
100
AcDbEntity
  8
001
  6
CONTINUOUS
 62
     7
100
AcDbLine
 10
1437.0
 20
718.749878
 30
0.0
 11
1482.999756
 21
718.749878
 31
0.0
  0
ARC
  5
60
100
AcDbEntity
  8
001
  6
CONTINUOUS
 62
     7
100
AcDbCircle
 10
1483.0
 20
720.749878
 30
0.0
 40
2.0
100
AcDbArc
 50
270.0
 51
0.003497
  0
ARC
  5
61
100
AcDbEntity
  8
001
  6
CONTINUOUS
 62
     7
100
AcDbCircle
 10
1437.0
 20
720.749878
 30
0.0
 40
2.0
100
AcDbArc
 50
179.996503
 51
270.0
  0
LINE
  5
62
100
AcDbEntity
  8
001
  6
CONTINUOUS
 62
     7
100
AcDbLine
 10
1471.037109
 20
718.749878
 30
0.0
 11
1473.0
 21
715.349854
 31
0.0
  0
LINE
  5
63
100
AcDbEntity
  8
001
  6
CONTINUOUS
 62
     7
100
AcDbLine
 10
1447.0
 20
715.349854
 30
0.0
 11
1448.962891
 21
718.749878
 31
0.0
  0
LINE
  5
64
100
AcDbEntity
  8
001
  6
CONTINUOUS
 62
     7
100
AcDbLine
 10
1447.0
 20
715.349854
 30
0.0
 11
1473.0
 21
715.349854
 31
0.0
  0
LINE
  5
65
100
AcDbEntity
  8
001
  6
CONTINUOUS
 62
     7
100
AcDbLine
 10
1473.0
 20
715.349854
 30
0.0
 11
1473.0
 21
698.500122
 31
0.0
  0
LINE
  5
66
100
AcDbEntity
  8
001
  6
CONTINUOUS
 62
     7
100
AcDbLine
 10
1447.0
 20
715.349854
 30
0.0
 11
1447.0
 21
698.500122
 31
0.0
  0
LINE
  5
67
100
AcDbEntity
  8
001
  6
CONTINUOUS
 62
     7
100
AcDbLine
 10
1492.446045
 20
675.295288
 30
0.0
 11
1492.446045
 21
695.956543
 31
0.0
  0
LINE
  5
68
100
AcDbEntity
  8
001
  6
CONTINUOUS
 62
     7
100
AcDbLine
 10
1427.553711
 20
675.295288
 30
0.0
 11
1427.553711
 21
695.956543
 31
0.0
  0
LINE
  5
69
100
AcDbEntity
  8
001
  6
CONTINUOUS
 62
     7
100
AcDbLine
 10
939.220215
 20
585.188232
 30
0.0
 11
935.0
 21
572.0
 31
0.0
  0
ARC
  5
6A
100
AcDbEntity
  8
001
  6
CONTINUOUS
 62
     7
100
AcDbCircle
 10
967.0
 20
593.75
 30
0.0
 40
3.0
100
AcDbArc
 50
270.0
 51
0.0
  0
LINE
  5
6B
100
AcDbEntity
  8
001
  6
CONTINUOUS
 62
     7
100
AcDbLine
 10
970.0
 20
602.75
 30
0.0
 11
970.0
 21
593.75
 31
0.0
  0
ARC
  5
6C
100
AcDbEntity
  8
001
  6
CONTINUOUS
 62
     7
100
AcDbCircle
 10
967.0
 20
602.75
 30
0.0
 40
3.0
100
AcDbArc
 50
0.0
 51
90.0
  0
ARC
  5
6D
100
AcDbEntity
  8
001
  6
CONTINUOUS
 62
     7
100
AcDbCircle
 10
967.0
 20
608.75
 30
0.0
 40
3.0
100
AcDbArc
 50
270.0
 51
0.0
  0
LINE
  5
6E
100
AcDbEntity
  8
001
  6
CONTINUOUS
 62
     7
100
AcDbLine
 10
970.0
 20
608.75
 30
0.0
 11
970.0
 21
615.500122
 31
0.0
  0
ARC
  5
6F
100
AcDbEntity
  8
001
  6
CONTINUOUS
 62
     7
100
AcDbCircle
 10
967.0
 20
615.500122
 30
0.0
 40
3.0
100
AcDbArc
 50
0.0
 51
90.0
  0
ARC
  5
70
100
AcDbEntity
  8
001
  6
CONTINUOUS
 62
     7
100
AcDbCircle
 10
934.706843
 20
695.500122
 30
0.0
 40
3.0
100
AcDbArc
 50
4.085693
 51
90.001066
  0
LINE
  5
71
100
AcDbEntity
  8
001
  6
CONTINUOUS
 62
     7
100
AcDbLine
 10
939.0
 20
677.500122
 30
0.0
 11
937.699219
 21
695.713867
 31
0.0
  0
LINE
  5
72
100
AcDbEntity
  8
001
  6
CONTINUOUS
 62
     7
100
AcDbLine
 10
927.175781
 20
706.687256
 30
0.0
 11
929.0
 21
677.500122
 31
0.0
  0
ARC
  5
73
100
AcDbEntity
  8
001
  6
CONTINUOUS
 62
     7
100
AcDbCircle
 10
924.181623
 20
706.500122
 30
0.0
 40
3.0
100
AcDbArc
 50
3.576314
 51
89.999672
  0
LINE
  5
74
100
AcDbEntity
  8
001
  6
CONTINUOUS
 62
     7
100
AcDbLine
 10
934.706787
 20
698.500122
 30
0.0
 11
927.6875
 21
698.500122
 31
0.0
  0
LINE
  5
75
100
AcDbEntity
  8
001
  6
CONTINUOUS
 62
     7
100
AcDbLine
 10
843.397461
 20
626.081421
 30
0.0
 11
846.091675
 21
677.500122
 31
0.0
  0
ARC
  5
76
100
AcDbEntity
  8
001
  6
CONTINUOUS
 62
     7
100
AcDbCircle
 10
811.000061
 20
593.75
 30
0.0
 40
3.0
100
AcDbArc
 50
180.0
 51
270.004663
  0
LINE
  5
77
100
AcDbEntity
  8
001
  6
CONTINUOUS
 62
     7
100
AcDbLine
 10
808.000061
 20
602.75
 30
0.0
 11
808.000061
 21
593.75
 31
0.0
  0
ARC
  5
78
100
AcDbEntity
  8
001
  6
CONTINUOUS
 62
     7
100
AcDbCircle
 10
811.000061
 20
602.75
 30
0.0
 40
3.0
100
AcDbArc
 50
89.995337
 51
180.0
  0
ARC
  5
79
100
AcDbEntity
  8
001
  6
CONTINUOUS
 62
     7
100
AcDbCircle
 10
811.000061
 20
608.75
 30
0.0
 40
3.0
100
AcDbArc
 50
180.0
 51
270.004663
  0
LINE
  5
7A
100
AcDbEntity
  8
001
  6
CONTINUOUS
 62
     7
100
AcDbLine
 10
808.000061
 20
608.75
 30
0.0
 11
808.000061
 21
615.500122
 31
0.0
  0
ARC
  5
7B
100
AcDbEntity
  8
001
  6
CONTINUOUS
 62
     7
100
AcDbCircle
 10
811.000061
 20
615.500122
 30
0.0
 40
3.0
100
AcDbArc
 50
89.995337
 51
180.0
  0
LINE
  5
7C
100
AcDbEntity
  8
001
  6
CONTINUOUS
 62
     7
100
AcDbLine
 10
838.780029
 20
585.188232
 30
0.0
 11
843.0
 21
572.0
 31
0.0
  0
ARC
  5
7D
100
AcDbEntity
  8
001
  6
CONTINUOUS
 62
     7
100
AcDbCircle
 10
843.293401
 20
695.500122
 30
0.0
 40
3.0
100
AcDbArc
 50
89.998934
 51
175.914307
  0
LINE
  5
7E
100
AcDbEntity
  8
001
  6
CONTINUOUS
 62
     7
100
AcDbLine
 10
839.0
 20
677.500122
 30
0.0
 11
840.301025
 21
695.713867
 31
0.0
  0
LINE
  5
7F
100
AcDbEntity
  8
001
  6
CONTINUOUS
 62
     7
100
AcDbLine
 10
850.824219
 20
706.687256
 30
0.0
 11
849.0
 21
677.500122
 31
0.0
  0
ARC
  5
80
100
AcDbEntity
  8
001
  6
CONTINUOUS
 62
     7
100
AcDbCircle
 10
853.818377
 20
706.500122
 30
0.0
 40
3.0
100
AcDbArc
 50
90.000328
 51
176.423686
  0
LINE
  5
81
100
AcDbEntity
  8
001
  6
CONTINUOUS
 62
     7
100
AcDbLine
 10
843.293457
 20
698.500122
 30
0.0
 11
850.3125
 21
698.500122
 31
0.0
  0
LINE
  5
82
100
AcDbEntity
  8
001
  6
CONTINUOUS
 62
     7
100
AcDbLine
 10
924.181641
 20
709.500122
 30
0.0
 11
853.818359
 21
709.500122
 31
0.0
  0
LINE
  5
83
100
AcDbEntity
  8
001
  6
CONTINUOUS
 62
     7
100
AcDbLine
 10
939.0
 20
677.500122
 30
0.0
 11
839.0
 21
677.500122
 31
0.0
  0
LINE
  5
84
100
AcDbEntity
  8
001
  6
CONTINUOUS
 62
     7
100
AcDbLine
 10
811.000305
 20
618.500122
 30
0.0
 11
967.0
 21
618.500122
 31
0.0
  0
LINE
  5
85
100
AcDbEntity
  8
001
  6
CONTINUOUS
 62
     7
100
AcDbLine
 10
967.0
 20
605.75
 30
0.0
 11
811.000305
 21
605.75
 31
0.0
  0
LINE
  5
86
100
AcDbEntity
  8
001
  6
CONTINUOUS
 62
     7
100
AcDbLine
 10
811.000305
 20
590.75
 30
0.0
 11
967.0
 21
590.75
 31
0.0
  0
LINE
  5
87
100
AcDbEntity
  8
001
  6
CONTINUOUS
 62
     7
100
AcDbLine
 10
847.114014
 20
572.0
 30
0.0
 11
930.522217
 21
572.0
 31
0.0
  0
LINE
  5
88
100
AcDbEntity
  8
001
  6
CONTINUOUS
 62
     7
100
AcDbLine
 10
866.0
 20
718.749878
 30
0.0
 11
912.0
 21
718.749878
 31
0.0
  0
LINE
  5
89
100
AcDbEntity
  8
001
  6
CONTINUOUS
 62
     7
100
AcDbLine
 10
900.037109
 20
718.749878
 30
0.0
 11
902.0
 21
715.349854
 31
0.0
  0
LINE
  5
8A
100
AcDbEntity
  8
001
  6
CONTINUOUS
 62
     7
100
AcDbLine
 10
876.0
 20
715.349854
 30
0.0
 11
877.962891
 21
718.749878
 31
0.0
  0
LINE
  5
8B
100
AcDbEntity
  8
001
  6
CONTINUOUS
 62
     7
100
AcDbLine
 10
876.0
 20
715.349854
 30
0.0
 11
902.0
 21
715.349854
 31
0.0
  0
LINE
  5
8C
100
AcDbEntity
  8
001
  6
CONTINUOUS
 62
     7
100
AcDbLine
 10
902.0
 20
715.349854
 30
0.0
 11
902.0
 21
709.500122
 31
0.0
  0
LINE
  5
8D
100
AcDbEntity
  8
001
  6
CONTINUOUS
 62
     7
100
AcDbLine
 10
876.0
 20
715.349854
 30
0.0
 11
876.0
 21
709.500122
 31
0.0
  0
ARC
  5
8E
100
AcDbEntity
  8
001
  6
CONTINUOUS
 62
     7
100
AcDbCircle
 10
912.203315
 20
433.095215
 30
0.0
 40
3.0
100
AcDbArc
 50
347.499928
 51
89.998965
  0
LINE
  5
8F
100
AcDbEntity
  8
001
  6
CONTINUOUS
 62
     7
100
AcDbLine
 10
865.796753
 20
436.095215
 30
0.0
 11
912.203369
 21
436.095215
 31
0.0
  0
ARC
  5
90
100
AcDbEntity
  8
001
  6
CONTINUOUS
 62
     7
100
AcDbCircle
 10
865.796746
 20
433.095215
 30
0.0
 40
3.0
100
AcDbArc
 50
89.999869
 51
192.500072
  0
ARC
  5
91
100
AcDbEntity
  8
001
  6
CONTINUOUS
 62
     7
100
AcDbCircle
 10
912.13187
 20
400.431305
 30
0.0
 40
4.0
100
AcDbArc
 50
167.500077
 51
269.999515
  0
ARC
  5
92
100
AcDbEntity
  8
001
  6
CONTINUOUS
 62
     7
100
AcDbCircle
 10
865.868191
 20
400.431305
 30
0.0
 40
4.0
100
AcDbArc
 50
269.99961
 51
12.499923
  0
ARC
  5
93
100
AcDbEntity
  8
001
  6
CONTINUOUS
 62
     7
100
AcDbCircle
 10
944.67765
 20
645.121094
 30
0.0
 40
9.0
100
AcDbArc
 50
4.573956
 51
90.000238
  0
LINE
  5
94
100
AcDbEntity
  8
001
  6
CONTINUOUS
 62
     7
100
AcDbLine
 10
944.677612
 20
654.121094
 30
0.0
 11
942.617432
 21
654.121094
 31
0.0
  0
ARC
  5
95
100
AcDbEntity
  8
001
  6
CONTINUOUS
 62
     7
100
AcDbCircle
 10
942.617431
 20
645.121094
 30
0.0
 40
9.0
100
AcDbArc
 50
89.999993
 51
182.999513
  0
ARC
  5
96
100
AcDbEntity
  8
001
  6
CONTINUOUS
 62
     7
100
AcDbCircle
 10
937.330492
 20
669.574496
 30
0.0
 40
5.0
100
AcDbArc
 50
182.999422
 51
260.000344
  0
LINE
  5
97
100
AcDbEntity
  8
001
  6
CONTINUOUS
 62
     7
100
AcDbLine
 10
934.602783
 20
626.081421
 30
0.0
 11
931.908264
 21
677.500122
 31
0.0
  0
LINE
  5
98
100
AcDbEntity
  8
001
  6
CONTINUOUS
 62
     7
100
AcDbLine
 10
956.192505
 20
661.171448
 30
0.0
 11
936.46228
 21
664.650452
 31
0.0
  0
ARC
  5
99
100
AcDbEntity
  8
001
  6
CONTINUOUS
 62
     7
100
AcDbCircle
 10
955.324272
 20
656.247469
 30
0.0
 40
5.0
100
AcDbArc
 50
4.573743
 51
80.000093
  0
LINE
  5
9A
100
AcDbEntity
  8
001
  6
CONTINUOUS
 62
     7
100
AcDbLine
 10
961.827271
 20
637.659607
 30
0.0
 11
960.30835
 21
656.646179
 31
0.0
  0
LINE
  5
9B
100
AcDbEntity
  8
001
  6
CONTINUOUS
 62
     7
100
AcDbLine
 10
833.322388
 20
654.121094
 30
0.0
 11
835.382629
 21
654.121094
 31
0.0
  0
ARC
  5
9C
100
AcDbEntity
  8
001
  6
CONTINUOUS
 62
     7
100
AcDbCircle
 10
835.38263
 20
645.121094
 30
0.0
 40
9.0
100
AcDbArc
 50
357.000487
 51
90.000007
  0
ARC
  5
9D
100
AcDbEntity
  8
001
  6
CONTINUOUS
 62
     7
100
AcDbCircle
 10
840.669569
 20
669.574496
 30
0.0
 40
5.0
100
AcDbArc
 50
279.999656
 51
357.000578
  0
LINE
  5
9E
100
AcDbEntity
  8
001
  6
CONTINUOUS
 62
     7
100
AcDbLine
 10
821.807556
 20
661.171448
 30
0.0
 11
841.537781
 21
664.650452
 31
0.0
  0
ARC
  5
9F
100
AcDbEntity
  8
001
  6
CONTINUOUS
 62
     7
100
AcDbCircle
 10
833.322472
 20
645.121094
 30
0.0
 40
9.0
100
AcDbArc
 50
90.000539
 51
175.426044
  0
ARC
  5
A0
100
AcDbEntity
  8
001
  6
CONTINUOUS
 62
     7
100
AcDbCircle
 10
822.675846
 20
656.247418
 30
0.0
 40
5.0
100
AcDbArc
 50
100.00057
 51
175.425671
  0
LINE
  5
A1
100
AcDbEntity
  8
001
  6
CONTINUOUS
 62
     7
100
AcDbLine
 10
816.172791
 20
637.659607
 30
0.0
 11
817.691711
 21
656.646179
 31
0.0
  0
LINE
  5
A2
100
AcDbEntity
  8
001
  6
CONTINUOUS
 62
     7
100
AcDbLine
 10
1566.5
 20
618.500122
 30
0.0
 11
1566.5
 21
620.800049
 31
0.0
  0
LINE
  5
A3
100
AcDbEntity
  8
001
  6
CONTINUOUS
 62
     7
100
AcDbLine
 10
1542.5
 20
618.500122
 30
0.0
 11
1542.5
 21
620.800049
 31
0.0
  0
LINE
  5
A4
100
AcDbEntity
  8
001
  6
CONTINUOUS
 62
     7
100
AcDbLine
 10
1566.5
 20
620.800049
 30
0.0
 11
1542.5
 21
620.800049
 31
0.0
  0
ARC
  5
A5
100
AcDbEntity
  8
001
  6
CONTINUOUS
 62
     7
100
AcDbCircle
 10
1562.72725
 20
625.655253
 30
0.0
 40
4.856074
100
AcDbArc
 50
64.384694
 51
124.383775
  0
ARC
  5
A6
100
AcDbEntity
  8
001
  6
CONTINUOUS
 62
     7
100
AcDbCircle
 10
1554.5
 20
612.359826
 30
0.0
 40
18.151531
100
AcDbArc
 50
72.411965
 51
107.588035
  0
ARC
  5
A7
100
AcDbEntity
  8
001
  6
CONTINUOUS
 62
     7
100
AcDbCircle
 10
1546.27275
 20
625.655253
 30
0.0
 40
4.856074
100
AcDbArc
 50
55.616225
 51
115.615306
  0
LINE
  5
A8
100
AcDbEntity
  8
001
  6
CONTINUOUS
 62
     7
100
AcDbLine
 10
1563.5
 20
630.800049
 30
0.0
 11
1565.469482
 21
629.662842
 31
0.0
  0
LINE
  5
A9
100
AcDbEntity
  8
001
  6
CONTINUOUS
 62
     7
100
AcDbLine
 10
1545.5
 20
630.800049
 30
0.0
 11
1543.530273
 21
629.662842
 31
0.0
  0
LINE
  5
AA
100
AcDbEntity
  8
001
  6
CONTINUOUS
 62
     7
100
AcDbLine
 10
1563.5
 20
630.800049
 30
0.0
 11
1545.5
 21
630.800049
 31
0.0
  0
LINE
  5
AB
100
AcDbEntity
  8
001
  6
CONTINUOUS
 62
     7
100
AcDbLine
 10
1565.469482
 20
629.662842
 30
0.0
 11
1565.469482
 21
620.800049
 31
0.0
  0
LINE
  5
AC
100
AcDbEntity
  8
001
  6
CONTINUOUS
 62
     7
100
AcDbLine
 10
1559.984863
 20
629.662842
 30
0.0
 11
1559.984863
 21
620.800049
 31
0.0
  0
LINE
  5
AD
100
AcDbEntity
  8
001
  6
CONTINUOUS
 62
     7
100
AcDbLine
 10
1549.015137
 20
629.662842
 30
0.0
 11
1549.015137
 21
620.800049
 31
0.0
  0
LINE
  5
AE
100
AcDbEntity
  8
001
  6
CONTINUOUS
 62
     7
100
AcDbLine
 10
1543.530273
 20
629.662842
 30
0.0
 11
1543.530273
 21
620.800049
 31
0.0
  0
ARC
  5
AF
100
AcDbEntity
  8
001
  6
CONTINUOUS
 62
     7
100
AcDbCircle
 10
1554.5
 20
628.450073
 30
0.0
 40
10.0
100
AcDbArc
 50
53.130102
 51
126.869898
  0
LINE
  5
B0
100
AcDbEntity
  8
001
  6
CONTINUOUS
 62
     7
100
AcDbLine
 10
1560.5
 20
630.800049
 30
0.0
 11
1560.5
 21
636.450073
 31
0.0
  0
LINE
  5
B1
100
AcDbEntity
  8
001
  6
CONTINUOUS
 62
     7
100
AcDbLine
 10
1548.5
 20
630.800049
 30
0.0
 11
1548.5
 21
636.450073
 31
0.0
  0
LINE
  5
B2
100
AcDbEntity
  8
001
  6
CONTINUOUS
 62
     7
100
AcDbLine
 10
1560.5
 20
636.450073
 30
0.0
 11
1548.5
 21
636.450073
 31
0.0
  0
LINE
  5
B3
100
AcDbEntity
  8
001
  6
CONTINUOUS
 62
     7
100
AcDbLine
 10
1566.5
 20
590.75
 30
0.0
 11
1566.5
 21
588.450073
 31
0.0
  0
LINE
  5
B4
100
AcDbEntity
  8
001
  6
CONTINUOUS
 62
     7
100
AcDbLine
 10
1566.5
 20
588.450073
 30
0.0
 11
1542.5
 21
588.450073
 31
0.0
  0
ARC
  5
B5
100
AcDbEntity
  8
001
  6
CONTINUOUS
 62
     7
100
AcDbCircle
 10
1546.27275
 20
585.594747
 30
0.0
 40
4.856074
100
AcDbArc
 50
244.384694
 51
304.383775
  0
ARC
  5
B6
100
AcDbEntity
  8
001
  6
CONTINUOUS
 62
     7
100
AcDbCircle
 10
1554.5
 20
598.890174
 30
0.0
 40
18.151531
100
AcDbArc
 50
252.411965
 51
287.588035
  0
ARC
  5
B7
100
AcDbEntity
  8
001
  6
CONTINUOUS
 62
     7
100
AcDbCircle
 10
1562.72725
 20
585.594747
 30
0.0
 40
4.856074
100
AcDbArc
 50
235.616225
 51
295.615306
  0
LINE
  5
B8
100
AcDbEntity
  8
001
  6
CONTINUOUS
 62
     7
100
AcDbLine
 10
1545.5
 20
580.450073
 30
0.0
 11
1543.530273
 21
581.587158
 31
0.0
  0
LINE
  5
B9
100
AcDbEntity
  8
001
  6
CONTINUOUS
 62
     7
100
AcDbLine
 10
1563.5
 20
580.450073
 30
0.0
 11
1565.469482
 21
581.587158
 31
0.0
  0
LINE
  5
BA
100
AcDbEntity
  8
001
  6
CONTINUOUS
 62
     7
100
AcDbLine
 10
1543.530273
 20
581.587158
 30
0.0
 11
1543.530273
 21
588.450073
 31
0.0
  0
LINE
  5
BB
100
AcDbEntity
  8
001
  6
CONTINUOUS
 62
     7
100
AcDbLine
 10
1549.015137
 20
581.587158
 30
0.0
 11
1549.015137
 21
588.450073
 31
0.0
  0
LINE
  5
BC
100
AcDbEntity
  8
001
  6
CONTINUOUS
 62
     7
100
AcDbLine
 10
1559.984863
 20
581.587158
 30
0.0
 11
1559.984863
 21
588.450073
 31
0.0
  0
LINE
  5
BD
100
AcDbEntity
  8
001
  6
CONTINUOUS
 62
     7
100
AcDbLine
 10
1565.469482
 20
581.587158
 30
0.0
 11
1565.469482
 21
588.450073
 31
0.0
  0
LINE
  5
BE
100
AcDbEntity
  8
001
  6
CONTINUOUS
 62
     7
100
AcDbLine
 10
1545.5
 20
580.450073
 30
0.0
 11
1563.5
 21
580.450073
 31
0.0
  0
LINE
  5
BF
100
AcDbEntity
  8
001
  6
CONTINUOUS
 62
     7
100
AcDbLine
 10
1542.5
 20
590.75
 30
0.0
 11
1542.5
 21
588.450073
 31
0.0
  0
LINE
  5
C0
100
AcDbEntity
  8
001
  6
CONTINUOUS
 62
     7
100
AcDbLine
 10
1543.530273
 20
584.59436
 30
0.0
 11
1539.5
 21
572.0
 31
0.0
  0
LINE
  5
C1
100
AcDbEntity
  8
001
  6
CONTINUOUS
 62
     7
100
AcDbLine
 10
1353.5
 20
618.500122
 30
0.0
 11
1353.5
 21
620.800049
 31
0.0
  0
LINE
  5
C2
100
AcDbEntity
  8
001
  6
CONTINUOUS
 62
     7
100
AcDbLine
 10
1377.5
 20
618.500122
 30
0.0
 11
1377.5
 21
620.800049
 31
0.0
  0
LINE
  5
C3
100
AcDbEntity
  8
001
  6
CONTINUOUS
 62
     7
100
AcDbLine
 10
1353.5
 20
620.800049
 30
0.0
 11
1377.5
 21
620.800049
 31
0.0
  0
ARC
  5
C4
100
AcDbEntity
  8
001
  6
CONTINUOUS
 62
     7
100
AcDbCircle
 10
1357.27275
 20
625.655253
 30
0.0
 40
4.856074
100
AcDbArc
 50
55.616225
 51
115.615306
  0
ARC
  5
C5
100
AcDbEntity
  8
001
  6
CONTINUOUS
 62
     7
100
AcDbCircle
 10
1365.5
 20
612.359826
 30
0.0
 40
18.151531
100
AcDbArc
 50
72.411965
 51
107.588035
  0
ARC
  5
C6
100
AcDbEntity
  8
001
  6
CONTINUOUS
 62
     7
100
AcDbCircle
 10
1373.72725
 20
625.655253
 30
0.0
 40
4.856074
100
AcDbArc
 50
64.384694
 51
124.383775
  0
LINE
  5
C7
100
AcDbEntity
  8
001
  6
CONTINUOUS
 62
     7
100
AcDbLine
 10
1356.5
 20
630.800049
 30
0.0
 11
1354.530273
 21
629.662842
 31
0.0
  0
LINE
  5
C8
100
AcDbEntity
  8
001
  6
CONTINUOUS
 62
     7
100
AcDbLine
 10
1374.5
 20
630.800049
 30
0.0
 11
1376.469727
 21
629.662842
 31
0.0
  0
LINE
  5
C9
100
AcDbEntity
  8
001
  6
CONTINUOUS
 62
     7
100
AcDbLine
 10
1356.5
 20
630.800049
 30
0.0
 11
1374.5
 21
630.800049
 31
0.0
  0
LINE
  5
CA
100
AcDbEntity
  8
001
  6
CONTINUOUS
 62
     7
100
AcDbLine
 10
1354.530273
 20
629.662842
 30
0.0
 11
1354.530273
 21
620.800049
 31
0.0
  0
LINE
  5
CB
100
AcDbEntity
  8
001
  6
CONTINUOUS
 62
     7
100
AcDbLine
 10
1360.015137
 20
629.662842
 30
0.0
 11
1360.015137
 21
620.800049
 31
0.0
  0
LINE
  5
CC
100
AcDbEntity
  8
001
  6
CONTINUOUS
 62
     7
100
AcDbLine
 10
1370.984863
 20
629.662842
 30
0.0
 11
1370.984863
 21
620.800049
 31
0.0
  0
LINE
  5
CD
100
AcDbEntity
  8
001
  6
CONTINUOUS
 62
     7
100
AcDbLine
 10
1376.469727
 20
629.662842
 30
0.0
 11
1376.469727
 21
620.800049
 31
0.0
  0
ARC
  5
CE
100
AcDbEntity
  8
001
  6
CONTINUOUS
 62
     7
100
AcDbCircle
 10
1365.5
 20
628.450073
 30
0.0
 40
10.0
100
AcDbArc
 50
53.130102
 51
126.869898
  0
LINE
  5
CF
100
AcDbEntity
  8
001
  6
CONTINUOUS
 62
     7
100
AcDbLine
 10
1359.5
 20
630.800049
 30
0.0
 11
1359.5
 21
636.450073
 31
0.0
  0
LINE
  5
D0
100
AcDbEntity
  8
001
  6
CONTINUOUS
 62
     7
100
AcDbLine
 10
1371.5
 20
630.800049
 30
0.0
 11
1371.5
 21
636.450073
 31
0.0
  0
LINE
  5
D1
100
AcDbEntity
  8
001
  6
CONTINUOUS
 62
     7
100
AcDbLine
 10
1359.5
 20
636.450073
 30
0.0
 11
1371.5
 21
636.450073
 31
0.0
  0
LINE
  5
D2
100
AcDbEntity
  8
001
  6
CONTINUOUS
 62
     7
100
AcDbLine
 10
1353.5
 20
590.75
 30
0.0
 11
1353.5
 21
588.450073
 31
0.0
  0
LINE
  5
D3
100
AcDbEntity
  8
001
  6
CONTINUOUS
 62
     7
100
AcDbLine
 10
1353.5
 20
588.450073
 30
0.0
 11
1377.5
 21
588.450073
 31
0.0
  0
LINE
  5
D4
100
AcDbEntity
  8
001
  6
CONTINUOUS
 62
     7
100
AcDbLine
 10
1377.5
 20
590.75
 30
0.0
 11
1377.5
 21
588.450073
 31
0.0
  0
ARC
  5
D5
100
AcDbEntity
  8
001
  6
CONTINUOUS
 62
     7
100
AcDbCircle
 10
1373.72725
 20
585.594747
 30
0.0
 40
4.856074
100
AcDbArc
 50
235.616225
 51
295.615306
  0
ARC
  5
D6
100
AcDbEntity
  8
001
  6
CONTINUOUS
 62
     7
100
AcDbCircle
 10
1365.5
 20
598.890174
 30
0.0
 40
18.151531
100
AcDbArc
 50
252.411965
 51
287.588035
  0
ARC
  5
D7
100
AcDbEntity
  8
001
  6
CONTINUOUS
 62
     7
100
AcDbCircle
 10
1357.27275
 20
585.594747
 30
0.0
 40
4.856074
100
AcDbArc
 50
244.384694
 51
304.383775
  0
LINE
  5
D8
100
AcDbEntity
  8
001
  6
CONTINUOUS
 62
     7
100
AcDbLine
 10
1374.5
 20
580.450073
 30
0.0
 11
1376.469727
 21
581.587158
 31
0.0
  0
LINE
  5
D9
100
AcDbEntity
  8
001
  6
CONTINUOUS
 62
     7
100
AcDbLine
 10
1356.5
 20
580.450073
 30
0.0
 11
1354.530273
 21
581.587158
 31
0.0
  0
LINE
  5
DA
100
AcDbEntity
  8
001
  6
CONTINUOUS
 62
     7
100
AcDbLine
 10
1376.469727
 20
581.587158
 30
0.0
 11
1376.469727
 21
588.450073
 31
0.0
  0
LINE
  5
DB
100
AcDbEntity
  8
001
  6
CONTINUOUS
 62
     7
100
AcDbLine
 10
1370.984863
 20
581.587158
 30
0.0
 11
1370.984863
 21
588.450073
 31
0.0
  0
LINE
  5
DC
100
AcDbEntity
  8
001
  6
CONTINUOUS
 62
     7
100
AcDbLine
 10
1360.015137
 20
581.587158
 30
0.0
 11
1360.015137
 21
588.450073
 31
0.0
  0
LINE
  5
DD
100
AcDbEntity
  8
001
  6
CONTINUOUS
 62
     7
100
AcDbLine
 10
1354.530273
 20
581.587158
 30
0.0
 11
1354.530273
 21
588.450073
 31
0.0
  0
LINE
  5
DE
100
AcDbEntity
  8
001
  6
CONTINUOUS
 62
     7
100
AcDbLine
 10
1374.5
 20
580.450073
 30
0.0
 11
1356.5
 21
580.450073
 31
0.0
  0
LINE
  5
DF
100
AcDbEntity
  8
001
  6
CONTINUOUS
 62
     7
100
AcDbLine
 10
1376.469727
 20
584.59436
 30
0.0
 11
1380.5
 21
572.0
 31
0.0
  0
ARC
  5
E0
100
AcDbEntity
  8
001
  6
CONTINUOUS
 62
     7
100
AcDbCircle
 10
1540.192045
 20
623.500122
 30
0.0
 40
5.0
100
AcDbArc
 50
193.696558
 51
269.999672
  0
LINE
  5
E1
100
AcDbEntity
  8
001
  6
CONTINUOUS
 62
     7
100
AcDbLine
 10
1568.75
 20
618.500122
 30
0.0
 11
1351.249756
 21
618.500122
 31
0.0
  0
LINE
  5
E2
100
AcDbEntity
  8
001
  6
CONTINUOUS
 62
     7
100
AcDbLine
 10
1522.859863
 20
673.500122
 30
0.0
 11
1535.334106
 21
622.316223
 31
0.0
  0
ARC
  5
E3
100
AcDbEntity
  8
001
  6
CONTINUOUS
 62
     7
100
AcDbCircle
 10
1379.808092
 20
623.500122
 30
0.0
 40
5.0
100
AcDbArc
 50
269.998759
 51
346.302722
  0
LINE
  5
E4
100
AcDbEntity
  8
001
  6
CONTINUOUS
 62
     7
100
AcDbLine
 10
1397.140259
 20
673.500122
 30
0.0
 11
1384.665771
 21
622.316223
 31
0.0
  0
ARC
  5
E5
100
AcDbEntity
  8
001
  6
CONTINUOUS
 62
     7
100
AcDbCircle
 10
875.840745
 20
1216.570532
 30
0.0
 40
65.0
100
AcDbArc
 50
100.243221
 51
172.746662
  0
ARC
  5
E6
100
AcDbEntity
  8
001
  6
CONTINUOUS
 62
     7
100
AcDbCircle
 10
1227.999985
 20
1171.75
 30
0.0
 40
420.0
100
AcDbArc
 50
172.746764
 51
187.253236
  0
ARC
  5
E7
100
AcDbEntity
  8
001
  6
CONTINUOUS
 62
     7
100
AcDbCircle
 10
875.840761
 20
1126.929465
 30
0.0
 40
65.0
100
AcDbArc
 50
187.253227
 51
259.756765
  0
ARC
  5
E8
100
AcDbEntity
  8
001
  6
CONTINUOUS
 62
     7
100
AcDbCircle
 10
888.999969
 20
1199.750033
 30
0.0
 40
139.0
100
AcDbArc
 50
259.756772
 51
280.243228
  0
ARC
  5
E9
100
AcDbEntity
  8
001
  6
CONTINUOUS
 62
     7
100
AcDbCircle
 10
902.159178
 20
1126.929465
 30
0.0
 40
65.0
100
AcDbArc
 50
280.243235
 51
352.746773
  0
ARC
  5
EA
100
AcDbEntity
  8
001
  6
CONTINUOUS
 62
     7
100
AcDbCircle
 10
550.00003
 20
1171.75
 30
0.0
 40
420.0
100
AcDbArc
 50
352.746747
 51
7.253253
  0
ARC
  5
EB
100
AcDbEntity
  8
001
  6
CONTINUOUS
 62
     7
100
AcDbCircle
 10
902.159194
 20
1216.570532
 30
0.0
 40
65.0
100
AcDbArc
 50
7.253338
 51
79.756779
  0
ARC
  5
EC
100
AcDbEntity
  8
001
  6
CONTINUOUS
 62
     7
100
AcDbCircle
 10
888.999969
 20
1143.749967
 30
0.0
 40
139.0
100
AcDbArc
 50
79.756772
 51
100.243228
  0
CIRCLE
  5
ED
100
AcDbEntity
  8
001
  6
CONTINUOUS
 62
     7
100
AcDbCircle
 10
889.0
 20
1077.25
 30
0.0
 40
9.5
  0
LINE
  5
EE
100
AcDbEntity
  8
001
  6
CONTINUOUS
 62
     7
100
AcDbLine
 10
879.5
 20
1071.765137
 30
0.0
 11
879.5
 21
1082.734863
 31
0.0
  0
LINE
  5
EF
100
AcDbEntity
  8
001
  6
CONTINUOUS
 62
     7
100
AcDbLine
 10
879.5
 20
1082.734863
 30
0.0
 11
889.0
 21
1088.219604
 31
0.0
  0
CIRCLE
  5
F0
100
AcDbEntity
  8
001
  6
CONTINUOUS
 62
     7
100
AcDbCircle
 10
889.0
 20
1077.25
 30
0.0
 40
12.0
  0
CIRCLE
  5
F1
100
AcDbEntity
  8
001
  6
CONTINUOUS
 62
     7
100
AcDbCircle
 10
889.0
 20
1077.25
 30
0.0
 40
6.0
  0
LINE
  5
F2
100
AcDbEntity
  8
001
  6
CONTINUOUS
 62
     7
100
AcDbLine
 10
898.5
 20
1082.734863
 30
0.0
 11
898.5
 21
1071.765137
 31
0.0
  0
LINE
  5
F3
100
AcDbEntity
  8
001
  6
CONTINUOUS
 62
     7
100
AcDbLine
 10
889.0
 20
1088.219604
 30
0.0
 11
898.5
 21
1082.734863
 31
0.0
  0
LINE
  5
F4
100
AcDbEntity
  8
001
  6
CONTINUOUS
 62
     7
100
AcDbLine
 10
898.5
 20
1071.765137
 30
0.0
 11
889.0
 21
1066.280396
 31
0.0
  0
LINE
  5
F5
100
AcDbEntity
  8
001
  6
CONTINUOUS
 62
     7
100
AcDbLine
 10
889.0
 20
1066.280396
 30
0.0
 11
879.5
 21
1071.765137
 31
0.0
  0
CIRCLE
  5
F6
100
AcDbEntity
  8
001
  6
CONTINUOUS
 62
     7
100
AcDbCircle
 10
889.0
 20
1266.25
 30
0.0
 40
9.5
  0
LINE
  5
F7
100
AcDbEntity
  8
001
  6
CONTINUOUS
 62
     7
100
AcDbLine
 10
879.5
 20
1271.734863
 30
0.0
 11
879.5
 21
1260.765137
 31
0.0
  0
LINE
  5
F8
100
AcDbEntity
  8
001
  6
CONTINUOUS
 62
     7
100
AcDbLine
 10
879.5
 20
1260.765137
 30
0.0
 11
889.0
 21
1255.280396
 31
0.0
  0
CIRCLE
  5
F9
100
AcDbEntity
  8
001
  6
CONTINUOUS
 62
     7
100
AcDbCircle
 10
889.0
 20
1266.25
 30
0.0
 40
12.0
  0
CIRCLE
  5
FA
100
AcDbEntity
  8
001
  6
CONTINUOUS
 62
     7
100
AcDbCircle
 10
889.0
 20
1266.25
 30
0.0
 40
6.0
  0
LINE
  5
FB
100
AcDbEntity
  8
001
  6
CONTINUOUS
 62
     7
100
AcDbLine
 10
898.5
 20
1260.765137
 30
0.0
 11
898.5
 21
1271.734863
 31
0.0
  0
LINE
  5
FC
100
AcDbEntity
  8
001
  6
CONTINUOUS
 62
     7
100
AcDbLine
 10
889.0
 20
1255.280396
 30
0.0
 11
898.5
 21
1260.765137
 31
0.0
  0
LINE
  5
FD
100
AcDbEntity
  8
001
  6
CONTINUOUS
 62
     7
100
AcDbLine
 10
898.5
 20
1271.734863
 30
0.0
 11
889.0
 21
1277.219727
 31
0.0
  0
LINE
  5
FE
100
AcDbEntity
  8
001
  6
CONTINUOUS
 62
     7
100
AcDbLine
 10
889.0
 20
1277.219727
 30
0.0
 11
879.5
 21
1271.734863
 31
0.0
  0
CIRCLE
  5
FF
100
AcDbEntity
  8
001
  6
CONTINUOUS
 62
     7
100
AcDbCircle
 10
951.017212
 20
1127.057251
 30
0.0
 40
9.5
  0
CIRCLE
  5
100
100
AcDbEntity
  8
001
  6
CONTINUOUS
 62
     7
100
AcDbCircle
 10
951.017212
 20
1127.057251
 30
0.0
 40
12.0
  0
CIRCLE
  5
101
100
AcDbEntity
  8
001
  6
CONTINUOUS
 62
     7
100
AcDbCircle
 10
951.017212
 20
1127.057251
 30
0.0
 40
6.0
  0
LINE
  5
102
100
AcDbEntity
  8
001
  6
CONTINUOUS
 62
     7
100
AcDbLine
 10
960.517212
 20
1132.542114
 30
0.0
 11
960.517212
 21
1121.57251
 31
0.0
  0
LINE
  5
103
100
AcDbEntity
  8
001
  6
CONTINUOUS
 62
     7
100
AcDbLine
 10
960.517212
 20
1121.57251
 30
0.0
 11
951.017212
 21
1116.087646
 31
0.0
  0
LINE
  5
104
100
AcDbEntity
  8
001
  6
CONTINUOUS
 62
     7
100
AcDbLine
 10
951.017212
 20
1138.026978
 30
0.0
 11
960.517212
 21
1132.542114
 31
0.0
  0
LINE
  5
105
100
AcDbEntity
  8
001
  6
CONTINUOUS
 62
     7
100
AcDbLine
 10
941.517212
 20
1121.57251
 30
0.0
 11
941.517212
 21
1132.542114
 31
0.0
  0
LINE
  5
106
100
AcDbEntity
  8
001
  6
CONTINUOUS
 62
     7
100
AcDbLine
 10
941.517212
 20
1132.542114
 30
0.0
 11
951.017212
 21
1138.026978
 31
0.0
  0
LINE
  5
107
100
AcDbEntity
  8
001
  6
CONTINUOUS
 62
     7
100
AcDbLine
 10
951.017212
 20
1116.087646
 30
0.0
 11
941.517212
 21
1121.57251
 31
0.0
  0
CIRCLE
  5
108
100
AcDbEntity
  8
001
  6
CONTINUOUS
 62
     7
100
AcDbCircle
 10
951.017212
 20
1216.442749
 30
0.0
 40
9.5
  0
CIRCLE
  5
109
100
AcDbEntity
  8
001
  6
CONTINUOUS
 62
     7
100
AcDbCircle
 10
951.017212
 20
1216.442749
 30
0.0
 40
12.0
  0
CIRCLE
  5
10A
100
AcDbEntity
  8
001
  6
CONTINUOUS
 62
     7
100
AcDbCircle
 10
951.017212
 20
1216.442749
 30
0.0
 40
6.0
  0
LINE
  5
10B
100
AcDbEntity
  8
001
  6
CONTINUOUS
 62
     7
100
AcDbLine
 10
960.517212
 20
1221.92749
 30
0.0
 11
960.517212
 21
1210.957886
 31
0.0
  0
LINE
  5
10C
100
AcDbEntity
  8
001
  6
CONTINUOUS
 62
     7
100
AcDbLine
 10
960.517212
 20
1210.957886
 30
0.0
 11
951.017212
 21
1205.473022
 31
0.0
  0
LINE
  5
10D
100
AcDbEntity
  8
001
  6
CONTINUOUS
 62
     7
100
AcDbLine
 10
951.017212
 20
1227.412354
 30
0.0
 11
960.517212
 21
1221.92749
 31
0.0
  0
LINE
  5
10E
100
AcDbEntity
  8
001
  6
CONTINUOUS
 62
     7
100
AcDbLine
 10
941.517212
 20
1210.957886
 30
0.0
 11
941.517212
 21
1221.92749
 31
0.0
  0
LINE
  5
10F
100
AcDbEntity
  8
001
  6
CONTINUOUS
 62
     7
100
AcDbLine
 10
941.517212
 20
1221.92749
 30
0.0
 11
951.017212
 21
1227.412354
 31
0.0
  0
LINE
  5
110
100
AcDbEntity
  8
001
  6
CONTINUOUS
 62
     7
100
AcDbLine
 10
951.017212
 20
1205.473022
 30
0.0
 11
941.517212
 21
1210.957886
 31
0.0
  0
CIRCLE
  5
111
100
AcDbEntity
  8
001
  6
CONTINUOUS
 62
     7
100
AcDbCircle
 10
826.982727
 20
1127.057251
 30
0.0
 40
9.5
  0
CIRCLE
  5
112
100
AcDbEntity
  8
001
  6
CONTINUOUS
 62
     7
100
AcDbCircle
 10
826.982727
 20
1127.057251
 30
0.0
 40
12.0
  0
CIRCLE
  5
113
100
AcDbEntity
  8
001
  6
CONTINUOUS
 62
     7
100
AcDbCircle
 10
826.982727
 20
1127.057251
 30
0.0
 40
6.0
  0
LINE
  5
114
100
AcDbEntity
  8
001
  6
CONTINUOUS
 62
     7
100
AcDbLine
 10
817.482727
 20
1132.542114
 30
0.0
 11
817.482727
 21
1121.57251
 31
0.0
  0
LINE
  5
115
100
AcDbEntity
  8
001
  6
CONTINUOUS
 62
     7
100
AcDbLine
 10
817.482727
 20
1121.57251
 30
0.0
 11
826.982727
 21
1116.087646
 31
0.0
  0
LINE
  5
116
100
AcDbEntity
  8
001
  6
CONTINUOUS
 62
     7
100
AcDbLine
 10
826.982727
 20
1138.026978
 30
0.0
 11
817.482727
 21
1132.542114
 31
0.0
  0
LINE
  5
117
100
AcDbEntity
  8
001
  6
CONTINUOUS
 62
     7
100
AcDbLine
 10
836.482727
 20
1121.57251
 30
0.0
 11
836.482727
 21
1132.542114
 31
0.0
  0
LINE
  5
118
100
AcDbEntity
  8
001
  6
CONTINUOUS
 62
     7
100
AcDbLine
 10
836.482727
 20
1132.542114
 30
0.0
 11
826.982727
 21
1138.026978
 31
0.0
  0
LINE
  5
119
100
AcDbEntity
  8
001
  6
CONTINUOUS
 62
     7
100
AcDbLine
 10
826.982727
 20
1116.087646
 30
0.0
 11
836.482727
 21
1121.57251
 31
0.0
  0
CIRCLE
  5
11A
100
AcDbEntity
  8
001
  6
CONTINUOUS
 62
     7
100
AcDbCircle
 10
826.982727
 20
1216.442749
 30
0.0
 40
9.5
  0
CIRCLE
  5
11B
100
AcDbEntity
  8
001
  6
CONTINUOUS
 62
     7
100
AcDbCircle
 10
826.982727
 20
1216.442749
 30
0.0
 40
12.0
  0
CIRCLE
  5
11C
100
AcDbEntity
  8
001
  6
CONTINUOUS
 62
     7
100
AcDbCircle
 10
826.982727
 20
1216.442749
 30
0.0
 40
6.0
  0
LINE
  5
11D
100
AcDbEntity
  8
001
  6
CONTINUOUS
 62
     7
100
AcDbLine
 10
817.482727
 20
1221.92749
 30
0.0
 11
817.482727
 21
1210.957886
 31
0.0
  0
LINE
  5
11E
100
AcDbEntity
  8
001
  6
CONTINUOUS
 62
     7
100
AcDbLine
 10
817.482727
 20
1210.957886
 30
0.0
 11
826.982727
 21
1205.473022
 31
0.0
  0
LINE
  5
11F
100
AcDbEntity
  8
001
  6
CONTINUOUS
 62
     7
100
AcDbLine
 10
826.982727
 20
1227.412354
 30
0.0
 11
817.482727
 21
1221.92749
 31
0.0
  0
LINE
  5
120
100
AcDbEntity
  8
001
  6
CONTINUOUS
 62
     7
100
AcDbLine
 10
836.482727
 20
1210.957886
 30
0.0
 11
836.482727
 21
1221.92749
 31
0.0
  0
LINE
  5
121
100
AcDbEntity
  8
001
  6
CONTINUOUS
 62
     7
100
AcDbLine
 10
836.482727
 20
1221.92749
 30
0.0
 11
826.982727
 21
1227.412354
 31
0.0
  0
LINE
  5
122
100
AcDbEntity
  8
001
  6
CONTINUOUS
 62
     7
100
AcDbLine
 10
826.982727
 20
1205.473022
 30
0.0
 11
836.482727
 21
1210.957886
 31
0.0
  0
ARC
  5
123
100
AcDbEntity
  8
001
  6
CONTINUOUS
 62
     7
100
AcDbCircle
 10
902.159214
 20
1126.929353
 30
0.0
 40
34.191959
100
AcDbArc
 50
280.24317
 51
352.746935
  0
ARC
  5
124
100
AcDbEntity
  8
001
  6
CONTINUOUS
 62
     7
100
AcDbCircle
 10
902.15923
 20
1216.570522
 30
0.0
 40
34.191959
100
AcDbArc
 50
7.253276
 51
79.756858
  0
ARC
  5
125
100
AcDbEntity
  8
001
  6
CONTINUOUS
 62
     7
100
AcDbCircle
 10
888.999969
 20
1143.749958
 30
0.0
 40
108.191963
100
AcDbArc
 50
79.756775
 51
100.243225
  0
ARC
  5
126
100
AcDbEntity
  8
001
  6
CONTINUOUS
 62
     7
100
AcDbCircle
 10
875.840772
 20
1216.570533
 30
0.0
 40
34.191959
100
AcDbArc
 50
100.243249
 51
172.746743
  0
ARC
  5
127
100
AcDbEntity
  8
001
  6
CONTINUOUS
 62
     7
100
AcDbCircle
 10
875.840772
 20
1126.929467
 30
0.0
 40
34.191959
100
AcDbArc
 50
187.253257
 51
259.756751
  0
ARC
  5
128
100
AcDbEntity
  8
001
  6
CONTINUOUS
 62
     7
100
AcDbCircle
 10
888.999969
 20
1199.749919
 30
0.0
 40
108.191963
100
AcDbArc
 50
259.756775
 51
280.243225
  0
ARC
  5
129
100
AcDbEntity
  8
001
  6
CONTINUOUS
 62
     7
100
AcDbCircle
 10
854.0
 20
1129.973776
 30
0.0
 40
3.0
100
AcDbArc
 50
180.000399
 51
230.043045
  0
ARC
  5
12A
100
AcDbEntity
  8
001
  6
CONTINUOUS
 62
     7
100
AcDbCircle
 10
852.0
 20
1117.701307
 30
0.0
 40
3.0
100
AcDbArc
 50
179.997913
 51
235.604603
  0
ARC
  5
12B
100
AcDbEntity
  8
001
  6
CONTINUOUS
 62
     7
100
AcDbCircle
 10
926.0
 20
1117.701471
 30
0.0
 40
3.0
100
AcDbArc
 50
304.393984
 51
359.998958
  0
ARC
  5
12C
100
AcDbEntity
  8
001
  6
CONTINUOUS
 62
     7
100
AcDbCircle
 10
889.000059
 20
1171.749978
 30
0.0
 40
68.5
100
AcDbArc
 50
235.605554
 51
304.394265
  0
ARC
  5
12D
100
AcDbEntity
  8
001
  6
CONTINUOUS
 62
     7
100
AcDbCircle
 10
924.0
 20
1129.973827
 30
0.0
 40
3.0
100
AcDbArc
 50
309.955434
 51
359.998625
  0
ARC
  5
12E
100
AcDbEntity
  8
001
  6
CONTINUOUS
 62
     7
100
AcDbCircle
 10
924.0
 20
1213.526173
 30
0.0
 40
3.0
100
AcDbArc
 50
0.0
 51
50.044566
  0
ARC
  5
12F
100
AcDbEntity
  8
001
  6
CONTINUOUS
 62
     7
100
AcDbCircle
 10
926.0
 20
1225.798529
 30
0.0
 40
3.0
100
AcDbArc
 50
0.001042
 51
55.606016
  0
ARC
  5
130
100
AcDbEntity
  8
001
  6
CONTINUOUS
 62
     7
100
AcDbCircle
 10
854.0
 20
1213.526224
 30
0.0
 40
3.0
100
AcDbArc
 50
129.956955
 51
180.001933
  0
ARC
  5
131
100
AcDbEntity
  8
001
  6
CONTINUOUS
 62
     7
100
AcDbCircle
 10
888.999969
 20
1171.750009
 30
0.0
 40
57.5
100
AcDbArc
 50
50.043799
 51
129.956201
  0
ARC
  5
132
100
AcDbEntity
  8
001
  6
CONTINUOUS
 62
     7
100
AcDbCircle
 10
852.0
 20
1225.798693
 30
0.0
 40
3.0
100
AcDbArc
 50
124.395397
 51
180.002087
  0
ARC
  5
133
100
AcDbEntity
  8
001
  6
CONTINUOUS
 62
     7
100
AcDbCircle
 10
889.000059
 20
1171.750022
 30
0.0
 40
68.5
100
AcDbArc
 50
55.605735
 51
124.394446
  0
LINE
  5
134
100
AcDbEntity
  8
001
  6
CONTINUOUS
 62
     7
100
AcDbLine
 10
849.0
 20
1202.733887
 30
0.0
 11
849.0
 21
1225.798584
 31
0.0
  0
ARC
  5
135
100
AcDbEntity
  8
001
  6
CONTINUOUS
 62
     7
100
AcDbCircle
 10
846.0
 20
1202.73391
 30
0.0
 40
3.0
100
AcDbArc
 50
324.225099
 51
0.0
  0
LINE
  5
136
100
AcDbEntity
  8
001
  6
CONTINUOUS
 62
     7
100
AcDbLine
 10
849.0
 20
1117.701416
 30
0.0
 11
849.0
 21
1140.766113
 31
0.0
  0
ARC
  5
137
100
AcDbEntity
  8
001
  6
CONTINUOUS
 62
     7
100
AcDbCircle
 10
846.0
 20
1140.76609
 30
0.0
 40
3.0
100
AcDbArc
 50
0.000435
 51
35.774901
  0
ARC
  5
138
100
AcDbEntity
  8
001
  6
CONTINUOUS
 62
     7
100
AcDbCircle
 10
888.999969
 20
1171.75
 30
0.0
 40
50.0
100
AcDbArc
 50
144.225118
 51
215.774882
  0
LINE
  5
139
100
AcDbEntity
  8
001
  6
CONTINUOUS
 62
     7
100
AcDbLine
 10
929.0
 20
1117.701416
 30
0.0
 11
929.0
 21
1140.766113
 31
0.0
  0
ARC
  5
13A
100
AcDbEntity
  8
001
  6
CONTINUOUS
 62
     7
100
AcDbCircle
 10
932.0
 20
1140.76609
 30
0.0
 40
3.0
100
AcDbArc
 50
144.225099
 51
179.999565
  0
LINE
  5
13B
100
AcDbEntity
  8
001
  6
CONTINUOUS
 62
     7
100
AcDbLine
 10
929.0
 20
1202.733887
 30
0.0
 11
929.0
 21
1225.798584
 31
0.0
  0
ARC
  5
13C
100
AcDbEntity
  8
001
  6
CONTINUOUS
 62
     7
100
AcDbCircle
 10
932.0
 20
1202.73391
 30
0.0
 40
3.0
100
AcDbArc
 50
180.000435
 51
215.774901
  0
ARC
  5
13D
100
AcDbEntity
  8
001
  6
CONTINUOUS
 62
     7
100
AcDbCircle
 10
889.000031
 20
1171.75
 30
0.0
 40
50.0
100
AcDbArc
 50
324.225118
 51
35.774882
  0
LINE
  5
13E
100
AcDbEntity
  8
001
  6
CONTINUOUS
 62
     7
100
AcDbLine
 10
927.0
 20
1203.581543
 30
0.0
 11
927.0
 21
1213.526123
 31
0.0
  0
ARC
  5
13F
100
AcDbEntity
  8
001
  6
CONTINUOUS
 62
     7
100
AcDbCircle
 10
932.0
 20
1203.581542
 30
0.0
 40
5.0
100
AcDbArc
 50
179.999987
 51
216.510527
  0
LINE
  5
140
100
AcDbEntity
  8
001
  6
CONTINUOUS
 62
     7
100
AcDbLine
 10
927.0
 20
1129.973755
 30
0.0
 11
927.0
 21
1139.918457
 31
0.0
  0
ARC
  5
141
100
AcDbEntity
  8
001
  6
CONTINUOUS
 62
     7
100
AcDbCircle
 10
932.0
 20
1139.918458
 30
0.0
 40
5.0
100
AcDbArc
 50
143.489473
 51
180.000013
  0
ARC
  5
142
100
AcDbEntity
  8
001
  6
CONTINUOUS
 62
     7
100
AcDbCircle
 10
888.999966
 20
1171.75
 30
0.0
 40
48.5
100
AcDbArc
 50
323.488559
 51
36.511441
  0
LINE
  5
143
100
AcDbEntity
  8
001
  6
CONTINUOUS
 62
     7
100
AcDbLine
 10
851.0
 20
1129.973755
 30
0.0
 11
851.0
 21
1139.918457
 31
0.0
  0
ARC
  5
144
100
AcDbEntity
  8
001
  6
CONTINUOUS
 62
     7
100
AcDbCircle
 10
846.0
 20
1139.918376
 30
0.0
 40
5.0
100
AcDbArc
 50
0.000932
 51
36.511703
  0
LINE
  5
145
100
AcDbEntity
  8
001
  6
CONTINUOUS
 62
     7
100
AcDbLine
 10
851.0
 20
1203.581543
 30
0.0
 11
851.0
 21
1213.526123
 31
0.0
  0
ARC
  5
146
100
AcDbEntity
  8
001
  6
CONTINUOUS
 62
     7
100
AcDbCircle
 10
846.0
 20
1203.581624
 30
0.0
 40
5.0
100
AcDbArc
 50
323.488297
 51
0.0
  0
ARC
  5
147
100
AcDbEntity
  8
001
  6
CONTINUOUS
 62
     7
100
AcDbCircle
 10
888.999973
 20
1171.75
 30
0.0
 40
48.5
100
AcDbArc
 50
143.488559
 51
216.511441
  0
LINE
  5
148
100
AcDbEntity
  8
001
  6
CONTINUOUS
 62
     7
100
AcDbLine
 10
927.0
 20
1213.526123
 30
0.0
 11
918.863342
 21
1205.389526
 31
0.0
  0
ARC
  5
149
100
AcDbEntity
  8
001
  6
CONTINUOUS
 62
     7
100
AcDbCircle
 10
888.999969
 20
1171.749991
 30
0.0
 40
57.5
100
AcDbArc
 50
230.043799
 51
309.956201
  0
LINE
  5
14A
100
AcDbEntity
  8
001
  6
CONTINUOUS
 62
     7
100
AcDbLine
 10
927.0
 20
1129.973755
 30
0.0
 11
918.863342
 21
1138.110474
 31
0.0
  0
LINE
  5
14B
100
AcDbEntity
  8
001
  6
CONTINUOUS
 62
     7
100
AcDbLine
 10
851.0
 20
1129.973755
 30
0.0
 11
859.136597
 21
1138.110352
 31
0.0
  0
ARC
  5
14C
100
AcDbEntity
  8
001
  6
CONTINUOUS
 62
     7
100
AcDbCircle
 10
892.999939
 20
1177.75
 30
0.0
 40
3.0
100
AcDbArc
 50
0.0
 51
90.0
  0
LINE
  5
14D
100
AcDbEntity
  8
001
  6
CONTINUOUS
 62
     7
100
AcDbLine
 10
892.999939
 20
1180.75
 30
0.0
 11
884.999939
 21
1180.75
 31
0.0
  0
ARC
  5
14E
100
AcDbEntity
  8
001
  6
CONTINUOUS
 62
     7
100
AcDbCircle
 10
892.999939
 20
1177.75
 30
0.0
 40
6.0
100
AcDbArc
 50
0.0
 51
90.0
  0
LINE
  5
14F
100
AcDbEntity
  8
001
  6
CONTINUOUS
 62
     7
100
AcDbLine
 10
898.999939
 20
1177.75
 30
0.0
 11
895.999939
 21
1177.75
 31
0.0
  0
ARC
  5
150
100
AcDbEntity
  8
001
  6
CONTINUOUS
 62
     7
100
AcDbCircle
 10
884.999939
 20
1177.75
 30
0.0
 40
3.0
100
AcDbArc
 50
90.0
 51
180.0
  0
LINE
  5
151
100
AcDbEntity
  8
001
  6
CONTINUOUS
 62
     7
100
AcDbLine
 10
881.999939
 20
1176.25
 30
0.0
 11
881.999939
 21
1177.75
 31
0.0
  0
ARC
  5
152
100
AcDbEntity
  8
001
  6
CONTINUOUS
 62
     7
100
AcDbCircle
 10
884.999939
 20
1176.25
 30
0.0
 40
3.0
100
AcDbArc
 50
180.0
 51
270.0
  0
ARC
  5
153
100
AcDbEntity
  8
001
  6
CONTINUOUS
 62
     7
100
AcDbCircle
 10
884.999939
 20
1176.25
 30
0.0
 40
6.0
100
AcDbArc
 50
180.0
 51
270.0
  0
LINE
  5
154
100
AcDbEntity
  8
001
  6
CONTINUOUS
 62
     7
100
AcDbLine
 10
878.999939
 20
1176.25
 30
0.0
 11
878.999939
 21
1177.75
 31
0.0
  0
ARC
  5
155
100
AcDbEntity
  8
001
  6
CONTINUOUS
 62
     7
100
AcDbCircle
 10
884.999939
 20
1177.75
 30
0.0
 40
6.0
100
AcDbArc
 50
90.0
 51
180.0
  0
LINE
  5
156
100
AcDbEntity
  8
001
  6
CONTINUOUS
 62
     7
100
AcDbLine
 10
892.999939
 20
1183.75
 30
0.0
 11
884.999939
 21
1183.75
 31
0.0
  0
ARC
  5
157
100
AcDbEntity
  8
001
  6
CONTINUOUS
 62
     7
100
AcDbCircle
 10
892.999939
 20
1165.75
 30
0.0
 40
6.0
100
AcDbArc
 50
270.0
 51
0.0
  0
ARC
  5
158
100
AcDbEntity
  8
001
  6
CONTINUOUS
 62
     7
100
AcDbCircle
 10
892.999939
 20
1167.25
 30
0.0
 40
3.0
100
AcDbArc
 50
0.0
 51
90.0
  0
LINE
  5
159
100
AcDbEntity
  8
001
  6
CONTINUOUS
 62
     7
100
AcDbLine
 10
895.999939
 20
1165.75
 30
0.0
 11
895.999939
 21
1167.25
 31
0.0
  0
ARC
  5
15A
100
AcDbEntity
  8
001
  6
CONTINUOUS
 62
     7
100
AcDbCircle
 10
892.999939
 20
1165.75
 30
0.0
 40
3.0
100
AcDbArc
 50
270.0
 51
0.0
  0
LINE
  5
15B
100
AcDbEntity
  8
001
  6
CONTINUOUS
 62
     7
100
AcDbLine
 10
892.999939
 20
1162.75
 30
0.0
 11
884.999939
 21
1162.75
 31
0.0
  0
ARC
  5
15C
100
AcDbEntity
  8
001
  6
CONTINUOUS
 62
     7
100
AcDbCircle
 10
884.999939
 20
1165.75
 30
0.0
 40
3.0
100
AcDbArc
 50
180.0
 51
270.0
  0
ARC
  5
15D
100
AcDbEntity
  8
001
  6
CONTINUOUS
 62
     7
100
AcDbCircle
 10
884.999939
 20
1165.75
 30
0.0
 40
6.0
100
AcDbArc
 50
180.0
 51
270.0
  0
LINE
  5
15E
100
AcDbEntity
  8
001
  6
CONTINUOUS
 62
     7
100
AcDbLine
 10
892.999939
 20
1159.75
 30
0.0
 11
884.999939
 21
1159.75
 31
0.0
  0
LINE
  5
15F
100
AcDbEntity
  8
001
  6
CONTINUOUS
 62
     7
100
AcDbLine
 10
898.999939
 20
1165.75
 30
0.0
 11
898.999939
 21
1167.25
 31
0.0
  0
ARC
  5
160
100
AcDbEntity
  8
001
  6
CONTINUOUS
 62
     7
100
AcDbCircle
 10
892.999939
 20
1167.25
 30
0.0
 40
6.0
100
AcDbArc
 50
0.0
 51
90.0
  0
LINE
  5
161
100
AcDbEntity
  8
001
  6
CONTINUOUS
 62
     7
100
AcDbLine
 10
892.999939
 20
1173.25
 30
0.0
 11
884.999939
 21
1173.25
 31
0.0
  0
LINE
  5
162
100
AcDbEntity
  8
001
  6
CONTINUOUS
 62
     7
100
AcDbLine
 10
892.999939
 20
1170.25
 30
0.0
 11
884.999939
 21
1170.25
 31
0.0
  0
LINE
  5
163
100
AcDbEntity
  8
001
  6
CONTINUOUS
 62
     7
100
AcDbLine
 10
881.999939
 20
1165.75
 30
0.0
 11
878.999939
 21
1165.75
 31
0.0
  0
ARC
  5
164
100
AcDbEntity
  8
001
  6
CONTINUOUS
 62
     7
100
AcDbCircle
 10
550.000016
 20
1171.750069
 30
0.0
 40
389.191956
100
AcDbArc
 50
352.746751
 51
358.251711
  0
LINE
  5
165
100
AcDbEntity
  8
001
  6
CONTINUOUS
 62
     7
100
AcDbLine
 10
937.523865
 20
1159.690552
 30
0.0
 11
960.248047
 21
1162.531006
 31
0.0
  0
ARC
  5
166
100
AcDbEntity
  8
001
  6
CONTINUOUS
 62
     7
100
AcDbCircle
 10
960.0
 20
1164.515564
 30
0.0
 40
2.0
100
AcDbArc
 50
277.124364
 51
0.001735
  0
ARC
  5
167
100
AcDbEntity
  8
001
  6
CONTINUOUS
 62
     7
100
AcDbCircle
 10
960.0
 20
1178.984436
 30
0.0
 40
2.0
100
AcDbArc
 50
359.998265
 51
82.875636
  0
LINE
  5
168
100
AcDbEntity
  8
001
  6
CONTINUOUS
 62
     7
100
AcDbLine
 10
937.523865
 20
1183.80957
 30
0.0
 11
960.248047
 21
1180.968994
 31
0.0
  0
LINE
  5
169
100
AcDbEntity
  8
001
  6
CONTINUOUS
 62
     7
100
AcDbLine
 10
960.0
 20
1164.515625
 30
0.0
 11
960.0
 21
1178.984375
 31
0.0
  0
LINE
  5
16A
100
AcDbEntity
  8
001
  6
CONTINUOUS
 62
     7
100
AcDbLine
 10
962.0
 20
1164.515625
 30
0.0
 11
962.0
 21
1178.984375
 31
0.0
  0
ARC
  5
16B
100
AcDbEntity
  8
001
  6
CONTINUOUS
 62
     7
100
AcDbCircle
 10
550.000016
 20
1171.749931
 30
0.0
 40
389.191956
100
AcDbArc
 50
1.748289
 51
7.253249
  0
ARC
  5
16C
100
AcDbEntity
  8
001
  6
CONTINUOUS
 62
     7
100
AcDbCircle
 10
818.0
 20
1178.984443
 30
0.0
 40
2.0
100
AcDbArc
 50
97.126126
 51
180.001954
  0
LINE
  5
16D
100
AcDbEntity
  8
001
  6
CONTINUOUS
 62
     7
100
AcDbLine
 10
840.476074
 20
1183.80957
 30
0.0
 11
817.751892
 21
1180.968994
 31
0.0
  0
LINE
  5
16E
100
AcDbEntity
  8
001
  6
CONTINUOUS
 62
     7
100
AcDbLine
 10
818.0
 20
1164.515625
 30
0.0
 11
818.0
 21
1178.984375
 31
0.0
  0
LINE
  5
16F
100
AcDbEntity
  8
001
  6
CONTINUOUS
 62
     7
100
AcDbLine
 10
816.0
 20
1164.515625
 30
0.0
 11
816.0
 21
1178.984375
 31
0.0
  0
LINE
  5
170
100
AcDbEntity
  8
001
  6
CONTINUOUS
 62
     7
100
AcDbLine
 10
840.476074
 20
1159.690552
 30
0.0
 11
817.751892
 21
1162.531006
 31
0.0
  0
ARC
  5
171
100
AcDbEntity
  8
001
  6
CONTINUOUS
 62
     7
100
AcDbCircle
 10
818.0
 20
1164.515557
 30
0.0
 40
2.0
100
AcDbArc
 50
179.998046
 51
262.873874
  0
ARC
  5
172
100
AcDbEntity
  8
001
  6
CONTINUOUS
 62
     7
100
AcDbCircle
 10
1227.999984
 20
1171.750069
 30
0.0
 40
389.191956
100
AcDbArc
 50
181.748289
 51
187.253249
  0
ARC
  5
173
100
AcDbEntity
  8
001
  6
CONTINUOUS
 62
     7
100
AcDbCircle
 10
1227.999984
 20
1171.749931
 30
0.0
 40
389.191956
100
AcDbArc
 50
172.746751
 51
178.251711
  0
LINE
  5
174
100
AcDbEntity
  8
001
  6
CONTINUOUS
 62
     7
100
AcDbLine
 10
1472.059448
 20
659.976257
 30
0.0
 11
1469.218994
 21
637.252075
 31
0.0
  0
ARC
  5
175
100
AcDbEntity
  8
001
  6
CONTINUOUS
 62
     7
100
AcDbCircle
 10
1467.234436
 20
637.500122
 30
0.0
 40
2.0
100
AcDbArc
 50
269.998265
 51
352.875636
  0
LINE
  5
176
100
AcDbEntity
  8
001
  6
CONTINUOUS
 62
     7
100
AcDbLine
 10
1467.234375
 20
635.500122
 30
0.0
 11
1452.765625
 21
635.500122
 31
0.0
  0
ARC
  5
177
100
AcDbEntity
  8
001
  6
CONTINUOUS
 62
     7
100
AcDbCircle
 10
1452.765564
 20
637.500122
 30
0.0
 40
2.0
100
AcDbArc
 50
187.124364
 51
270.001735
  0
LINE
  5
178
100
AcDbEntity
  8
001
  6
CONTINUOUS
 62
     7
100
AcDbLine
 10
1447.94043
 20
659.976257
 30
0.0
 11
1445.204102
 21
666.298828
 31
0.0
  0
ARC
  5
179
100
AcDbEntity
  8
001
  6
CONTINUOUS
 62
     7
100
AcDbCircle
 10
1440.615398
 20
664.312866
 30
0.0
 40
5.0
100
AcDbArc
 50
23.402016
 51
90.00048
  0
ARC
  5
17A
100
AcDbEntity
  8
001
  6
CONTINUOUS
 62
     7
100
AcDbCircle
 10
1445.017498
 20
643.048909
 30
0.0
 40
5.0
100
AcDbArc
 50
7.125542
 51
32.46525
  0
ARC
  5
17B
100
AcDbEntity
  8
001
  6
CONTINUOUS
 62
     7
100
AcDbCircle
 10
1444.899658
 20
650.686286
 30
0.0
 40
1.0
100
AcDbArc
 50
32.461745
 51
180.000389
  0
LINE
  5
17C
100
AcDbEntity
  8
001
  6
CONTINUOUS
 62
     7
100
AcDbLine
 10
1449.236084
 20
645.732849
 30
0.0
 11
1445.743286
 21
651.223022
 31
0.0
  0
LINE
  5
17D
100
AcDbEntity
  8
001
  6
CONTINUOUS
 62
     7
100
AcDbLine
 10
1443.899658
 20
666.392883
 30
0.0
 11
1443.899658
 21
644.970947
 31
0.0
  0
LINE
  5
17E
100
AcDbEntity
  8
001
  6
CONTINUOUS
 62
     7
100
AcDbLine
 10
1447.94043
 20
659.976257
 30
0.0
 11
1450.781006
 21
637.252075
 31
0.0
  0
LINE
  5
17F
100
AcDbEntity
  8
001
  6
CONTINUOUS
 62
     7
100
AcDbLine
 10
1470.609009
 20
660.500122
 30
0.0
 11
1449.413574
 21
660.500122
 31
0.0
  0
ARC
  5
180
100
AcDbEntity
  8
001
  6
CONTINUOUS
 62
     7
100
AcDbCircle
 10
1475.100464
 20
650.686286
 30
0.0
 40
1.0
100
AcDbArc
 50
359.996114
 51
147.538255
  0
LINE
  5
181
100
AcDbEntity
  8
001
  6
CONTINUOUS
 62
     7
100
AcDbLine
 10
1470.763916
 20
645.732849
 30
0.0
 11
1474.256714
 21
651.223022
 31
0.0
  0
LINE
  5
182
100
AcDbEntity
  8
001
  6
CONTINUOUS
 62
     7
100
AcDbLine
 10
1476.100464
 20
666.392883
 30
0.0
 11
1476.100464
 21
644.970947
 31
0.0
  0
LINE
  5
183
100
AcDbEntity
  8
001
  6
CONTINUOUS
 62
     7
100
AcDbLine
 10
1472.059448
 20
659.976257
 30
0.0
 11
1474.795898
 21
666.298828
 31
0.0
  0
ARC
  5
184
100
AcDbEntity
  8
001
  6
CONTINUOUS
 62
     7
100
AcDbCircle
 10
1479.384602
 20
664.312866
 30
0.0
 40
5.0
100
AcDbArc
 50
89.99952
 51
156.597984
  0
ARC
  5
185
100
AcDbEntity
  8
001
  6
CONTINUOUS
 62
     7
100
AcDbCircle
 10
1474.982502
 20
643.048909
 30
0.0
 40
5.0
100
AcDbArc
 50
147.53475
 51
172.874458
  0
LINE
  5
186
100
AcDbEntity
  8
001
  6
CONTINUOUS
 62
     7
100
AcDbLine
 10
1474.795898
 20
669.312866
 30
0.0
 11
1445.204102
 21
669.312866
 31
0.0
  0
CIRCLE
  5
187
100
AcDbEntity
  8
001
  6
CONTINUOUS
 62
     7
100
AcDbCircle
 10
889.0
 20
732.75
 30
0.0
 40
5.0
  0
LINE
  5
188
100
AcDbEntity
  8
001
  6
CONTINUOUS
 62
     7
100
AcDbLine
 10
891.5
 20
731.306641
 30
0.0
 11
891.5
 21
734.193359
 31
0.0
  0
LINE
  5
189
100
AcDbEntity
  8
001
  6
CONTINUOUS
 62
     7
100
AcDbLine
 10
889.0
 20
729.86322
 30
0.0
 11
891.5
 21
731.306641
 31
0.0
  0
LINE
  5
18A
100
AcDbEntity
  8
001
  6
CONTINUOUS
 62
     7
100
AcDbLine
 10
886.5
 20
731.306641
 30
0.0
 11
889.0
 21
729.86322
 31
0.0
  0
LINE
  5
18B
100
AcDbEntity
  8
001
  6
CONTINUOUS
 62
     7
100
AcDbLine
 10
886.5
 20
734.193359
 30
0.0
 11
886.5
 21
731.306641
 31
0.0
  0
LINE
  5
18C
100
AcDbEntity
  8
001
  6
CONTINUOUS
 62
     7
100
AcDbLine
 10
891.5
 20
734.193359
 30
0.0
 11
889.0
 21
735.636719
 31
0.0
  0
LINE
  5
18D
100
AcDbEntity
  8
001
  6
CONTINUOUS
 62
     7
100
AcDbLine
 10
889.0
 20
735.636719
 30
0.0
 11
886.5
 21
734.193359
 31
0.0
  0
LINE
  5
18E
100
AcDbEntity
  8
001
  6
CONTINUOUS
 62
     7
100
AcDbLine
 10
1516.692749
 20
618.500122
 30
0.0
 11
1516.692749
 21
620.800049
 31
0.0
  0
LINE
  5
18F
100
AcDbEntity
  8
001
  6
CONTINUOUS
 62
     7
100
AcDbLine
 10
1492.692749
 20
618.500122
 30
0.0
 11
1492.692749
 21
620.800049
 31
0.0
  0
LINE
  5
190
100
AcDbEntity
  8
001
  6
CONTINUOUS
 62
     7
100
AcDbLine
 10
1516.692749
 20
620.800049
 30
0.0
 11
1492.692749
 21
620.800049
 31
0.0
  0
ARC
  5
191
100
AcDbEntity
  8
001
  6
CONTINUOUS
 62
     7
100
AcDbCircle
 10
1512.919949
 20
625.655219
 30
0.0
 40
4.856074
100
AcDbArc
 50
64.385633
 51
124.383056
  0
ARC
  5
192
100
AcDbEntity
  8
001
  6
CONTINUOUS
 62
     7
100
AcDbCircle
 10
1504.692688
 20
612.359845
 30
0.0
 40
18.151531
100
AcDbArc
 50
72.411763
 51
107.588237
  0
ARC
  5
193
100
AcDbEntity
  8
001
  6
CONTINUOUS
 62
     7
100
AcDbCircle
 10
1496.465427
 20
625.655219
 30
0.0
 40
4.856074
100
AcDbArc
 50
55.616944
 51
115.614367
  0
LINE
  5
194
100
AcDbEntity
  8
001
  6
CONTINUOUS
 62
     7
100
AcDbLine
 10
1513.692749
 20
630.800049
 30
0.0
 11
1515.662109
 21
629.662842
 31
0.0
  0
LINE
  5
195
100
AcDbEntity
  8
001
  6
CONTINUOUS
 62
     7
100
AcDbLine
 10
1495.692749
 20
630.800049
 30
0.0
 11
1493.7229
 21
629.662842
 31
0.0
  0
LINE
  5
196
100
AcDbEntity
  8
001
  6
CONTINUOUS
 62
     7
100
AcDbLine
 10
1513.692749
 20
630.800049
 30
0.0
 11
1495.692749
 21
630.800049
 31
0.0
  0
LINE
  5
197
100
AcDbEntity
  8
001
  6
CONTINUOUS
 62
     7
100
AcDbLine
 10
1515.662109
 20
629.662842
 30
0.0
 11
1515.662109
 21
620.800049
 31
0.0
  0
LINE
  5
198
100
AcDbEntity
  8
001
  6
CONTINUOUS
 62
     7
100
AcDbLine
 10
1510.17749
 20
629.662842
 30
0.0
 11
1510.17749
 21
620.800049
 31
0.0
  0
LINE
  5
199
100
AcDbEntity
  8
001
  6
CONTINUOUS
 62
     7
100
AcDbLine
 10
1499.207764
 20
629.662842
 30
0.0
 11
1499.207764
 21
620.800049
 31
0.0
  0
LINE
  5
19A
100
AcDbEntity
  8
001
  6
CONTINUOUS
 62
     7
100
AcDbLine
 10
1493.7229
 20
629.662842
 30
0.0
 11
1493.7229
 21
620.800049
 31
0.0
  0
ARC
  5
19B
100
AcDbEntity
  8
001
  6
CONTINUOUS
 62
     7
100
AcDbCircle
 10
1504.692688
 20
628.450119
 30
0.0
 40
10.0
100
AcDbArc
 50
53.129665
 51
126.870335
  0
LINE
  5
19C
100
AcDbEntity
  8
001
  6
CONTINUOUS
 62
     7
100
AcDbLine
 10
1510.692749
 20
630.800049
 30
0.0
 11
1510.692749
 21
636.450073
 31
0.0
  0
LINE
  5
19D
100
AcDbEntity
  8
001
  6
CONTINUOUS
 62
     7
100
AcDbLine
 10
1498.692749
 20
630.800049
 30
0.0
 11
1498.692749
 21
636.450073
 31
0.0
  0
LINE
  5
19E
100
AcDbEntity
  8
001
  6
CONTINUOUS
 62
     7
100
AcDbLine
 10
1510.692749
 20
636.450073
 30
0.0
 11
1498.692749
 21
636.450073
 31
0.0
  0
LINE
  5
19F
100
AcDbEntity
  8
001
  6
CONTINUOUS
 62
     7
100
AcDbLine
 10
1516.692749
 20
590.75
 30
0.0
 11
1516.692749
 21
588.450073
 31
0.0
  0
LINE
  5
1A0
100
AcDbEntity
  8
001
  6
CONTINUOUS
 62
     7
100
AcDbLine
 10
1516.692749
 20
588.450073
 30
0.0
 11
1492.692749
 21
588.450073
 31
0.0
  0
ARC
  5
1A1
100
AcDbEntity
  8
001
  6
CONTINUOUS
 62
     7
100
AcDbCircle
 10
1496.465427
 20
585.594781
 30
0.0
 40
4.856074
100
AcDbArc
 50
244.385633
 51
304.383056
  0
ARC
  5
1A2
100
AcDbEntity
  8
001
  6
CONTINUOUS
 62
     7
100
AcDbCircle
 10
1504.692688
 20
598.890155
 30
0.0
 40
18.151531
100
AcDbArc
 50
252.411763
 51
287.588237
  0
ARC
  5
1A3
100
AcDbEntity
  8
001
  6
CONTINUOUS
 62
     7
100
AcDbCircle
 10
1512.919949
 20
585.594781
 30
0.0
 40
4.856074
100
AcDbArc
 50
235.616944
 51
295.614367
  0
LINE
  5
1A4
100
AcDbEntity
  8
001
  6
CONTINUOUS
 62
     7
100
AcDbLine
 10
1495.692749
 20
580.450073
 30
0.0
 11
1493.7229
 21
581.587158
 31
0.0
  0
LINE
  5
1A5
100
AcDbEntity
  8
001
  6
CONTINUOUS
 62
     7
100
AcDbLine
 10
1513.692749
 20
580.450073
 30
0.0
 11
1515.662109
 21
581.587158
 31
0.0
  0
LINE
  5
1A6
100
AcDbEntity
  8
001
  6
CONTINUOUS
 62
     7
100
AcDbLine
 10
1493.7229
 20
581.587158
 30
0.0
 11
1493.7229
 21
588.450073
 31
0.0
  0
LINE
  5
1A7
100
AcDbEntity
  8
001
  6
CONTINUOUS
 62
     7
100
AcDbLine
 10
1499.207764
 20
581.587158
 30
0.0
 11
1499.207764
 21
588.450073
 31
0.0
  0
LINE
  5
1A8
100
AcDbEntity
  8
001
  6
CONTINUOUS
 62
     7
100
AcDbLine
 10
1510.17749
 20
581.587158
 30
0.0
 11
1510.17749
 21
588.450073
 31
0.0
  0
LINE
  5
1A9
100
AcDbEntity
  8
001
  6
CONTINUOUS
 62
     7
100
AcDbLine
 10
1515.662109
 20
581.587158
 30
0.0
 11
1515.662109
 21
588.450073
 31
0.0
  0
LINE
  5
1AA
100
AcDbEntity
  8
001
  6
CONTINUOUS
 62
     7
100
AcDbLine
 10
1495.692749
 20
580.450073
 30
0.0
 11
1513.692749
 21
580.450073
 31
0.0
  0
LINE
  5
1AB
100
AcDbEntity
  8
001
  6
CONTINUOUS
 62
     7
100
AcDbLine
 10
1492.692749
 20
590.75
 30
0.0
 11
1492.692749
 21
588.450073
 31
0.0
  0
LINE
  5
1AC
100
AcDbEntity
  8
001
  6
CONTINUOUS
 62
     7
100
AcDbLine
 10
1427.307373
 20
618.500122
 30
0.0
 11
1427.307373
 21
620.800049
 31
0.0
  0
LINE
  5
1AD
100
AcDbEntity
  8
001
  6
CONTINUOUS
 62
     7
100
AcDbLine
 10
1403.307251
 20
618.500122
 30
0.0
 11
1403.307251
 21
620.800049
 31
0.0
  0
LINE
  5
1AE
100
AcDbEntity
  8
001
  6
CONTINUOUS
 62
     7
100
AcDbLine
 10
1427.307373
 20
620.800049
 30
0.0
 11
1403.307251
 21
620.800049
 31
0.0
  0
ARC
  5
1AF
100
AcDbEntity
  8
001
  6
CONTINUOUS
 62
     7
100
AcDbCircle
 10
1423.534551
 20
625.655287
 30
0.0
 40
4.856074
100
AcDbArc
 50
64.383755
 51
124.384494
  0
ARC
  5
1B0
100
AcDbEntity
  8
001
  6
CONTINUOUS
 62
     7
100
AcDbCircle
 10
1415.307312
 20
612.359845
 30
0.0
 40
18.151531
100
AcDbArc
 50
72.411763
 51
107.588237
  0
ARC
  5
1B1
100
AcDbEntity
  8
001
  6
CONTINUOUS
 62
     7
100
AcDbCircle
 10
1407.080123
 20
625.655253
 30
0.0
 40
4.856074
100
AcDbArc
 50
55.616225
 51
115.615306
  0
LINE
  5
1B2
100
AcDbEntity
  8
001
  6
CONTINUOUS
 62
     7
100
AcDbLine
 10
1424.307373
 20
630.800049
 30
0.0
 11
1426.276855
 21
629.662842
 31
0.0
  0
LINE
  5
1B3
100
AcDbEntity
  8
001
  6
CONTINUOUS
 62
     7
100
AcDbLine
 10
1406.307251
 20
630.800049
 30
0.0
 11
1404.337524
 21
629.662842
 31
0.0
  0
LINE
  5
1B4
100
AcDbEntity
  8
001
  6
CONTINUOUS
 62
     7
100
AcDbLine
 10
1424.307373
 20
630.800049
 30
0.0
 11
1406.307251
 21
630.800049
 31
0.0
  0
LINE
  5
1B5
100
AcDbEntity
  8
001
  6
CONTINUOUS
 62
     7
100
AcDbLine
 10
1426.276855
 20
629.662842
 30
0.0
 11
1426.276855
 21
620.800049
 31
0.0
  0
LINE
  5
1B6
100
AcDbEntity
  8
001
  6
CONTINUOUS
 62
     7
100
AcDbLine
 10
1420.792114
 20
629.662842
 30
0.0
 11
1420.792114
 21
620.800049
 31
0.0
  0
LINE
  5
1B7
100
AcDbEntity
  8
001
  6
CONTINUOUS
 62
     7
100
AcDbLine
 10
1409.822388
 20
629.662842
 30
0.0
 11
1409.822388
 21
620.800049
 31
0.0
  0
LINE
  5
1B8
100
AcDbEntity
  8
001
  6
CONTINUOUS
 62
     7
100
AcDbLine
 10
1404.337524
 20
629.662842
 30
0.0
 11
1404.337524
 21
620.800049
 31
0.0
  0
ARC
  5
1B9
100
AcDbEntity
  8
001
  6
CONTINUOUS
 62
     7
100
AcDbCircle
 10
1415.307312
 20
628.450119
 30
0.0
 40
10.0
100
AcDbArc
 50
53.129665
 51
126.870335
  0
LINE
  5
1BA
100
AcDbEntity
  8
001
  6
CONTINUOUS
 62
     7
100
AcDbLine
 10
1421.307251
 20
630.800049
 30
0.0
 11
1421.307251
 21
636.450073
 31
0.0
  0
LINE
  5
1BB
100
AcDbEntity
  8
001
  6
CONTINUOUS
 62
     7
100
AcDbLine
 10
1409.307251
 20
630.800049
 30
0.0
 11
1409.307251
 21
636.450073
 31
0.0
  0
LINE
  5
1BC
100
AcDbEntity
  8
001
  6
CONTINUOUS
 62
     7
100
AcDbLine
 10
1421.307251
 20
636.450073
 30
0.0
 11
1409.307251
 21
636.450073
 31
0.0
  0
LINE
  5
1BD
100
AcDbEntity
  8
001
  6
CONTINUOUS
 62
     7
100
AcDbLine
 10
1427.307373
 20
590.75
 30
0.0
 11
1427.307373
 21
588.450073
 31
0.0
  0
LINE
  5
1BE
100
AcDbEntity
  8
001
  6
CONTINUOUS
 62
     7
100
AcDbLine
 10
1427.307373
 20
588.450073
 30
0.0
 11
1403.307251
 21
588.450073
 31
0.0
  0
ARC
  5
1BF
100
AcDbEntity
  8
001
  6
CONTINUOUS
 62
     7
100
AcDbCircle
 10
1407.080123
 20
585.594747
 30
0.0
 40
4.856074
100
AcDbArc
 50
244.384694
 51
304.383775
  0
ARC
  5
1C0
100
AcDbEntity
  8
001
  6
CONTINUOUS
 62
     7
100
AcDbCircle
 10
1415.307312
 20
598.890155
 30
0.0
 40
18.151531
100
AcDbArc
 50
252.411763
 51
287.588237
  0
ARC
  5
1C1
100
AcDbEntity
  8
001
  6
CONTINUOUS
 62
     7
100
AcDbCircle
 10
1423.534551
 20
585.594713
 30
0.0
 40
4.856074
100
AcDbArc
 50
235.615506
 51
295.616245
  0
LINE
  5
1C2
100
AcDbEntity
  8
001
  6
CONTINUOUS
 62
     7
100
AcDbLine
 10
1406.307251
 20
580.450073
 30
0.0
 11
1404.337524
 21
581.587158
 31
0.0
  0
LINE
  5
1C3
100
AcDbEntity
  8
001
  6
CONTINUOUS
 62
     7
100
AcDbLine
 10
1424.307373
 20
580.450073
 30
0.0
 11
1426.276855
 21
581.587158
 31
0.0
  0
LINE
  5
1C4
100
AcDbEntity
  8
001
  6
CONTINUOUS
 62
     7
100
AcDbLine
 10
1404.337524
 20
581.587158
 30
0.0
 11
1404.337524
 21
588.450073
 31
0.0
  0
LINE
  5
1C5
100
AcDbEntity
  8
001
  6
CONTINUOUS
 62
     7
100
AcDbLine
 10
1409.822388
 20
581.587158
 30
0.0
 11
1409.822388
 21
588.450073
 31
0.0
  0
LINE
  5
1C6
100
AcDbEntity
  8
001
  6
CONTINUOUS
 62
     7
100
AcDbLine
 10
1420.792114
 20
581.587158
 30
0.0
 11
1420.792114
 21
588.450073
 31
0.0
  0
LINE
  5
1C7
100
AcDbEntity
  8
001
  6
CONTINUOUS
 62
     7
100
AcDbLine
 10
1426.276855
 20
581.587158
 30
0.0
 11
1426.276855
 21
588.450073
 31
0.0
  0
LINE
  5
1C8
100
AcDbEntity
  8
001
  6
CONTINUOUS
 62
     7
100
AcDbLine
 10
1406.307251
 20
580.450073
 30
0.0
 11
1424.307373
 21
580.450073
 31
0.0
  0
LINE
  5
1C9
100
AcDbEntity
  8
001
  6
CONTINUOUS
 62
     7
100
AcDbLine
 10
1403.307251
 20
590.75
 30
0.0
 11
1403.307251
 21
588.450073
 31
0.0
  0
LINE
  5
1CA
100
AcDbEntity
  8
001
  6
CONTINUOUS
 62
     7
100
AcDbLine
 10
945.017212
 20
630.800049
 30
0.0
 11
945.017212
 21
636.450073
 31
0.0
  0
LINE
  5
1CB
100
AcDbEntity
  8
001
  6
CONTINUOUS
 62
     7
100
AcDbLine
 10
957.017212
 20
630.800049
 30
0.0
 11
957.017212
 21
636.450073
 31
0.0
  0
LINE
  5
1CC
100
AcDbEntity
  8
001
  6
CONTINUOUS
 62
     7
100
AcDbLine
 10
939.017212
 20
618.500122
 30
0.0
 11
939.017212
 21
620.800049
 31
0.0
  0
LINE
  5
1CD
100
AcDbEntity
  8
001
  6
CONTINUOUS
 62
     7
100
AcDbLine
 10
939.017212
 20
620.800049
 30
0.0
 11
963.017212
 21
620.800049
 31
0.0
  0
ARC
  5
1CE
100
AcDbEntity
  8
001
  6
CONTINUOUS
 62
     7
100
AcDbCircle
 10
955.767212
 20
616.791622
 30
0.0
 40
13.719723
100
AcDbArc
 50
69.743902
 51
110.256098
  0
ARC
  5
1CF
100
AcDbEntity
  8
001
  6
CONTINUOUS
 62
     7
100
AcDbCircle
 10
946.267212
 20
616.791622
 30
0.0
 40
13.719723
100
AcDbArc
 50
69.743902
 51
110.256098
  0
LINE
  5
1D0
100
AcDbEntity
  8
001
  6
CONTINUOUS
 62
     7
100
AcDbLine
 10
960.517212
 20
630.511353
 30
0.0
 11
960.017212
 21
630.800049
 31
0.0
  0
LINE
  5
1D1
100
AcDbEntity
  8
001
  6
CONTINUOUS
 62
     7
100
AcDbLine
 10
941.517212
 20
630.511353
 30
0.0
 11
942.017212
 21
630.800049
 31
0.0
  0
LINE
  5
1D2
100
AcDbEntity
  8
001
  6
CONTINUOUS
 62
     7
100
AcDbLine
 10
960.017212
 20
630.800049
 30
0.0
 11
942.017212
 21
630.800049
 31
0.0
  0
LINE
  5
1D3
100
AcDbEntity
  8
001
  6
CONTINUOUS
 62
     7
100
AcDbLine
 10
960.517212
 20
630.511353
 30
0.0
 11
960.517212
 21
620.800049
 31
0.0
  0
LINE
  5
1D4
100
AcDbEntity
  8
001
  6
CONTINUOUS
 62
     7
100
AcDbLine
 10
941.517212
 20
630.511353
 30
0.0
 11
941.517212
 21
620.800049
 31
0.0
  0
LINE
  5
1D5
100
AcDbEntity
  8
001
  6
CONTINUOUS
 62
     7
100
AcDbLine
 10
951.017212
 20
629.662842
 30
0.0
 11
951.017212
 21
620.800049
 31
0.0
  0
LINE
  5
1D6
100
AcDbEntity
  8
001
  6
CONTINUOUS
 62
     7
100
AcDbLine
 10
963.017212
 20
618.500122
 30
0.0
 11
963.017212
 21
620.800049
 31
0.0
  0
ARC
  5
1D7
100
AcDbEntity
  8
001
  6
CONTINUOUS
 62
     7
100
AcDbCircle
 10
951.017212
 20
628.450073
 30
0.0
 40
10.0
100
AcDbArc
 50
53.130102
 51
126.869898
  0
LINE
  5
1D8
100
AcDbEntity
  8
001
  6
CONTINUOUS
 62
     7
100
AcDbLine
 10
945.017212
 20
636.450073
 30
0.0
 11
957.017212
 21
636.450073
 31
0.0
  0
LINE
  5
1D9
100
AcDbEntity
  8
001
  6
CONTINUOUS
 62
     7
100
AcDbLine
 10
939.017212
 20
588.450073
 30
0.0
 11
963.017212
 21
588.450073
 31
0.0
  0
ARC
  5
1DA
100
AcDbEntity
  8
001
  6
CONTINUOUS
 62
     7
100
AcDbCircle
 10
946.267212
 20
594.4585
 30
0.0
 40
13.719723
100
AcDbArc
 50
249.743902
 51
290.256098
  0
ARC
  5
1DB
100
AcDbEntity
  8
001
  6
CONTINUOUS
 62
     7
100
AcDbCircle
 10
955.767212
 20
594.4585
 30
0.0
 40
13.719723
100
AcDbArc
 50
249.743902
 51
290.256098
  0
LINE
  5
1DC
100
AcDbEntity
  8
001
  6
CONTINUOUS
 62
     7
100
AcDbLine
 10
941.517212
 20
580.73877
 30
0.0
 11
942.017212
 21
580.450073
 31
0.0
  0
LINE
  5
1DD
100
AcDbEntity
  8
001
  6
CONTINUOUS
 62
     7
100
AcDbLine
 10
960.517212
 20
580.73877
 30
0.0
 11
960.017212
 21
580.450073
 31
0.0
  0
LINE
  5
1DE
100
AcDbEntity
  8
001
  6
CONTINUOUS
 62
     7
100
AcDbLine
 10
942.017212
 20
580.450073
 30
0.0
 11
960.017212
 21
580.450073
 31
0.0
  0
LINE
  5
1DF
100
AcDbEntity
  8
001
  6
CONTINUOUS
 62
     7
100
AcDbLine
 10
941.517212
 20
580.73877
 30
0.0
 11
941.517212
 21
588.450073
 31
0.0
  0
LINE
  5
1E0
100
AcDbEntity
  8
001
  6
CONTINUOUS
 62
     7
100
AcDbLine
 10
960.517212
 20
580.73877
 30
0.0
 11
960.517212
 21
588.450073
 31
0.0
  0
LINE
  5
1E1
100
AcDbEntity
  8
001
  6
CONTINUOUS
 62
     7
100
AcDbLine
 10
951.017212
 20
581.58728
 30
0.0
 11
951.017212
 21
588.450073
 31
0.0
  0
LINE
  5
1E2
100
AcDbEntity
  8
001
  6
CONTINUOUS
 62
     7
100
AcDbLine
 10
963.017212
 20
590.75
 30
0.0
 11
963.017212
 21
588.450073
 31
0.0
  0
LINE
  5
1E3
100
AcDbEntity
  8
001
  6
CONTINUOUS
 62
     7
100
AcDbLine
 10
939.017212
 20
590.75
 30
0.0
 11
939.017212
 21
588.450073
 31
0.0
  0
LINE
  5
1E4
100
AcDbEntity
  8
001
  6
CONTINUOUS
 62
     7
100
AcDbLine
 10
838.982727
 20
590.75
 30
0.0
 11
838.982727
 21
588.450073
 31
0.0
  0
LINE
  5
1E5
100
AcDbEntity
  8
001
  6
CONTINUOUS
 62
     7
100
AcDbLine
 10
838.982727
 20
588.450073
 30
0.0
 11
814.982727
 21
588.450073
 31
0.0
  0
ARC
  5
1E6
100
AcDbEntity
  8
001
  6
CONTINUOUS
 62
     7
100
AcDbCircle
 10
831.732727
 20
594.4585
 30
0.0
 40
13.719723
100
AcDbArc
 50
249.743902
 51
290.256098
  0
ARC
  5
1E7
100
AcDbEntity
  8
001
  6
CONTINUOUS
 62
     7
100
AcDbCircle
 10
822.232727
 20
594.4585
 30
0.0
 40
13.719723
100
AcDbArc
 50
249.743902
 51
290.256098
  0
LINE
  5
1E8
100
AcDbEntity
  8
001
  6
CONTINUOUS
 62
     7
100
AcDbLine
 10
836.482727
 20
580.73877
 30
0.0
 11
835.982727
 21
580.450073
 31
0.0
  0
LINE
  5
1E9
100
AcDbEntity
  8
001
  6
CONTINUOUS
 62
     7
100
AcDbLine
 10
817.482727
 20
580.73877
 30
0.0
 11
817.982727
 21
580.450073
 31
0.0
  0
LINE
  5
1EA
100
AcDbEntity
  8
001
  6
CONTINUOUS
 62
     7
100
AcDbLine
 10
835.982727
 20
580.450073
 30
0.0
 11
817.982727
 21
580.450073
 31
0.0
  0
LINE
  5
1EB
100
AcDbEntity
  8
001
  6
CONTINUOUS
 62
     7
100
AcDbLine
 10
836.482727
 20
580.73877
 30
0.0
 11
836.482727
 21
588.450073
 31
0.0
  0
LINE
  5
1EC
100
AcDbEntity
  8
001
  6
CONTINUOUS
 62
     7
100
AcDbLine
 10
817.482727
 20
580.73877
 30
0.0
 11
817.482727
 21
588.450073
 31
0.0
  0
LINE
  5
1ED
100
AcDbEntity
  8
001
  6
CONTINUOUS
 62
     7
100
AcDbLine
 10
826.982727
 20
581.58728
 30
0.0
 11
826.982727
 21
588.450073
 31
0.0
  0
LINE
  5
1EE
100
AcDbEntity
  8
001
  6
CONTINUOUS
 62
     7
100
AcDbLine
 10
814.982727
 20
590.75
 30
0.0
 11
814.982727
 21
588.450073
 31
0.0
  0
LINE
  5
1EF
100
AcDbEntity
  8
001
  6
CONTINUOUS
 62
     7
100
AcDbLine
 10
832.982727
 20
630.800049
 30
0.0
 11
832.982727
 21
636.450073
 31
0.0
  0
LINE
  5
1F0
100
AcDbEntity
  8
001
  6
CONTINUOUS
 62
     7
100
AcDbLine
 10
820.982727
 20
630.800049
 30
0.0
 11
820.982727
 21
636.450073
 31
0.0
  0
LINE
  5
1F1
100
AcDbEntity
  8
001
  6
CONTINUOUS
 62
     7
100
AcDbLine
 10
838.982727
 20
618.500122
 30
0.0
 11
838.982727
 21
620.800049
 31
0.0
  0
LINE
  5
1F2
100
AcDbEntity
  8
001
  6
CONTINUOUS
 62
     7
100
AcDbLine
 10
838.982727
 20
620.800049
 30
0.0
 11
814.982727
 21
620.800049
 31
0.0
  0
ARC
  5
1F3
100
AcDbEntity
  8
001
  6
CONTINUOUS
 62
     7
100
AcDbCircle
 10
822.232727
 20
616.791622
 30
0.0
 40
13.719723
100
AcDbArc
 50
69.743902
 51
110.256098
  0
ARC
  5
1F4
100
AcDbEntity
  8
001
  6
CONTINUOUS
 62
     7
100
AcDbCircle
 10
831.732727
 20
616.791622
 30
0.0
 40
13.719723
100
AcDbArc
 50
69.743902
 51
110.256098
  0
LINE
  5
1F5
100
AcDbEntity
  8
001
  6
CONTINUOUS
 62
     7
100
AcDbLine
 10
817.482727
 20
630.511353
 30
0.0
 11
817.982727
 21
630.800049
 31
0.0
  0
LINE
  5
1F6
100
AcDbEntity
  8
001
  6
CONTINUOUS
 62
     7
100
AcDbLine
 10
836.482727
 20
630.511353
 30
0.0
 11
835.982727
 21
630.800049
 31
0.0
  0
LINE
  5
1F7
100
AcDbEntity
  8
001
  6
CONTINUOUS
 62
     7
100
AcDbLine
 10
817.982727
 20
630.800049
 30
0.0
 11
835.982727
 21
630.800049
 31
0.0
  0
LINE
  5
1F8
100
AcDbEntity
  8
001
  6
CONTINUOUS
 62
     7
100
AcDbLine
 10
817.482727
 20
630.511353
 30
0.0
 11
817.482727
 21
620.800049
 31
0.0
  0
LINE
  5
1F9
100
AcDbEntity
  8
001
  6
CONTINUOUS
 62
     7
100
AcDbLine
 10
836.482727
 20
630.511353
 30
0.0
 11
836.482727
 21
620.800049
 31
0.0
  0
LINE
  5
1FA
100
AcDbEntity
  8
001
  6
CONTINUOUS
 62
     7
100
AcDbLine
 10
826.982727
 20
629.662842
 30
0.0
 11
826.982727
 21
620.800049
 31
0.0
  0
LINE
  5
1FB
100
AcDbEntity
  8
001
  6
CONTINUOUS
 62
     7
100
AcDbLine
 10
814.982727
 20
618.500122
 30
0.0
 11
814.982727
 21
620.800049
 31
0.0
  0
ARC
  5
1FC
100
AcDbEntity
  8
001
  6
CONTINUOUS
 62
     7
100
AcDbCircle
 10
826.982727
 20
628.450073
 30
0.0
 40
10.0
100
AcDbArc
 50
53.130102
 51
126.869898
  0
LINE
  5
1FD
100
AcDbEntity
  8
001
  6
CONTINUOUS
 62
     7
100
AcDbLine
 10
832.982727
 20
636.450073
 30
0.0
 11
820.982727
 21
636.450073
 31
0.0
  0
ARC
  5
1FE
100
AcDbEntity
  8
001
  6
CONTINUOUS
 62
     7
100
AcDbCircle
 10
831.160683
 20
582.749882
 30
0.0
 40
8.0
100
AcDbArc
 50
17.745763
 51
45.440645
  0
ARC
  5
1FF
100
AcDbEntity
  8
001
  6
CONTINUOUS
 62
     7
100
AcDbCircle
 10
946.839534
 20
582.749794
 30
0.0
 40
8.0
100
AcDbArc
 50
134.558459
 51
162.253578
  0
ARC
  5
200
100
AcDbEntity
  8
001
  6
CONTINUOUS
 62
     7
100
AcDbCircle
 10
942.591816
 20
626.50017
 30
0.0
 40
8.0
100
AcDbArc
 50
183.000438
 51
243.459804
  0
ARC
  5
201
100
AcDbEntity
  8
001
  6
CONTINUOUS
 62
     7
100
AcDbCircle
 10
835.408423
 20
626.500075
 30
0.0
 40
8.0
100
AcDbArc
 50
296.537792
 51
357.000238
  0
ARC
  5
202
100
AcDbEntity
  8
001
  6
CONTINUOUS
 62
     7
100
AcDbCircle
 10
818.166422
 20
637.500122
 30
0.0
 40
2.0
100
AcDbArc
 50
175.426239
 51
270.000611
  0
LINE
  5
203
100
AcDbEntity
  8
001
  6
CONTINUOUS
 62
     7
100
AcDbLine
 10
818.166443
 20
635.500122
 30
0.0
 11
820.982727
 21
635.500122
 31
0.0
  0
LINE
  5
204
100
AcDbEntity
  8
001
  6
CONTINUOUS
 62
     7
100
AcDbLine
 10
823.716125
 20
637.901489
 30
0.0
 11
824.351135
 21
645.838806
 31
0.0
  0
LINE
  5
205
100
AcDbEntity
  8
001
  6
CONTINUOUS
 62
     7
100
AcDbLine
 10
959.833618
 20
635.500122
 30
0.0
 11
957.017273
 21
635.500122
 31
0.0
  0
LINE
  5
206
100
AcDbEntity
  8
001
  6
CONTINUOUS
 62
     7
100
AcDbLine
 10
954.283936
 20
637.901428
 30
0.0
 11
953.648987
 21
645.838806
 31
0.0
  0
ARC
  5
207
100
AcDbEntity
  8
001
  6
CONTINUOUS
 62
     7
100
AcDbCircle
 10
959.83364
 20
637.500122
 30
0.0
 40
2.0
100
AcDbArc
 50
269.999389
 51
4.573761
  0
LINE
  5
208
100
AcDbEntity
  8
001
  6
CONTINUOUS
 62
     7
100
AcDbLine
 10
877.0
 20
588.450073
 30
0.0
 11
901.0
 21
588.450073
 31
0.0
  0
LINE
  5
209
100
AcDbEntity
  8
001
  6
CONTINUOUS
 62
     7
100
AcDbLine
 10
879.5
 20
580.73877
 30
0.0
 11
879.5
 21
588.450073
 31
0.0
  0
LINE
  5
20A
100
AcDbEntity
  8
001
  6
CONTINUOUS
 62
     7
100
AcDbLine
 10
898.5
 20
580.73877
 30
0.0
 11
898.5
 21
588.450073
 31
0.0
  0
LINE
  5
20B
100
AcDbEntity
  8
001
  6
CONTINUOUS
 62
     7
100
AcDbLine
 10
889.0
 20
581.58728
 30
0.0
 11
889.0
 21
588.450073
 31
0.0
  0
LINE
  5
20C
100
AcDbEntity
  8
001
  6
CONTINUOUS
 62
     7
100
AcDbLine
 10
901.0
 20
590.75
 30
0.0
 11
901.0
 21
588.450073
 31
0.0
  0
LINE
  5
20D
100
AcDbEntity
  8
001
  6
CONTINUOUS
 62
     7
100
AcDbLine
 10
877.0
 20
590.75
 30
0.0
 11
877.0
 21
588.450073
 31
0.0
  0
ARC
  5
20E
100
AcDbEntity
  8
001
  6
CONTINUOUS
 62
     7
100
AcDbCircle
 10
884.25
 20
594.4585
 30
0.0
 40
13.719723
100
AcDbArc
 50
249.743902
 51
290.256098
  0
ARC
  5
20F
100
AcDbEntity
  8
001
  6
CONTINUOUS
 62
     7
100
AcDbCircle
 10
893.75
 20
594.4585
 30
0.0
 40
13.719723
100
AcDbArc
 50
249.743902
 51
290.256098
  0
LINE
  5
210
100
AcDbEntity
  8
001
  6
CONTINUOUS
 62
     7
100
AcDbLine
 10
879.5
 20
580.73877
 30
0.0
 11
880.0
 21
580.450073
 31
0.0
  0
LINE
  5
211
100
AcDbEntity
  8
001
  6
CONTINUOUS
 62
     7
100
AcDbLine
 10
898.5
 20
580.73877
 30
0.0
 11
898.0
 21
580.450073
 31
0.0
  0
LINE
  5
212
100
AcDbEntity
  8
001
  6
CONTINUOUS
 62
     7
100
AcDbLine
 10
880.0
 20
580.450073
 30
0.0
 11
898.0
 21
580.450073
 31
0.0
  0
LINE
  5
213
100
AcDbEntity
  8
001
  6
CONTINUOUS
 62
     7
100
AcDbLine
 10
877.0
 20
618.500122
 30
0.0
 11
877.0
 21
620.800049
 31
0.0
  0
LINE
  5
214
100
AcDbEntity
  8
001
  6
CONTINUOUS
 62
     7
100
AcDbLine
 10
877.0
 20
620.800049
 30
0.0
 11
901.0
 21
620.800049
 31
0.0
  0
LINE
  5
215
100
AcDbEntity
  8
001
  6
CONTINUOUS
 62
     7
100
AcDbLine
 10
898.5
 20
630.511353
 30
0.0
 11
898.5
 21
620.800049
 31
0.0
  0
LINE
  5
216
100
AcDbEntity
  8
001
  6
CONTINUOUS
 62
     7
100
AcDbLine
 10
879.5
 20
630.511353
 30
0.0
 11
879.5
 21
620.800049
 31
0.0
  0
LINE
  5
217
100
AcDbEntity
  8
001
  6
CONTINUOUS
 62
     7
100
AcDbLine
 10
889.0
 20
629.662842
 30
0.0
 11
889.0
 21
620.800049
 31
0.0
  0
LINE
  5
218
100
AcDbEntity
  8
001
  6
CONTINUOUS
 62
     7
100
AcDbLine
 10
901.0
 20
618.500122
 30
0.0
 11
901.0
 21
620.800049
 31
0.0
  0
LINE
  5
219
100
AcDbEntity
  8
001
  6
CONTINUOUS
 62
     7
100
AcDbLine
 10
883.0
 20
630.800049
 30
0.0
 11
883.0
 21
636.450073
 31
0.0
  0
LINE
  5
21A
100
AcDbEntity
  8
001
  6
CONTINUOUS
 62
     7
100
AcDbLine
 10
895.0
 20
630.800049
 30
0.0
 11
895.0
 21
636.450073
 31
0.0
  0
ARC
  5
21B
100
AcDbEntity
  8
001
  6
CONTINUOUS
 62
     7
100
AcDbCircle
 10
893.75
 20
616.791622
 30
0.0
 40
13.719723
100
AcDbArc
 50
69.743902
 51
110.256098
  0
ARC
  5
21C
100
AcDbEntity
  8
001
  6
CONTINUOUS
 62
     7
100
AcDbCircle
 10
884.25
 20
616.791622
 30
0.0
 40
13.719723
100
AcDbArc
 50
69.743902
 51
110.256098
  0
LINE
  5
21D
100
AcDbEntity
  8
001
  6
CONTINUOUS
 62
     7
100
AcDbLine
 10
898.5
 20
630.511353
 30
0.0
 11
898.0
 21
630.800049
 31
0.0
  0
LINE
  5
21E
100
AcDbEntity
  8
001
  6
CONTINUOUS
 62
     7
100
AcDbLine
 10
879.5
 20
630.511353
 30
0.0
 11
880.0
 21
630.800049
 31
0.0
  0
LINE
  5
21F
100
AcDbEntity
  8
001
  6
CONTINUOUS
 62
     7
100
AcDbLine
 10
898.0
 20
630.800049
 30
0.0
 11
880.0
 21
630.800049
 31
0.0
  0
ARC
  5
220
100
AcDbEntity
  8
001
  6
CONTINUOUS
 62
     7
100
AcDbCircle
 10
889.0
 20
628.450073
 30
0.0
 40
10.0
100
AcDbArc
 50
53.130102
 51
126.869898
  0
LINE
  5
221
100
AcDbEntity
  8
001
  6
CONTINUOUS
 62
     7
100
AcDbLine
 10
883.0
 20
636.450073
 30
0.0
 11
895.0
 21
636.450073
 31
0.0
  0
LINE
  5
222
100
AcDbEntity
  8
001
  6
CONTINUOUS
 62
     7
100
AcDbLine
 10
1460.0
 20
805.75
 30
0.0
 11
1443.25
 21
805.75
 31
0.0
  0
LINE
  5
223
100
AcDbEntity
  8
001
  6
CONTINUOUS
 62
     7
100
AcDbLine
 10
1443.25
 20
805.75
 30
0.0
 11
1443.25
 21
757.75
 31
0.0
  0
ARC
  5
225
100
AcDbEntity
  8
001
  6
CONTINUOUS
 62
     7
100
AcDbCircle
 10
1445.25
 20
757.75
 30
0.0
 40
2.0
100
AcDbArc
 50
180.0
 51
270.0
  0
LINE
  5
227
100
AcDbEntity
  8
001
  6
CONTINUOUS
 62
     7
100
AcDbLine
 10
905.75
 20
805.75
 30
0.0
 11
889.0
 21
805.75
 31
0.0
  0
LINE
  5
228
100
AcDbEntity
  8
001
  6
CONTINUOUS
 62
     7
100
AcDbLine
 10
905.75
 20
805.75
 30
0.0
 11
905.75
 21
757.75
 31
0.0
  0
ARC
  5
229
100
AcDbEntity
  8
001
  6
CONTINUOUS
 62
     7
100
AcDbCircle
 10
903.75
 20
757.75
 30
0.0
 40
2.0
100
AcDbArc
 50
270.0
 51
0.0
  0
ARC
  5
22C
100
AcDbEntity
  8
001
  6
CONTINUOUS
 62
     7
100
AcDbCircle
 10
912.0
 20
720.749878
 30
0.0
 40
2.0
100
AcDbArc
 50
270.0
 51
0.003497
  0
ARC
  5
22D
100
AcDbEntity
  8
001
  6
CONTINUOUS
 62
     7
100
AcDbCircle
 10
866.0
 20
720.749878
 30
0.0
 40
2.0
100
AcDbArc
 50
179.996503
 51
270.0
  0
LINE
  5
22E
100
AcDbEntity
  8
001
  6
CONTINUOUS
 62
     7
100
AcDbLine
 10
851.0
 20
1213.526123
 30
0.0
 11
859.136536
 21
1205.389648
 31
0.0
  0
LINE
  5
22F
100
AcDbEntity
  8
001
  6
CONTINUOUS
 62
     3
100
AcDbLine
 10
1630.0
 20
80.0
 30
0.0
 11
2025.0
 21
80.0
 31
0.0
  0
LINE
  5
230
100
AcDbEntity
  8
001
  6
CONTINUOUS
 62
     2
100
AcDbLine
 10
2025.0
 20
50.0
 30
0.0
 11
1630.0
 21
50.0
 31
0.0
  0
LINE
  5
231
100
AcDbEntity
  8
001
  6
CONTINUOUS
 62
     2
100
AcDbLine
 10
2025.0
 20
177.5
 30
0.0
 11
2025.0
 21
50.0
 31
0.0
  0
LINE
  5
232
100
AcDbEntity
  8
001
  6
CONTINUOUS
 62
     2
100
AcDbLine
 10
1630.0
 20
177.5
 30
0.0
 11
2025.0
 21
177.5
 31
0.0
  0
LINE
  5
233
100
AcDbEntity
  8
001
  6
CONTINUOUS
 62
     2
100
AcDbLine
 10
1630.0
 20
177.5
 30
0.0
 11
1630.0
 21
50.0
 31
0.0
  0
LINE
  5
234
100
AcDbEntity
  8
001
  6
CONTINUOUS
 62
     7
100
AcDbLine
 10
935.0
 20
572.0
 30
0.0
 11
935.0
 21
522.063354
 31
0.0
  0
LINE
  5
235
100
AcDbEntity
  8
001
  6
CONTINUOUS
 62
     7
100
AcDbLine
 10
935.0
 20
522.063354
 30
0.0
 11
908.226685
 21
401.297058
 31
0.0
  0
LINE
  5
236
100
AcDbEntity
  8
001
  6
CONTINUOUS
 62
     7
100
AcDbLine
 10
843.0
 20
572.0
 30
0.0
 11
843.0
 21
522.063354
 31
0.0
  0
LINE
  5
237
100
AcDbEntity
  8
001
  6
CONTINUOUS
 62
     7
100
AcDbLine
 10
843.000244
 20
522.063354
 30
0.0
 11
869.773315
 21
401.297058
 31
0.0
  0
LINE
  5
238
100
AcDbEntity
  8
001
  6
CONTINUOUS
 62
     7
100
AcDbLine
 10
1081.0
 20
556.75
 30
0.0
 11
1094.0
 21
556.75
 31
0.0
  0
ARC
  5
239
100
AcDbEntity
  8
001
  6
CONTINUOUS
 62
     7
100
AcDbCircle
 10
1081.0
 20
550.75
 30
0.0
 40
6.0
100
AcDbArc
 50
90.0
 51
180.0
  0
LINE
  5
23A
100
AcDbEntity
  8
001
  6
CONTINUOUS
 62
     7
100
AcDbLine
 10
1070.435791
 20
517.4375
 30
0.0
 11
1014.0
 21
512.5
 31
0.0
  0
ARC
  5
23B
100
AcDbEntity
  8
001
  6
CONTINUOUS
 62
     7
100
AcDbCircle
 10
1070.0
 20
522.418472
 30
0.0
 40
5.0
100
AcDbArc
 50
275.000142
 51
0.0
  0
ARC
  5
23C
100
AcDbEntity
  8
001
  6
CONTINUOUS
 62
     7
100
AcDbCircle
 10
1016.091714
 20
488.591325
 30
0.0
 40
24.0
100
AcDbArc
 50
94.999943
 51
125.521829
  0
LINE
  5
23D
100
AcDbEntity
  8
001
  6
CONTINUOUS
 62
     7
100
AcDbLine
 10
942.513
 20
499.75
 30
0.0
 11
976.00177
 21
499.75
 31
0.0
  0
ARC
  5
23E
100
AcDbEntity
  8
001
  6
CONTINUOUS
 62
     7
100
AcDbCircle
 10
976.001775
 20
544.75
 30
0.0
 40
45.0
100
AcDbArc
 50
269.999994
 51
305.521886
  0
ARC
  5
23F
100
AcDbEntity
  8
001
  6
CONTINUOUS
 62
     7
100
AcDbCircle
 10
942.51296
 20
509.75
 30
0.0
 40
10.0
100
AcDbArc
 50
167.499988
 51
270.000234
  0
LINE
  5
240
100
AcDbEntity
  8
001
  6
CONTINUOUS
 62
     7
100
AcDbLine
 10
1081.0
 20
324.75
 30
0.0
 11
1094.0
 21
324.75
 31
0.0
  0
ARC
  5
241
100
AcDbEntity
  8
001
  6
CONTINUOUS
 62
     7
100
AcDbCircle
 10
1081.0
 20
330.75
 30
0.0
 40
6.0
100
AcDbArc
 50
180.0
 51
270.0
  0
LINE
  5
242
100
AcDbEntity
  8
001
  6
CONTINUOUS
 62
     7
100
AcDbLine
 10
1070.435791
 20
364.0625
 30
0.0
 11
1014.0
 21
369.0
 31
0.0
  0
ARC
  5
243
100
AcDbEntity
  8
001
  6
CONTINUOUS
 62
     7
100
AcDbCircle
 10
1070.0
 20
359.081528
 30
0.0
 40
5.0
100
AcDbArc
 50
0.000176
 51
84.999858
  0
ARC
  5
244
100
AcDbEntity
  8
001
  6
CONTINUOUS
 62
     7
100
AcDbCircle
 10
1016.091714
 20
392.908675
 30
0.0
 40
24.0
100
AcDbArc
 50
234.478171
 51
265.000057
  0
ARC
  5
245
100
AcDbEntity
  8
001
  6
CONTINUOUS
 62
     7
100
AcDbCircle
 10
976.001775
 20
336.75
 30
0.0
 40
45.0
100
AcDbArc
 50
54.478114
 51
90.000006
  0
LINE
  5
246
100
AcDbEntity
  8
001
  6
CONTINUOUS
 62
     7
100
AcDbLine
 10
1094.0
 20
324.75
 30
0.0
 11
1094.0
 21
556.75
 31
0.0
  0
LINE
  5
247
100
AcDbEntity
  8
001
  6
CONTINUOUS
 62
     7
100
AcDbLine
 10
1075.0
 20
330.75
 30
0.0
 11
1075.0
 21
550.75
 31
0.0
  0
LINE
  5
248
100
AcDbEntity
  8
001
  6
CONTINUOUS
 62
     7
100
AcDbLine
 10
1006.717163
 20
382.374176
 30
0.0
 11
1006.717163
 21
499.125824
 31
0.0
  0
LINE
  5
249
100
AcDbEntity
  8
001
  6
CONTINUOUS
 62
     7
100
AcDbLine
 10
364.0
 20
499.75
 30
0.0
 11
364.0
 21
381.75
 31
0.0
  0
LINE
  5
24A
100
AcDbEntity
  8
001
  6
CONTINUOUS
 62
     7
100
AcDbLine
 10
835.487244
 20
499.75
 30
0.0
 11
364.0
 21
499.75
 31
0.0
  0
ARC
  5
24B
100
AcDbEntity
  8
001
  6
CONTINUOUS
 62
     7
100
AcDbCircle
 10
835.487217
 20
509.75
 30
0.0
 40
10.0
100
AcDbArc
 50
270.000154
 51
12.499833
  0
LINE
  5
24C
100
AcDbEntity
  8
001
  6
CONTINUOUS
 62
     7
100
AcDbLine
 10
799.0
 20
400.140442
 30
0.0
 11
799.0
 21
326.75
 31
0.0
  0
LINE
  5
24D
100
AcDbEntity
  8
001
  6
CONTINUOUS
 62
     7
100
AcDbLine
 10
814.0
 20
400.140442
 30
0.0
 11
814.0
 21
326.75
 31
0.0
  0
LINE
  5
24E
100
AcDbEntity
  8
001
  6
CONTINUOUS
 62
     7
100
AcDbLine
 10
812.0
 20
324.75
 30
0.0
 11
801.0
 21
324.75
 31
0.0
  0
ARC
  5
24F
100
AcDbEntity
  8
001
  6
CONTINUOUS
 62
     7
100
AcDbCircle
 10
801.0
 20
326.75
 30
0.0
 40
2.0
100
AcDbArc
 50
180.0
 51
270.0
  0
ARC
  5
250
100
AcDbEntity
  8
001
  6
CONTINUOUS
 62
     7
100
AcDbCircle
 10
812.0
 20
326.75
 30
0.0
 40
2.0
100
AcDbArc
 50
270.0
 51
0.0
  0
LINE
  5
251
100
AcDbEntity
  8
001
  6
CONTINUOUS
 62
     7
100
AcDbLine
 10
796.0
 20
381.75
 30
0.0
 11
364.0
 21
381.75
 31
0.0
  0
LINE
  5
252
100
AcDbEntity
  8
001
  6
CONTINUOUS
 62
     7
100
AcDbLine
 10
817.0
 20
381.75
 30
0.0
 11
976.00177
 21
381.75
 31
0.0
  0
ARC
  5
253
100
AcDbEntity
  8
001
  6
CONTINUOUS
 62
     7
100
AcDbCircle
 10
796.0
 20
378.75
 30
0.0
 40
3.0
100
AcDbArc
 50
0.0
 51
90.0
  0
ARC
  5
254
100
AcDbEntity
  8
001
  6
CONTINUOUS
 62
     7
100
AcDbCircle
 10
817.0
 20
378.75
 30
0.0
 40
3.0
100
AcDbArc
 50
90.0
 51
180.0
  0
LINE
  5
255
100
AcDbEntity
  8
001
  6
CONTINUOUS
 62
     7
100
AcDbLine
 10
1505.0
 20
332.51416
 30
0.0
 11
1505.0
 21
326.75
 31
0.0
  0
LINE
  5
256
100
AcDbEntity
  8
001
  6
CONTINUOUS
 62
     7
100
AcDbLine
 10
1415.0
 20
332.51416
 30
0.0
 11
1415.0
 21
326.75
 31
0.0
  0
LINE
  5
257
100
AcDbEntity
  8
001
  6
CONTINUOUS
 62
     7
100
AcDbLine
 10
1503.0
 20
324.75
 30
0.0
 11
1417.0
 21
324.75
 31
0.0
  0
ARC
  5
258
100
AcDbEntity
  8
001
  6
CONTINUOUS
 62
     7
100
AcDbCircle
 10
1417.0
 20
326.75
 30
0.0
 40
2.0
100
AcDbArc
 50
180.0
 51
270.0
  0
ARC
  5
259
100
AcDbEntity
  8
001
  6
CONTINUOUS
 62
     7
100
AcDbCircle
 10
1503.0
 20
326.75
 30
0.0
 40
2.0
100
AcDbArc
 50
270.0
 51
0.0
  0
ARC
  5
25A
100
AcDbEntity
  8
001
  6
CONTINUOUS
 62
     7
100
AcDbCircle
 10
817.0
 20
400.140442
 30
0.0
 40
3.0
100
AcDbArc
 50
90.0
 51
180.0
  0
ARC
  5
25B
100
AcDbEntity
  8
001
  6
CONTINUOUS
 62
     7
100
AcDbCircle
 10
796.0
 20
400.140442
 30
0.0
 40
3.0
100
AcDbArc
 50
0.0
 51
90.0
  0
LINE
  5
25C
100
AcDbEntity
  8
001
  6
CONTINUOUS
 62
     7
100
AcDbLine
 10
799.0
 20
403.140442
 30
0.0
 11
814.0
 21
403.140442
 31
0.0
  0
LINE
  5
25D
100
AcDbEntity
  8
001
  6
CONTINUOUS
 62
     7
100
AcDbLine
 10
1081.0
 20
1287.75
 30
0.0
 11
1094.0
 21
1287.75
 31
0.0
  0
ARC
  5
25E
100
AcDbEntity
  8
001
  6
CONTINUOUS
 62
     7
100
AcDbCircle
 10
1081.0
 20
1281.75
 30
0.0
 40
6.0
100
AcDbArc
 50
90.0
 51
180.0
  0
LINE
  5
25F
100
AcDbEntity
  8
001
  6
CONTINUOUS
 62
     7
100
AcDbLine
 10
1070.435791
 20
1248.4375
 30
0.0
 11
1014.0
 21
1243.5
 31
0.0
  0
ARC
  5
260
100
AcDbEntity
  8
001
  6
CONTINUOUS
 62
     7
100
AcDbCircle
 10
1070.0
 20
1253.418472
 30
0.0
 40
5.0
100
AcDbArc
 50
275.000142
 51
0.0
  0
ARC
  5
261
100
AcDbEntity
  8
001
  6
CONTINUOUS
 62
     7
100
AcDbCircle
 10
1016.091763
 20
1219.591329
 30
0.0
 40
24.0
100
AcDbArc
 50
95.000059
 51
125.521972
  0
LINE
  5
262
100
AcDbEntity
  8
001
  6
CONTINUOUS
 62
     7
100
AcDbLine
 10
965.59375
 20
1230.75
 30
0.0
 11
976.00177
 21
1230.75
 31
0.0
  0
ARC
  5
263
100
AcDbEntity
  8
001
  6
CONTINUOUS
 62
     7
100
AcDbCircle
 10
976.001817
 20
1275.75
 30
0.0
 40
45.0
100
AcDbArc
 50
269.99994
 51
305.52182
  0
LINE
  5
264
100
AcDbEntity
  8
001
  6
CONTINUOUS
 62
     7
100
AcDbLine
 10
1094.0
 20
1055.75
 30
0.0
 11
1094.0
 21
1287.75
 31
0.0
  0
LINE
  5
265
100
AcDbEntity
  8
001
  6
CONTINUOUS
 62
     7
100
AcDbLine
 10
1075.0
 20
1061.75
 30
0.0
 11
1075.0
 21
1281.75
 31
0.0
  0
LINE
  5
266
100
AcDbEntity
  8
001
  6
CONTINUOUS
 62
     7
100
AcDbLine
 10
1006.717163
 20
1113.374146
 30
0.0
 11
1006.717163
 21
1230.125854
 31
0.0
  0
LINE
  5
267
100
AcDbEntity
  8
001
  6
CONTINUOUS
 62
     7
100
AcDbLine
 10
1081.0
 20
1055.75
 30
0.0
 11
1094.0
 21
1055.75
 31
0.0
  0
ARC
  5
268
100
AcDbEntity
  8
001
  6
CONTINUOUS
 62
     7
100
AcDbCircle
 10
1081.0
 20
1061.75
 30
0.0
 40
6.0
100
AcDbArc
 50
180.0
 51
270.0
  0
LINE
  5
269
100
AcDbEntity
  8
001
  6
CONTINUOUS
 62
     7
100
AcDbLine
 10
1070.435791
 20
1095.0625
 30
0.0
 11
1014.0
 21
1100.0
 31
0.0
  0
ARC
  5
26A
100
AcDbEntity
  8
001
  6
CONTINUOUS
 62
     7
100
AcDbCircle
 10
1070.0
 20
1090.081528
 30
0.0
 40
5.0
100
AcDbArc
 50
0.000176
 51
84.999858
  0
ARC
  5
26B
100
AcDbEntity
  8
001
  6
CONTINUOUS
 62
     7
100
AcDbCircle
 10
1016.091763
 20
1123.908671
 30
0.0
 40
24.0
100
AcDbArc
 50
234.478028
 51
264.999941
  0
ARC
  5
26C
100
AcDbEntity
  8
001
  6
CONTINUOUS
 62
     7
100
AcDbCircle
 10
976.001817
 20
1067.75
 30
0.0
 40
45.0
100
AcDbArc
 50
54.47818
 51
90.00006
  0
LINE
  5
26D
100
AcDbEntity
  8
001
  6
CONTINUOUS
 62
     7
100
AcDbLine
 10
965.59375
 20
1112.75
 30
0.0
 11
976.00177
 21
1112.75
 31
0.0
  0
LINE
  5
26E
100
AcDbEntity
  8
001
  6
CONTINUOUS
 62
     7
100
AcDbLine
 10
364.0
 20
1230.75
 30
0.0
 11
364.0
 21
1112.75
 31
0.0
  0
LINE
  5
26F
100
AcDbEntity
  8
001
  6
CONTINUOUS
 62
     7
100
AcDbLine
 10
812.406189
 20
1230.75
 30
0.0
 11
364.0
 21
1230.75
 31
0.0
  0
LINE
  5
270
100
AcDbEntity
  8
001
  6
CONTINUOUS
 62
     7
100
AcDbLine
 10
812.406189
 20
1112.75
 30
0.0
 11
364.0
 21
1112.75
 31
0.0
  0
CIRCLE
  5
271
100
AcDbEntity
  8
001
  6
CONTINUOUS
 62
     7
100
AcDbCircle
 10
1525.760986
 20
506.510925
 30
0.0
 40
11.5
  0
CIRCLE
  5
272
100
AcDbEntity
  8
001
  6
CONTINUOUS
 62
     7
100
AcDbCircle
 10
1394.239014
 20
506.510925
 30
0.0
 40
11.5
  0
CIRCLE
  5
273
100
AcDbEntity
  8
001
  6
CONTINUOUS
 62
     7
100
AcDbCircle
 10
1394.239014
 20
374.989075
 30
0.0
 40
11.5
  0
CIRCLE
  5
274
100
AcDbEntity
  8
001
  6
CONTINUOUS
 62
     7
100
AcDbCircle
 10
1525.760986
 20
374.989075
 30
0.0
 40
11.5
  0
ARC
  5
275
100
AcDbEntity
  8
001
  6
CONTINUOUS
 62
     7
100
AcDbCircle
 10
1507.0
 20
332.514166
 30
0.0
 40
2.0
100
AcDbArc
 50
113.47291
 51
180.000177
  0
ARC
  5
276
100
AcDbEntity
  8
001
  6
CONTINUOUS
 62
     7
100
AcDbCircle
 10
1460.0
 20
440.75002
 30
0.0
 40
116.0
100
AcDbArc
 50
293.472253
 51
246.527747
  0
ARC
  5
277
100
AcDbEntity
  8
001
  6
CONTINUOUS
 62
     7
100
AcDbCircle
 10
1413.0
 20
332.514166
 30
0.0
 40
2.0
100
AcDbArc
 50
0.0
 51
66.52709
  0
CIRCLE
  5
278
100
AcDbEntity
  8
001
  6
CONTINUOUS
 62
     7
100
AcDbCircle
 10
1460.0
 20
440.75
 30
0.0
 40
50.0
  0
CIRCLE
  5
279
100
AcDbEntity
  8
001
  6
CONTINUOUS
 62
     7
100
AcDbCircle
 10
1460.0
 20
440.75
 30
0.0
 40
60.75
  0
CIRCLE
  5
27A
100
AcDbEntity
  8
001
  6
CONTINUOUS
 62
     7
100
AcDbCircle
 10
1460.0
 20
440.75
 30
0.0
 40
65.25
  0
CIRCLE
  5
27B
100
AcDbEntity
  8
001
  6
CONTINUOUS
 62
     7
100
AcDbCircle
 10
1460.0
 20
440.75
 30
0.0
 40
76.0
  0
LINE
  5
27C
100
AcDbEntity
  8
001
  6
DASHDOT
 62
     1
100
AcDbLine
 10
1450.995361
 20
732.75
 30
0.0
 11
1432.5
 21
732.75
 31
0.0
  0
LINE
  5
27D
100
AcDbEntity
  8
001
  6
DASHDOT
 62
     1
100
AcDbLine
 10
1554.5
 20
644.23053
 30
0.0
 11
1554.5
 21
574.900574
 31
0.0
  0
LINE
  5
27E
100
AcDbEntity
  8
001
  6
DASHDOT
 62
     1
100
AcDbLine
 10
1365.5
 20
644.23053
 30
0.0
 11
1365.5
 21
574.900574
 31
0.0
  0
LINE
  5
27F
100
AcDbEntity
  8
001
  6
DASHDOT
 62
     1
100
AcDbLine
 10
889.0
 20
1292.115356
 30
0.0
 11
889.0
 21
1047.639404
 31
0.0
  0
LINE
  5
280
100
AcDbEntity
  8
001
  6
DASHDOT
 62
     1
100
AcDbLine
 10
967.415649
 20
1125.229736
 30
0.0
 11
934.618713
 21
1128.884888
 31
0.0
  0
ARC
  5
281
100
AcDbEntity
  8
001
  6
DASHDOT
 62
     1
100
AcDbCircle
 10
902.159258
 20
1126.929667
 30
0.0
 40
48.5
100
AcDbArc
 50
340.639406
 51
352.746443
  0
ARC
  5
282
100
AcDbEntity
  8
001
  6
DASHDOT
 62
     1
100
AcDbCircle
 10
549.999888
 20
1171.749059
 30
0.0
 40
403.5
100
AcDbArc
 50
352.746887
 51
355.983975
  0
LINE
  5
283
100
AcDbEntity
  8
001
  6
DASHDOT
 62
     1
100
AcDbLine
 10
967.415649
 20
1218.270264
 30
0.0
 11
934.618713
 21
1214.615112
 31
0.0
  0
ARC
  5
284
100
AcDbEntity
  8
001
  6
DASHDOT
 62
     1
100
AcDbCircle
 10
549.999888
 20
1171.750941
 30
0.0
 40
403.5
100
AcDbArc
 50
4.016025
 51
7.253113
  0
ARC
  5
285
100
AcDbEntity
  8
001
  6
DASHDOT
 62
     1
100
AcDbCircle
 10
888.999969
 20
1199.749979
 30
0.0
 40
122.5
100
AcDbArc
 50
262.276756
 51
277.723244
  0
ARC
  5
286
100
AcDbEntity
  8
001
  6
DASHDOT
 62
     1
100
AcDbCircle
 10
902.159258
 20
1216.570333
 30
0.0
 40
48.5
100
AcDbArc
 50
7.253557
 51
19.360594
  0
ARC
  5
287
100
AcDbEntity
  8
001
  6
DASHDOT
 62
     1
100
AcDbCircle
 10
888.999969
 20
1143.750021
 30
0.0
 40
122.5
100
AcDbArc
 50
82.276756
 51
97.723244
  0
LINE
  5
288
100
AcDbEntity
  8
001
  6
DASHDOT
 62
     1
100
AcDbLine
 10
810.58429
 20
1125.229736
 30
0.0
 11
843.381226
 21
1128.884888
 31
0.0
  0
ARC
  5
289
100
AcDbEntity
  8
001
  6
DASHDOT
 62
     1
100
AcDbCircle
 10
875.840777
 20
1126.929394
 30
0.0
 40
48.5
100
AcDbArc
 50
187.253232
 51
199.360253
  0
LINE
  5
28A
100
AcDbEntity
  8
001
  6
DASHDOT
 62
     1
100
AcDbLine
 10
810.58429
 20
1218.270264
 30
0.0
 11
843.381226
 21
1214.615112
 31
0.0
  0
ARC
  5
28B
100
AcDbEntity
  8
001
  6
DASHDOT
 62
     1
100
AcDbCircle
 10
1227.999976
 20
1171.749871
 30
0.0
 40
403.5
100
AcDbArc
 50
172.746734
 51
175.983823
  0
ARC
  5
28C
100
AcDbEntity
  8
001
  6
DASHDOT
 62
     1
100
AcDbCircle
 10
875.840801
 20
1216.570675
 30
0.0
 40
48.5
100
AcDbArc
 50
160.639834
 51
172.746996
  0
LINE
  5
28D
100
AcDbEntity
  8
001
  6
DASHDOT
 62
     1
100
AcDbLine
 10
881.067261
 20
732.75
 30
0.0
 11
896.853333
 21
732.75
 31
0.0
  0
LINE
  5
28E
100
AcDbEntity
  8
001
  6
DASHDOT
 62
     1
100
AcDbLine
 10
1504.692749
 20
644.23053
 30
0.0
 11
1504.692749
 21
574.900574
 31
0.0
  0
LINE
  5
28F
100
AcDbEntity
  8
001
  6
DASHDOT
 62
     1
100
AcDbLine
 10
1415.307251
 20
644.23053
 30
0.0
 11
1415.307251
 21
574.900574
 31
0.0
  0
LINE
  5
290
100
AcDbEntity
  8
001
  6
DASHDOT
 62
     1
100
AcDbLine
 10
951.017212
 20
644.828735
 30
0.0
 11
951.017212
 21
574.572388
 31
0.0
  0
LINE
  5
291
100
AcDbEntity
  8
001
  6
DASHDOT
 62
     1
100
AcDbLine
 10
826.982727
 20
644.828735
 30
0.0
 11
826.982727
 21
574.572388
 31
0.0
  0
LINE
  5
292
100
AcDbEntity
  8
001
  6
DASHDOT
 62
     1
100
AcDbLine
 10
1460.0
 20
826.346619
 30
0.0
 11
1460.0
 21
299.75
 31
0.0
  0
LINE
  5
293
100
AcDbEntity
  8
001
  6
DASHDOT
 62
     1
100
AcDbLine
 10
889.0
 20
826.346619
 30
0.0
 11
889.0
 21
365.944824
 31
0.0
  0
LINE
  5
294
100
AcDbEntity
  8
001
  6
DASHDOT
 62
     1
100
AcDbLine
 10
1119.0
 20
1171.75
 30
0.0
 11
339.0
 21
1171.75
 31
0.0
  0
LINE
  5
295
100
AcDbEntity
  8
001
  6
DASHDOT
 62
     1
100
AcDbLine
 10
1601.0
 20
440.75
 30
0.0
 11
1319.0
 21
440.75
 31
0.0
  0
LINE
  5
296
100
AcDbEntity
  8
001
  6
DASHDOT
 62
     1
100
AcDbLine
 10
339.0
 20
440.75
 30
0.0
 11
1119.0
 21
440.75
 31
0.0
  0
LINE
  5
297
100
AcDbEntity
  8
001
  6
DASHDOT
 62
     1
100
AcDbLine
 10
1062.5
 20
533.75
 30
0.0
 11
1106.5
 21
533.75
 31
0.0
  0
LINE
  5
298
100
AcDbEntity
  8
001
  6
DASHDOT
 62
     1
100
AcDbLine
 10
1062.5
 20
347.75
 30
0.0
 11
1106.5
 21
347.75
 31
0.0
  0
LINE
  5
299
100
AcDbEntity
  8
001
  6
DASHDOT
 62
     1
100
AcDbLine
 10
1062.5
 20
1264.75
 30
0.0
 11
1106.5
 21
1264.75
 31
0.0
  0
LINE
  5
29A
100
AcDbEntity
  8
001
  6
DASHDOT
 62
     1
100
AcDbLine
 10
1062.5
 20
1078.75
 30
0.0
 11
1106.5
 21
1078.75
 31
0.0
  0
CIRCLE
  5
29B
100
AcDbEntity
  8
001
  6
DASHDOT
 62
     1
100
AcDbCircle
 10
1460.0
 20
440.75
 30
0.0
 40
93.0
  0
LINE
  5
29C
100
AcDbEntity
  8
001
  6
DASHDOT
 62
     1
100
AcDbLine
 10
1513.209839
 20
493.959778
 30
0.0
 11
1538.312134
 21
519.062073
 31
0.0
  0
LINE
  5
29D
100
AcDbEntity
  8
001
  6
DASHDOT
 62
     1
100
AcDbLine
 10
1406.790161
 20
493.959778
 30
0.0
 11
1381.687866
 21
519.062073
 31
0.0
  0
LINE
  5
29E
100
AcDbEntity
  8
001
  6
DASHDOT
 62
     1
100
AcDbLine
 10
1406.790161
 20
387.540222
 30
0.0
 11
1381.687866
 21
362.437927
 31
0.0
  0
LINE
  5
29F
100
AcDbEntity
  8
001
  6
DASHDOT
 62
     1
100
AcDbLine
 10
1513.209839
 20
387.540222
 30
0.0
 11
1538.312134
 21
362.437927
 31
0.0
  0
CIRCLE
  5
2A0
100
AcDbEntity
  8
001
  6
CONTINUOUS
 62
     1
100
AcDbCircle
 10
889.0
 20
1266.25
 30
0.0
 40
5.055
  0
CIRCLE
  5
2A1
100
AcDbEntity
  8
001
  6
CONTINUOUS
 62
     1
100
AcDbCircle
 10
951.017212
 20
1216.442749
 30
0.0
 40
5.055
  0
CIRCLE
  5
2A2
100
AcDbEntity
  8
001
  6
CONTINUOUS
 62
     1
100
AcDbCircle
 10
951.017212
 20
1127.057251
 30
0.0
 40
5.055
  0
CIRCLE
  5
2A3
100
AcDbEntity
  8
001
  6
CONTINUOUS
 62
     1
100
AcDbCircle
 10
889.0
 20
1077.25
 30
0.0
 40
5.055
  0
ARC
  5
2A4
100
AcDbEntity
  8
001
  6
DASHDOT
 62
     1
100
AcDbCircle
 10
1227.999976
 20
1171.750129
 30
0.0
 40
403.5
100
AcDbArc
 50
184.016177
 51
187.253266
  0
CIRCLE
  5
2A5
100
AcDbEntity
  8
001
  6
CONTINUOUS
 62
     1
100
AcDbCircle
 10
826.982727
 20
1127.057251
 30
0.0
 40
5.055
  0
CIRCLE
  5
2A6
100
AcDbEntity
  8
001
  6
CONTINUOUS
 62
     1
100
AcDbCircle
 10
826.982727
 20
1216.442749
 30
0.0
 40
5.055
  0
LINE
  5
2A7
100
AcDbEntity
  8
001
  6
CONTINUOUS
 62
     1
100
AcDbLine
 10
905.75
 20
755.75
 30
0.0
 11
889.0
 21
780.75
 31
0.0
  0
LINE
  5
2A8
100
AcDbEntity
  8
001
  6
CONTINUOUS
 62
     1
100
AcDbLine
 10
905.75
 20
805.75
 30
0.0
 11
889.0
 21
780.75
 31
0.0
  0
CIRCLE
  5
2A9
100
AcDbEntity
  8
001
  6
CONTINUOUS
 62
     1
100
AcDbCircle
 10
889.0
 20
732.75
 30
0.0
 40
4.19
  0
LINE
  5
2AA
100
AcDbEntity
  8
001
  6
CONTINUOUS
 62
     1
100
AcDbLine
 10
894.054932
 20
630.800049
 30
0.0
 11
894.054932
 21
637.078247
 31
0.0
  0
LINE
  5
2AB
100
AcDbEntity
  8
001
  6
CONTINUOUS
 62
     1
100
AcDbLine
 10
883.945068
 20
630.800049
 30
0.0
 11
883.945068
 21
637.078247
 31
0.0
  0
LINE
  5
2AC
100
AcDbEntity
  8
001
  6
CONTINUOUS
 62
     1
100
AcDbLine
 10
821.927795
 20
630.800049
 30
0.0
 11
821.927795
 21
637.078247
 31
0.0
  0
LINE
  5
2AD
100
AcDbEntity
  8
001
  6
CONTINUOUS
 62
     1
100
AcDbLine
 10
832.037659
 20
630.800049
 30
0.0
 11
832.037659
 21
637.078247
 31
0.0
  0
LINE
  5
2AE
100
AcDbEntity
  8
001
  6
CONTINUOUS
 62
     1
100
AcDbLine
 10
956.072144
 20
630.800049
 30
0.0
 11
956.072144
 21
637.078247
 31
0.0
  0
LINE
  5
2AF
100
AcDbEntity
  8
001
  6
CONTINUOUS
 62
     1
100
AcDbLine
 10
945.96228
 20
630.800049
 30
0.0
 11
945.96228
 21
637.078247
 31
0.0
  0
LINE
  5
2B0
100
AcDbEntity
  8
001
  6
CONTINUOUS
 62
     1
100
AcDbLine
 10
1559.554932
 20
630.800049
 30
0.0
 11
1559.554932
 21
637.078247
 31
0.0
  0
LINE
  5
2B1
100
AcDbEntity
  8
001
  6
CONTINUOUS
 62
     1
100
AcDbLine
 10
1549.445068
 20
630.800049
 30
0.0
 11
1549.445068
 21
637.078247
 31
0.0
  0
LINE
  5
2B2
100
AcDbEntity
  8
001
  6
CONTINUOUS
 62
     1
100
AcDbLine
 10
1509.747559
 20
630.800049
 30
0.0
 11
1509.747559
 21
637.078247
 31
0.0
  0
LINE
  5
2B3
100
AcDbEntity
  8
001
  6
CONTINUOUS
 62
     1
100
AcDbLine
 10
1499.637695
 20
630.800049
 30
0.0
 11
1499.637695
 21
637.078247
 31
0.0
  0
LINE
  5
2B4
100
AcDbEntity
  8
001
  6
CONTINUOUS
 62
     1
100
AcDbLine
 10
1420.362183
 20
630.800049
 30
0.0
 11
1420.362183
 21
637.078247
 31
0.0
  0
LINE
  5
2B5
100
AcDbEntity
  8
001
  6
CONTINUOUS
 62
     1
100
AcDbLine
 10
1410.252319
 20
630.800049
 30
0.0
 11
1410.252319
 21
637.078247
 31
0.0
  0
LINE
  5
2B6
100
AcDbEntity
  8
001
  6
CONTINUOUS
 62
     1
100
AcDbLine
 10
1370.554932
 20
630.800049
 30
0.0
 11
1370.554932
 21
637.078247
 31
0.0
  0
LINE
  5
2B7
100
AcDbEntity
  8
001
  6
CONTINUOUS
 62
     1
100
AcDbLine
 10
1360.445068
 20
630.800049
 30
0.0
 11
1360.445068
 21
637.078247
 31
0.0
  0
LINE
  5
2B9
100
AcDbEntity
  8
001
  6
CONTINUOUS
 62
     1
100
AcDbLine
 10
1460.0
 20
780.75
 30
0.0
 11
1443.25
 21
755.75
 31
0.0
  0
TEXT
  5
2BA
100
AcDbEntity
  8
001
 62
     3
100
AcDbText
 10
1640.0
 20
145.0
 30
0.0
 40
22.5
  1
ＪＷＷＡ　Ｂ　１２０準拠　%%c１００
 41
0.670045
 72
     5
 11
1937.5
 21
145.0
 31
0.0
100
AcDbText
  0
TEXT
  5
2BB
100
AcDbEntity
  8
001
 62
     3
100
AcDbText
 10
1640.0
 20
115.0
 30
0.0
 40
25.0
  1
浅層埋設対応型　ソフトシール仕切弁
 41
0.675497
 72
     5
 11
1980.0
 21
115.0
 31
0.0
100
AcDbText
  0
TEXT
  5
2BC
100
AcDbEntity
  8
001
 62
     3
100
AcDbText
 10
1640.0
 20
90.0
 30
0.0
 40
20.0
  1
Ｋ形受挿し
 41
0.78125
 72
     5
 11
1727.5
 21
90.0
 31
0.0
100
AcDbText
  0
LINE
  5
2BF
100
AcDbEntity
  8
001
  6
CONTINUOUS
 62
     7
100
AcDbLine
 10
864.0
 20
753.75
 30
0.0
 11
864.0
 21
720.75
 31
0.0
  0
LINE
  5
2C0
100
AcDbEntity
  8
001
  6
CONTINUOUS
 62
     7
100
AcDbLine
 10
914.0
 20
753.75
 30
0.0
 11
914.0
 21
720.75
 31
0.0
  0
LINE
  5
2C1
100
AcDbEntity
  8
001
  6
CONTINUOUS
 62
     7
100
AcDbLine
 10
905.75
 20
805.75
 30
0.0
 11
908.044978
 21
754.75
 31
0.0
  0
LINE
  5
2C5
100
AcDbEntity
  8
001
  6
CONTINUOUS
 62
     7
100
AcDbLine
 10
1435.0
 20
753.75
 30
0.0
 11
1435.0
 21
720.75
 31
0.0
  0
LINE
  5
2C6
100
AcDbEntity
  8
001
  6
CONTINUOUS
 62
     7
100
AcDbLine
 10
1485.0
 20
753.75
 30
0.0
 11
1485.0
 21
720.75
 31
0.0
  0
LINE
  5
2C7
100
AcDbEntity
  8
001
  6
CONTINUOUS
 62
     7
100
AcDbLine
 10
1443.25
 20
805.75
 30
0.0
 11
1440.954957
 21
754.75
 31
0.0
  0
LINE
  5
2CB
100
AcDbEntity
  8
001
  6
CONTINUOUS
 62
     7
100
AcDbLine
 10
872.25
 20
1190.75
 30
0.0
 11
905.75
 21
1190.75
 31
0.0
  0
LINE
  5
2CC
100
AcDbEntity
  8
001
  6
CONTINUOUS
 62
     7
100
AcDbLine
 10
905.75
 20
1152.75
 30
0.0
 11
872.25
 21
1152.75
 31
0.0
  0
LINE
  5
2CD
100
AcDbEntity
  8
001
  6
CONTINUOUS
 62
     7
100
AcDbLine
 10
870.0
 20
1188.5
 30
0.0
 11
908.0
 21
1188.5
 31
0.0
  0
LINE
  5
2CE
100
AcDbEntity
  8
001
  6
CONTINUOUS
 62
     7
100
AcDbLine
 10
908.0
 20
1155.0
 30
0.0
 11
870.0
 21
1155.0
 31
0.0
  0
LINE
  5
2CF
100
AcDbEntity
  8
001
  6
CONTINUOUS
 62
     7
100
AcDbLine
 10
908.0
 20
1155.0
 30
0.0
 11
908.0
 21
1188.5
 31
0.0
  0
LINE
  5
2D0
100
AcDbEntity
  8
001
  6
CONTINUOUS
 62
     7
100
AcDbLine
 10
870.0
 20
1155.0
 30
0.0
 11
870.0
 21
1188.5
 31
0.0
  0
LINE
  5
2D1
100
AcDbEntity
  8
001
  6
CONTINUOUS
 62
     7
100
AcDbLine
 10
905.75
 20
1152.75
 30
0.0
 11
905.75
 21
1190.75
 31
0.0
  0
LINE
  5
2D2
100
AcDbEntity
  8
001
  6
CONTINUOUS
 62
     7
100
AcDbLine
 10
872.25
 20
1152.75
 30
0.0
 11
872.25
 21
1190.75
 31
0.0
  0
LINE
  5
2D3
100
AcDbEntity
  8
001
  6
CONTINUOUS
 62
     7
100
AcDbLine
 10
870.0
 20
1155.0
 30
0.0
 11
872.25
 21
1152.75
 31
0.0
  0
LINE
  5
2D4
100
AcDbEntity
  8
001
  6
CONTINUOUS
 62
     7
100
AcDbLine
 10
905.75
 20
1152.75
 30
0.0
 11
908.0
 21
1155.0
 31
0.0
  0
LINE
  5
2D5
100
AcDbEntity
  8
001
  6
CONTINUOUS
 62
     7
100
AcDbLine
 10
908.0
 20
1188.5
 30
0.0
 11
905.75
 21
1190.75
 31
0.0
  0
LINE
  5
2D6
100
AcDbEntity
  8
001
  6
CONTINUOUS
 62
     7
100
AcDbLine
 10
872.25
 20
1190.75
 30
0.0
 11
870.0
 21
1188.5
 31
0.0
  0
CIRCLE
  5
2D7
100
AcDbEntity
  8
001
  6
CONTINUOUS
 62
     7
100
AcDbCircle
 10
889.0
 20
1171.75
 30
0.0
 40
40.0
  0
ARC
  5
2D8
100
AcDbEntity
  8
001
  6
CONTINUOUS
 62
     7
100
AcDbCircle
 10
888.999968
 20
1171.750068
 30
0.0
 40
35.0
100
AcDbArc
 50
315.000029
 51
59.584416
  0
LINE
  5
2D9
100
AcDbEntity
  8
001
  6
CONTINUOUS
 62
     7
100
AcDbLine
 10
913.748779
 20
1147.001343
 30
0.0
 11
917.284241
 21
1143.46582
 31
0.0
  0
ARC
  5
2DA
100
AcDbEntity
  8
001
  6
CONTINUOUS
 62
     7
100
AcDbCircle
 10
889.000061
 20
1139.250122
 30
0.0
 40
4.5
100
AcDbArc
 50
180.0
 51
0.0
  0
ARC
  5
2DB
100
AcDbEntity
  8
001
  6
CONTINUOUS
 62
     7
100
AcDbCircle
 10
889.000061
 20
1145.250122
 30
0.0
 40
4.5
100
AcDbArc
 50
0.0
 51
180.0
  0
LINE
  5
2DC
100
AcDbEntity
  8
001
  6
CONTINUOUS
 62
     7
100
AcDbLine
 10
884.500061
 20
1139.250122
 30
0.0
 11
884.500061
 21
1145.250122
 31
0.0
  0
LINE
  5
2DD
100
AcDbEntity
  8
001
  6
CONTINUOUS
 62
     7
100
AcDbLine
 10
893.500061
 20
1139.250122
 30
0.0
 11
893.500061
 21
1145.250122
 31
0.0
  0
ARC
  5
2DE
100
AcDbEntity
  8
001
  6
CONTINUOUS
 62
     7
100
AcDbCircle
 10
889.000061
 20
1145.250122
 30
0.0
 40
2.5
100
AcDbArc
 50
0.0
 51
180.0
  0
LINE
  5
2DF
100
AcDbEntity
  8
001
  6
CONTINUOUS
 62
     7
100
AcDbLine
 10
886.500061
 20
1145.250122
 30
0.0
 11
886.500061
 21
1139.250122
 31
0.0
  0
ARC
  5
2E0
100
AcDbEntity
  8
001
  6
CONTINUOUS
 62
     7
100
AcDbCircle
 10
889.000061
 20
1139.250122
 30
0.0
 40
2.5
100
AcDbArc
 50
180.0
 51
0.0
  0
LINE
  5
2E1
100
AcDbEntity
  8
001
  6
CONTINUOUS
 62
     7
100
AcDbLine
 10
891.500061
 20
1139.250122
 30
0.0
 11
891.500061
 21
1145.250122
 31
0.0
  0
ARC
  5
2E2
100
AcDbEntity
  8
001
  6
CONTINUOUS
 62
     7
100
AcDbCircle
 10
888.999979
 20
1171.750082
 30
0.0
 40
35.0
100
AcDbArc
 50
104.999944
 51
209.584525
  0
LINE
  5
2E3
100
AcDbEntity
  8
001
  6
CONTINUOUS
 62
     7
100
AcDbLine
 10
864.598022
 20
1157.954712
 30
0.0
 11
860.715759
 21
1143.46582
 31
0.0
  0
LINE
  5
2E4
100
AcDbEntity
  8
001
  6
CONTINUOUS
 62
     7
100
AcDbLine
 10
864.598022
 20
1157.954712
 30
0.0
 11
858.563049
 21
1154.470337
 31
0.0
  0
LINE
  5
2E5
100
AcDbEntity
  8
001
  6
CONTINUOUS
 62
     7
100
AcDbLine
 10
879.941284
 20
1205.557495
 30
0.0
 11
878.647278
 21
1210.387085
 31
0.0
  0
LINE
  5
2E6
100
AcDbEntity
  8
001
  6
CONTINUOUS
 62
     7
100
AcDbLine
 10
903.235107
 20
1195.898193
 30
0.0
 11
899.352783
 21
1210.387085
 31
0.0
  0
LINE
  5
2E7
100
AcDbEntity
  8
001
  6
CONTINUOUS
 62
     7
100
AcDbLine
 10
903.235107
 20
1195.898193
 30
0.0
 11
906.719421
 21
1201.933228
 31
0.0
  0
ARC
  5
2E8
100
AcDbEntity
  8
001
  6
CONTINUOUS
 62
     7
100
AcDbCircle
 10
866.360222
 20
1212.613266
 30
0.0
 40
10.215787
100
AcDbArc
 50
224.999729
 51
254.999318
  0
ARC
  5
2E9
100
AcDbEntity
  8
001
  6
CONTINUOUS
 62
     7
100
AcDbCircle
 10
911.639812
 20
1212.613207
 30
0.0
 40
10.21572
100
AcDbArc
 50
285.000581
 51
314.999403
  0
ARC
  5
2EA
100
AcDbEntity
  8
001
  6
CONTINUOUS
 62
     7
100
AcDbCircle
 10
911.63988
 20
1130.886789
 30
0.0
 40
10.215675
100
AcDbArc
 50
45.000884
 51
75.000454
  0
ARC
  5
2EB
100
AcDbEntity
  8
001
  6
CONTINUOUS
 62
     7
100
AcDbCircle
 10
866.360238
 20
1130.886751
 30
0.0
 40
10.215742
100
AcDbArc
 50
105.00013
 51
135.000161
  0
LINE
  5
2ED
100
AcDbEntity
  8
001
  6
CONTINUOUS
 62
     7
100
AcDbLine
 10
865.0
 20
754.75
 30
0.0
 11
913.0
 21
754.75
 31
0.0
  0
LINE
  5
2F6
100
AcDbEntity
  8
001
  6
CONTINUOUS
 62
     7
100
AcDbLine
 10
903.75
 20
755.75
 30
0.0
 11
889.0
 21
755.75
 31
0.0
  0
LINE
  5
2FA
100
AcDbEntity
  8
001
  6
CONTINUOUS
 62
     7
100
AcDbLine
 10
1436.0
 20
754.75
 30
0.0
 11
1484.0
 21
754.75
 31
0.0
  0
LINE
  5
303
100
AcDbEntity
  8
001
  6
CONTINUOUS
 62
     7
100
AcDbLine
 10
1460.0
 20
755.75
 30
0.0
 11
1445.25
 21
755.75
 31
0.0
  0
ARC
  5
359
100
AcDbEntity
  8
001
  6
CONTINUOUS
 62
     7
100
AcDbCircle
 10
1436.0
 20
753.75
 30
0.0
 40
1.0
100
AcDbArc
 50
90.0
 51
180.0
  0
ARC
  5
35A
100
AcDbEntity
  8
001
  6
CONTINUOUS
 62
     7
100
AcDbCircle
 10
1484.0
 20
753.75
 30
0.0
 40
1.0
100
AcDbArc
 50
0.0
 51
90.0
  0
LINE
  5
35B
100
AcDbEntity
  8
001
  6
CONTINUOUS
 62
     1
100
AcDbLine
 10
1460.0
 20
780.75
 30
0.0
 11
1443.25
 21
805.75
 31
0.0
  0
INSERT
  5
35C
100
AcDbEntity
  8
0
  6
CONTINUOUS
100
AcDbBlockReference
  2
A$C4D0D3218
 10
859.0
 20
749.106109
 30
0.0
  0
INSERT
  5
35D
100
AcDbEntity
  8
0
  6
CONTINUOUS
100
AcDbBlockReference
  2
A$C4D0D3218
 10
1490.0
 20
749.106109
 30
0.0
 41
-1.0
  0
ARC
  5
35E
100
AcDbEntity
  8
001
  6
CONTINUOUS
 62
     7
100
AcDbCircle
 10
913.0
 20
753.75
 30
0.0
 40
1.0
100
AcDbArc
 50
0.0
 51
90.0
  0
ARC
  5
35F
100
AcDbEntity
  8
001
  6
CONTINUOUS
 62
     7
100
AcDbCircle
 10
865.0
 20
753.75
 30
0.0
 40
1.0
100
AcDbArc
 50
90.0
 51
180.0
  0
ENDSEC
  0
SECTION
  2
OBJECTS
  0
DICTIONARY
  5
C
100
AcDbDictionary
  3
ACAD_GROUP
350
D
  3
ACAD_MLINESTYLE
350
1B
  0
DICTIONARY
  5
D
102
{ACAD_REACTORS
330
C
102
}
100
AcDbDictionary
  0
DICTIONARY
  5
1B
102
{ACAD_REACTORS
330
C
102
}
100
AcDbDictionary
  3
STANDARD
350
1C
  0
MLINESTYLE
  5
1C
102
{ACAD_REACTORS
330
1B
102
}
100
AcDbMlineStyle
  2
STANDARD
 70
     0
  3

 62
   256
 51
90.0
 52
90.0
 71
     2
 49
0.5
 62
   256
  6
BYLAYER
 49
-0.5
 62
   256
  6
BYLAYER
  0
ENDSEC
  0
EOF
