  0
SECTION
  2
HEADER
  9
$ACADVER
  1
AC1014
  9
$ACADMAINTVER
 70
     0
  9
$DWGCODEPAGE
  3
ANSI_932
  9
$INSBASE
 10
0.0
 20
0.0
 30
0.0
  9
$EXTMIN
 10
307.478424
 20
50.0
 30
0.0
  9
$EXTMAX
 10
2025.0
 20
1387.214355
 30
0.0
  9
$LIMMIN
 10
-0.000001
 20
-0.000003
  9
$LIMMAX
 10
2099.999999
 20
1484.999997
  9
$ORTHOMODE
 70
     1
  9
$REGENMODE
 70
     1
  9
$FILLMODE
 70
     1
  9
$QTEXTMODE
 70
     0
  9
$MIRRTEXT
 70
     1
  9
$DRAGMODE
 70
     2
  9
$LTSCALE
 40
42.0
  9
$OSMODE
 70
     0
  9
$ATTMODE
 70
     1
  9
$TEXTSIZE
 40
0.2
  9
$TRACEWID
 40
0.05
  9
$TEXTSTYLE
  7
STANDARD
  9
$CLAYER
  8
0
  9
$CELTYPE
  6
CONTINUOUS
  9
$CECOLOR
 62
   256
  9
$CELTSCALE
 40
1.0
  9
$DELOBJ
 70
     1
  9
$DISPSILH
 70
     0
  9
$DIMSCALE
 40
1.0
  9
$DIMASZ
 40
0.18
  9
$DIMEXO
 40
0.0625
  9
$DIMDLI
 40
0.38
  9
$DIMRND
 40
0.0
  9
$DIMDLE
 40
0.0
  9
$DIMEXE
 40
0.18
  9
$DIMTP
 40
0.0
  9
$DIMTM
 40
0.0
  9
$DIMTXT
 40
0.18
  9
$DIMCEN
 40
0.09
  9
$DIMTSZ
 40
0.0
  9
$DIMTOL
 70
     0
  9
$DIMLIM
 70
     0
  9
$DIMTIH
 70
     1
  9
$DIMTOH
 70
     1
  9
$DIMSE1
 70
     0
  9
$DIMSE2
 70
     0
  9
$DIMTAD
 70
     0
  9
$DIMZIN
 70
     0
  9
$DIMBLK
  1

  9
$DIMASO
 70
     1
  9
$DIMSHO
 70
     1
  9
$DIMPOST
  1

  9
$DIMAPOST
  1

  9
$DIMALT
 70
     0
  9
$DIMALTD
 70
     2
  9
$DIMALTF
 40
25.4
  9
$DIMLFAC
 40
1.0
  9
$DIMTOFL
 70
     0
  9
$DIMTVP
 40
0.0
  9
$DIMTIX
 70
     0
  9
$DIMSOXD
 70
     0
  9
$DIMSAH
 70
     0
  9
$DIMBLK1
  1

  9
$DIMBLK2
  1

  9
$DIMSTYLE
  2
STANDARD
  9
$DIMCLRD
 70
     0
  9
$DIMCLRE
 70
     0
  9
$DIMCLRT
 70
     0
  9
$DIMTFAC
 40
1.0
  9
$DIMGAP
 40
0.09
  9
$DIMJUST
 70
     0
  9
$DIMSD1
 70
     0
  9
$DIMSD2
 70
     0
  9
$DIMTOLJ
 70
     1
  9
$DIMTZIN
 70
     0
  9
$DIMALTZ
 70
     0
  9
$DIMALTTZ
 70
     0
  9
$DIMFIT
 70
     3
  9
$DIMUPT
 70
     0
  9
$DIMUNIT
 70
     2
  9
$DIMDEC
 70
     4
  9
$DIMTDEC
 70
     4
  9
$DIMALTU
 70
     2
  9
$DIMALTTD
 70
     2
  9
$DIMTXSTY
  7
STANDARD
  9
$DIMAUNIT
 70
     0
  9
$LUNITS
 70
     2
  9
$LUPREC
 70
     4
  9
$SKETCHINC
 40
0.1
  9
$FILLETRAD
 40
1.0
  9
$AUNITS
 70
     0
  9
$AUPREC
 70
     0
  9
$MENU
  1
acad
  9
$ELEVATION
 40
0.0
  9
$PELEVATION
 40
0.0
  9
$THICKNESS
 40
0.0
  9
$LIMCHECK
 70
     0
  9
$BLIPMODE
 70
     0
  9
$CHAMFERA
 40
0.0
  9
$CHAMFERB
 40
0.0
  9
$CHAMFERC
 40
0.0
  9
$CHAMFERD
 40
0.0
  9
$SKPOLY
 70
     0
  9
$TDCREATE
 40
0.0000000000
  9
$TDUPDATE
 40
0.0000000000
  9
$TDINDWG
 40
0.0000000000
  9
$TDUSRTIMER
 40
0.0000000000
  9
$USRTIMER
 70
     1
  9
$ANGBASE
 50
0.0
  9
$ANGDIR
 70
     0
  9
$PDMODE
 70
     0
  9
$PDSIZE
 40
0.0
  9
$PLINEWID
 40
0.0
  9
$COORDS
 70
     1
  9
$SPLFRAME
 70
     0
  9
$SPLINETYPE
 70
     6
  9
$SPLINESEGS
 70
     8
  9
$ATTDIA
 70
     0
  9
$ATTREQ
 70
     1
  9
$HANDLING
 70
     1
  9
$HANDSEED
  5
3C3
  9
$SURFTAB1
 70
     6
  9
$SURFTAB2
 70
     6
  9
$SURFTYPE
 70
     6
  9
$SURFU
 70
     6
  9
$SURFV
 70
     6
  9
$UCSNAME
  2

  9
$UCSORG
 10
0.0
 20
0.0
 30
0.0
  9
$UCSXDIR
 10
1.0
 20
0.0
 30
0.0
  9
$UCSYDIR
 10
0.0
 20
1.0
 30
0.0
  9
$PUCSNAME
  2

  9
$PUCSORG
 10
0.0
 20
0.0
 30
0.0
  9
$PUCSXDIR
 10
1.0
 20
0.0
 30
0.0
  9
$PUCSYDIR
 10
0.0
 20
1.0
 30
0.0
  9
$USERI1
 70
     0
  9
$USERI2
 70
     0
  9
$USERI3
 70
     0
  9
$USERI4
 70
     0
  9
$USERI5
 70
     0
  9
$USERR1
 40
0.0
  9
$USERR2
 40
0.0
  9
$USERR3
 40
0.0
  9
$USERR4
 40
0.0
  9
$USERR5
 40
0.0
  9
$WORLDVIEW
 70
     1
  9
$SHADEDGE
 70
     3
  9
$SHADEDIF
 70
    70
  9
$TILEMODE
 70
     1
  9
$MAXACTVP
 70
    48
  9
$PINSBASE
 10
0.0
 20
0.0
 30
0.0
  9
$PLIMCHECK
 70
     0
  9
$PEXTMIN
 10
1.000000E+20
 20
1.000000E+20
 30
1.000000E+20
  9
$PEXTMAX
 10
-1.000000E+20
 20
-1.000000E+20
 30
-1.000000E+20
  9
$PLIMMIN
 10
0.0
 20
0.0
  9
$PLIMMAX
 10
12.0
 20
9.0
  9
$UNITMODE
 70
     0
  9
$VISRETAIN
 70
     1
  9
$PLINEGEN
 70
     0
  9
$PSLTSCALE
 70
     1
  9
$TREEDEPTH
 70
  3020
  9
$PICKSTYLE
 70
     1
  9
$CMLSTYLE
  2
STANDARD
  9
$CMLJUST
 70
     0
  9
$CMLSCALE
 40
1.0
  9
$PROXYGRAPHICS
 70
     1
  9
$MEASUREMENT
 70
     0
  0
ENDSEC
  0
SECTION
  2
CLASSES
  0
CLASS
  1
LWPOLYLINE
  2
AcDbPolyline
  3
"AutoCAD"
 90
        0
280
     0
281
     1
  0
ENDSEC
  0
SECTION
  2
TABLES
  0
TABLE
  2
VPORT
  5
8
100
AcDbSymbolTable
 70
     2
  0
VPORT
  5
3C2
100
AcDbSymbolTableRecord
100
AcDbViewportTableRecord
  2
*ACTIVE
 70
     0
 10
0.0
 20
0.0
 11
1.0
 21
1.0
 12
1280.743493
 22
742.499997
 13
0.0
 23
0.0
 14
1.0
 24
1.0
 15
0.0
 25
0.0
 16
0.0
 26
0.0
 36
1.0
 17
0.0
 27
0.0
 37
0.0
 40
1485.0
 41
1.724907
 42
50.0
 43
0.0
 44
0.0
 50
0.0
 51
0.0
 71
     0
 72
   100
 73
     1
 74
     1
 75
     0
 76
     0
 77
     0
 78
     0
  0
ENDTAB
  0
TABLE
  2
LTYPE
  5
5
100
AcDbSymbolTable
 70
    25
  0
LTYPE
  5
12
100
AcDbSymbolTableRecord
100
AcDbLinetypeTableRecord
  2
BYBLOCK
 70
     0
  3

 72
    65
 73
     0
 40
0.0
  0
LTYPE
  5
13
100
AcDbSymbolTableRecord
100
AcDbLinetypeTableRecord
  2
BYLAYER
 70
     0
  3

 72
    65
 73
     0
 40
0.0
  0
LTYPE
  5
14
100
AcDbSymbolTableRecord
100
AcDbLinetypeTableRecord
  2
CONTINUOUS
 70
     0
  3
Solid line
 72
    65
 73
     0
 40
0.0
  0
LTYPE
  5
1F
100
AcDbSymbolTableRecord
100
AcDbLinetypeTableRecord
  2
BORDER
 70
     0
  3
__ __ . __ __ . __ __ . __ __ . __ __ . __ __ .
 72
    65
 73
     6
 40
1.75
 49
0.5
 74
     0
 49
-0.25
 74
     0
 49
0.5
 74
     0
 49
-0.25
 74
     0
 49
0.0
 74
     0
 49
-0.25
 74
     0
  0
LTYPE
  5
20
100
AcDbSymbolTableRecord
100
AcDbLinetypeTableRecord
  2
BORDER2
 70
     0
  3
__.__.__.__.__.__.__.__.__.__.__.__.__.__.__.__
 72
    65
 73
     6
 40
0.875
 49
0.25
 74
     0
 49
-0.125
 74
     0
 49
0.25
 74
     0
 49
-0.125
 74
     0
 49
0.0
 74
     0
 49
-0.125
 74
     0
  0
LTYPE
  5
21
100
AcDbSymbolTableRecord
100
AcDbLinetypeTableRecord
  2
BORDERX2
 70
     0
  3
____  ____  .  ____  ____  .  ____  ____  .  __
 72
    65
 73
     6
 40
3.5
 49
1.0
 74
     0
 49
-0.5
 74
     0
 49
1.0
 74
     0
 49
-0.5
 74
     0
 49
0.0
 74
     0
 49
-0.5
 74
     0
  0
LTYPE
  5
22
100
AcDbSymbolTableRecord
100
AcDbLinetypeTableRecord
  2
CENTER
 70
     0
  3
____ _ ____ _ ____ _ ____ _ ____ _ ____ _ ____ 
 72
    65
 73
     4
 40
2.0
 49
1.25
 74
     0
 49
-0.25
 74
     0
 49
0.25
 74
     0
 49
-0.25
 74
     0
  0
LTYPE
  5
23
100
AcDbSymbolTableRecord
100
AcDbLinetypeTableRecord
  2
CENTER2
 70
     0
  3
___ _ ___ _ ___ _ ___ _ ___ _ ___ _ ___ _ ___ _
 72
    65
 73
     4
 40
1.125
 49
0.75
 74
     0
 49
-0.125
 74
     0
 49
0.125
 74
     0
 49
-0.125
 74
     0
  0
LTYPE
  5
24
100
AcDbSymbolTableRecord
100
AcDbLinetypeTableRecord
  2
CENTERX2
 70
     0
  3
________  __  ________  __  ________  __  _____
 72
    65
 73
     4
 40
4.0
 49
2.5
 74
     0
 49
-0.5
 74
     0
 49
0.5
 74
     0
 49
-0.5
 74
     0
  0
LTYPE
  5
25
100
AcDbSymbolTableRecord
100
AcDbLinetypeTableRecord
  2
DASHDOT
 70
     0
  3
__ . __ . __ . __ . __ . __ . __ . __ . __ . __
 72
    65
 73
     4
 40
1.0
 49
0.5
 74
     0
 49
-0.25
 74
     0
 49
0.0
 74
     0
 49
-0.25
 74
     0
  0
LTYPE
  5
26
100
AcDbSymbolTableRecord
100
AcDbLinetypeTableRecord
  2
DASHDOT2
 70
     0
  3
_._._._._._._._._._._._._._._._._._._._._._._._
 72
    65
 73
     4
 40
0.5
 49
0.25
 74
     0
 49
-0.125
 74
     0
 49
0.0
 74
     0
 49
-0.125
 74
     0
  0
LTYPE
  5
27
100
AcDbSymbolTableRecord
100
AcDbLinetypeTableRecord
  2
DASHDOTX2
 70
     0
  3
____  .  ____  .  ____  .  ____  .  ____  .  __
 72
    65
 73
     4
 40
2.0
 49
1.0
 74
     0
 49
-0.5
 74
     0
 49
0.0
 74
     0
 49
-0.5
 74
     0
  0
LTYPE
  5
28
100
AcDbSymbolTableRecord
100
AcDbLinetypeTableRecord
  2
DASHED
 70
     0
  3
__ __ __ __ __ __ __ __ __ __ __ __ __ __ __ __
 72
    65
 73
     2
 40
0.75
 49
0.5
 74
     0
 49
-0.25
 74
     0
  0
LTYPE
  5
29
100
AcDbSymbolTableRecord
100
AcDbLinetypeTableRecord
  2
DASHED2
 70
     0
  3
_ _ _ _ _ _ _ _ _ _ _ _ _ _ _ _ _ _ _ _ _ _ _ _
 72
    65
 73
     2
 40
0.375
 49
0.25
 74
     0
 49
-0.125
 74
     0
  0
LTYPE
  5
2A
100
AcDbSymbolTableRecord
100
AcDbLinetypeTableRecord
  2
DASHEDX2
 70
     0
  3
____  ____  ____  ____  ____  ____  ____  ____ 
 72
    65
 73
     2
 40
1.5
 49
1.0
 74
     0
 49
-0.5
 74
     0
  0
LTYPE
  5
2B
100
AcDbSymbolTableRecord
100
AcDbLinetypeTableRecord
  2
DIVIDE
 70
     0
  3
____ . . ____ . . ____ . . ____ . . ____ . . __
 72
    65
 73
     6
 40
1.25
 49
0.5
 74
     0
 49
-0.25
 74
     0
 49
0.0
 74
     0
 49
-0.25
 74
     0
 49
0.0
 74
     0
 49
-0.25
 74
     0
  0
LTYPE
  5
2C
100
AcDbSymbolTableRecord
100
AcDbLinetypeTableRecord
  2
DIVIDE2
 70
     0
  3
__..__..__..__..__..__..__..__..__..__..__..__.
 72
    65
 73
     6
 40
0.625
 49
0.25
 74
     0
 49
-0.125
 74
     0
 49
0.0
 74
     0
 49
-0.125
 74
     0
 49
0.0
 74
     0
 49
-0.125
 74
     0
  0
LTYPE
  5
2D
100
AcDbSymbolTableRecord
100
AcDbLinetypeTableRecord
  2
DIVIDEX2
 70
     0
  3
________  .  .  ________  .  .  ________  .  . 
 72
    65
 73
     6
 40
2.5
 49
1.0
 74
     0
 49
-0.5
 74
     0
 49
0.0
 74
     0
 49
-0.5
 74
     0
 49
0.0
 74
     0
 49
-0.5
 74
     0
  0
LTYPE
  5
2E
100
AcDbSymbolTableRecord
100
AcDbLinetypeTableRecord
  2
DOT
 70
     0
  3
. . . . . . . . . . . . . . . . . . . . . . . .
 72
    65
 73
     2
 40
0.25
 49
0.0
 74
     0
 49
-0.25
 74
     0
  0
LTYPE
  5
2F
100
AcDbSymbolTableRecord
100
AcDbLinetypeTableRecord
  2
DOT2
 70
     0
  3
...............................................
 72
    65
 73
     2
 40
0.125
 49
0.0
 74
     0
 49
-0.125
 74
     0
  0
LTYPE
  5
30
100
AcDbSymbolTableRecord
100
AcDbLinetypeTableRecord
  2
DOTX2
 70
     0
  3
.  .  .  .  .  .  .  .  .  .  .  .  .  .  .  . 
 72
    65
 73
     2
 40
0.5
 49
0.0
 74
     0
 49
-0.5
 74
     0
  0
LTYPE
  5
31
100
AcDbSymbolTableRecord
100
AcDbLinetypeTableRecord
  2
HIDDEN
 70
     0
  3
__ __ __ __ __ __ __ __ __ __ __ __ __ __ __ __
 72
    65
 73
     2
 40
0.375
 49
0.25
 74
     0
 49
-0.125
 74
     0
  0
LTYPE
  5
32
100
AcDbSymbolTableRecord
100
AcDbLinetypeTableRecord
  2
HIDDEN2
 70
     0
  3
_ _ _ _ _ _ _ _ _ _ _ _ _ _ _ _ _ _ _ _ _ _ _ _
 72
    65
 73
     2
 40
0.1875
 49
0.125
 74
     0
 49
-0.0625
 74
     0
  0
LTYPE
  5
33
100
AcDbSymbolTableRecord
100
AcDbLinetypeTableRecord
  2
HIDDENX2
 70
     0
  3
____ ____ ____ ____ ____ ____ ____ ____ ____ __
 72
    65
 73
     2
 40
0.75
 49
0.5
 74
     0
 49
-0.25
 74
     0
  0
LTYPE
  5
34
100
AcDbSymbolTableRecord
100
AcDbLinetypeTableRecord
  2
PHANTOM
 70
     0
  3
______  __  __  ______  __  __  ______  __  __ 
 72
    65
 73
     6
 40
2.5
 49
1.25
 74
     0
 49
-0.25
 74
     0
 49
0.25
 74
     0
 49
-0.25
 74
     0
 49
0.25
 74
     0
 49
-0.25
 74
     0
  0
LTYPE
  5
35
100
AcDbSymbolTableRecord
100
AcDbLinetypeTableRecord
  2
PHANTOM2
 70
     0
  3
___ _ _ ___ _ _ ___ _ _ ___ _ _ ___ _ _ ___ _ _
 72
    65
 73
     6
 40
1.25
 49
0.625
 74
     0
 49
-0.125
 74
     0
 49
0.125
 74
     0
 49
-0.125
 74
     0
 49
0.125
 74
     0
 49
-0.125
 74
     0
  0
LTYPE
  5
36
100
AcDbSymbolTableRecord
100
AcDbLinetypeTableRecord
  2
PHANTOMX2
 70
     0
  3
____________    ____    ____    ____________   
 72
    65
 73
     6
 40
5.0
 49
2.5
 74
     0
 49
-0.5
 74
     0
 49
0.5
 74
     0
 49
-0.5
 74
     0
 49
0.5
 74
     0
 49
-0.5
 74
     0
  0
ENDTAB
  0
TABLE
  2
LAYER
  5
2
100
AcDbSymbolTable
 70
     5
  0
LAYER
  5
E
100
AcDbSymbolTableRecord
100
AcDbLayerTableRecord
  2
0
 70
     0
 62
     7
  6
CONTINUOUS
  0
LAYER
  5
38
100
AcDbSymbolTableRecord
100
AcDbLayerTableRecord
  2
001
 70
     0
 62
     7
  6
CONTINUOUS
  0
LAYER
  5
3A3
100
AcDbSymbolTableRecord
100
AcDbLayerTableRecord
  2
BODY
 70
     0
 62
     7
  6
CONTINUOUS
  0
LAYER
  5
3A4
100
AcDbSymbolTableRecord
100
AcDbLayerTableRecord
  2
SHAFT
 70
     0
 62
     6
  6
CONTINUOUS
  0
LAYER
  5
3A5
100
AcDbSymbolTableRecord
100
AcDbLayerTableRecord
  2
CENTER
 70
     0
 62
   144
  6
CENTER2
  0
ENDTAB
  0
TABLE
  2
STYLE
  5
3
100
AcDbSymbolTable
 70
     2
  0
STYLE
  5
F
100
AcDbSymbolTableRecord
100
AcDbTextStyleTableRecord
  2
STANDARD
 70
     0
 40
0.0
 41
1.0
 50
0.0
 71
     0
 42
0.2
  3
TXT
  4
BIGFONT
  0
STYLE
  5
37
100
AcDbSymbolTableRecord
100
AcDbTextStyleTableRecord
  2
STANDARD1
 70
     4
 40
0.0
 41
1.0
 50
0.0
 71
     0
 42
0.2
  3
TXT
  4
BIGFONT
  0
ENDTAB
  0
TABLE
  2
VIEW
  5
6
100
AcDbSymbolTable
 70
     0
  0
ENDTAB
  0
TABLE
  2
UCS
  5
7
100
AcDbSymbolTable
 70
     0
  0
ENDTAB
  0
TABLE
  2
APPID
  5
9
100
AcDbSymbolTable
 70
     1
  0
APPID
  5
10
100
AcDbSymbolTableRecord
100
AcDbRegAppTableRecord
  2
ACAD
 70
     0
  0
ENDTAB
  0
TABLE
  2
DIMSTYLE
  5
A
100
AcDbSymbolTable
 70
     1
  0
DIMSTYLE
105
359
100
AcDbSymbolTableRecord
100
AcDbDimStyleTableRecord
  2
STANDARD
 70
     0
  3

  4

  5

  6

  7

 40
1.0
 41
0.18
 42
0.0625
 43
0.38
 44
0.18
 45
0.0
 46
0.0
 47
0.0
 48
0.0
140
0.18
141
0.09
142
0.0
143
25.4
144
1.0
145
0.0
146
1.0
147
0.09
 71
     0
 72
     0
 73
     1
 74
     1
 75
     0
 76
     0
 77
     0
 78
     0
170
     0
171
     2
172
     0
173
     0
174
     0
175
     0
176
     0
177
     0
178
     0
270
     2
271
     4
272
     4
273
     2
274
     2
340
F
275
     0
280
     0
281
     0
282
     0
283
     1
284
     0
285
     0
286
     0
287
     3
288
     0
  0
ENDTAB
  0
TABLE
  2
BLOCK_RECORD
  5
1
100
AcDbSymbolTable
 70
     2
  0
BLOCK_RECORD
  5
18
100
AcDbSymbolTableRecord
100
AcDbBlockTableRecord
  2
*MODEL_SPACE
  0
BLOCK_RECORD
  5
15
100
AcDbSymbolTableRecord
100
AcDbBlockTableRecord
  2
*PAPER_SPACE
  0
BLOCK_RECORD
  5
35A
100
AcDbSymbolTableRecord
100
AcDbBlockTableRecord
  2
A$C4D0D3218
  0
BLOCK_RECORD
  5
3A6
100
AcDbSymbolTableRecord
100
AcDbBlockTableRecord
  2
A$C3D2E53C4
  0
ENDTAB
  0
ENDSEC
  0
SECTION
  2
BLOCKS
  0
BLOCK
  5
19
100
AcDbEntity
  8
0
100
AcDbBlockBegin
  2
*MODEL_SPACE
 70
     0
 10
0.0
 20
0.0
 30
0.0
  3
*MODEL_SPACE
  1

  0
ENDBLK
  5
1A
100
AcDbEntity
  8
0
100
AcDbBlockEnd
  0
BLOCK
  5
16
100
AcDbEntity
 67
     1
  8
0
100
AcDbBlockBegin
  2
*PAPER_SPACE
 70
     0
 10
0.0
 20
0.0
 30
0.0
  3
*PAPER_SPACE
  1

  0
ENDBLK
  5
17
100
AcDbEntity
 67
     1
  8
0
100
AcDbBlockEnd
  0
BLOCK
  5
3A1
100
AcDbEntity
  8
0
100
AcDbBlockBegin
  2
A$C4D0D3218
 70
     0
 10
0.0
 20
0.0
 30
0.0
  3
A$C4D0D3218
  1

  0
LINE
  5
35B
100
AcDbEntity
  8
BODY
100
AcDbLine
 10
47.298566
 20
58.50411
 30
0.0
 11
30.0
 21
33.988262
 31
0.0
  0
LINE
  5
35C
100
AcDbEntity
  8
BODY
100
AcDbLine
 10
47.830578
 20
57.227929
 30
0.0
 11
48.758497
 21
35.164071
 31
0.0
  0
LINE
  5
35D
100
AcDbEntity
  8
BODY
100
AcDbLine
 10
60.0
 20
62.643891
 30
0.0
 11
60.0
 21
35.143891
 31
0.0
  0
LINE
  5
35E
100
AcDbEntity
  8
BODY
100
AcDbLine
 10
0.0
 20
8.643891
 30
0.0
 11
0.0
 21
62.643891
 31
0.0
  0
LINE
  5
35F
100
AcDbEntity
  8
CENTER
100
AcDbLine
 10
30.0
 20
0.0
 30
0.0
 11
30.0
 21
136.35376
 31
0.0
  0
LINE
  5
360
100
AcDbEntity
  8
BODY
100
AcDbLine
 10
57.0
 20
5.643891
 30
0.0
 11
3.0
 21
5.643891
 31
0.0
  0
ARC
  5
361
100
AcDbEntity
  8
BODY
100
AcDbCircle
 10
3.0
 20
8.643891
 30
0.0
 40
3.0
100
AcDbArc
 50
180.0
 51
270.0
  0
ARC
  5
362
100
AcDbEntity
  8
BODY
100
AcDbCircle
 10
51.917656
 20
7.643891
 30
0.0
 40
2.0
100
AcDbArc
 50
182.408216
 51
270.0
  0
LINE
  5
363
100
AcDbEntity
  8
BODY
100
AcDbLine
 10
30.0
 20
33.988262
 30
0.0
 11
50.0
 21
5.643891
 31
0.0
  0
LINE
  5
364
100
AcDbEntity
  8
CENTER
100
AcDbLine
 10
45.826748
 20
30.643891
 30
0.0
 11
72.990715
 21
30.643891
 31
0.0
  0
LINE
  5
365
100
AcDbEntity
  8
BODY
100
AcDbLine
 10
69.138318
 20
35.643891
 30
0.0
 11
48.738318
 21
35.643891
 31
0.0
  0
LINE
  5
366
100
AcDbEntity
  8
BODY
100
AcDbLine
 10
63.238318
 20
35.143891
 30
0.0
 11
48.738318
 21
35.143891
 31
0.0
  0
LINE
  5
367
100
AcDbEntity
  8
BODY
100
AcDbLine
 10
49.158879
 20
25.643891
 30
0.0
 11
69.138318
 21
25.643891
 31
0.0
  0
LINE
  5
368
100
AcDbEntity
  8
BODY
100
AcDbLine
 10
49.155391
 20
25.726818
 30
0.0
 11
49.919423
 21
7.559853
 31
0.0
  0
LINE
  5
369
100
AcDbEntity
  8
BODY
100
AcDbLine
 10
48.738318
 20
26.143891
 30
0.0
 11
63.238318
 21
26.143891
 31
0.0
  0
LWPOLYLINE
  5
36A
100
AcDbEntity
  8
BODY
100
AcDbPolyline
 90
        4
 70
     0
 43
0.0
 10
30.0
 20
39.881496
 10
22.0
 20
35.262693
 10
22.0
 20
26.025089
 10
30.0
 20
21.406287
  0
ARC
  5
36B
100
AcDbEntity
  8
BODY
100
AcDbCircle
 10
30.0
 20
30.643891
 30
0.0
 40
8.0
100
AcDbArc
 50
90.0
 51
270.0
  0
LINE
  5
36C
100
AcDbEntity
  8
CENTER
100
AcDbLine
 10
20.361507
 20
30.643891
 30
0.0
 11
31.763323
 21
30.643891
 31
0.0
  0
LINE
  5
36D
100
AcDbEntity
  8
BODY
100
AcDbLine
 10
49.238318
 20
35.643891
 30
0.0
 11
49.238318
 21
25.643891
 31
0.0
  0
LINE
  5
36E
100
AcDbEntity
  8
BODY
100
AcDbLine
 10
48.738318
 20
35.143891
 30
0.0
 11
48.738318
 21
26.143891
 31
0.0
  0
LINE
  5
36F
100
AcDbEntity
  8
BODY
100
AcDbLine
 10
48.738318
 20
26.143891
 30
0.0
 11
49.238318
 21
25.643891
 31
0.0
  0
LINE
  5
370
100
AcDbEntity
  8
BODY
100
AcDbLine
 10
48.738318
 20
35.143891
 30
0.0
 11
49.238318
 21
35.643891
 31
0.0
  0
LINE
  5
371
100
AcDbEntity
  8
BODY
100
AcDbLine
 10
60.0
 20
26.143891
 30
0.0
 11
60.0
 21
8.643891
 31
0.0
  0
ARC
  5
372
100
AcDbEntity
  8
BODY
100
AcDbCircle
 10
57.0
 20
8.643891
 30
0.0
 40
3.0
100
AcDbArc
 50
270.0
 51
0.0
  0
LINE
  5
373
100
AcDbEntity
  8
BODY
100
AcDbLine
 10
69.138318
 20
21.406287
 30
0.0
 11
63.738318
 21
21.406287
 31
0.0
  0
LINE
  5
374
100
AcDbEntity
  8
BODY
100
AcDbLine
 10
69.138318
 20
39.881496
 30
0.0
 11
63.738318
 21
39.881496
 31
0.0
  0
LINE
  5
375
100
AcDbEntity
  8
BODY
100
AcDbLine
 10
63.238318
 20
35.143891
 30
0.0
 11
63.238318
 21
26.143891
 31
0.0
  0
LINE
  5
376
100
AcDbEntity
  8
BODY
100
AcDbLine
 10
63.738318
 20
39.881496
 30
0.0
 11
63.738318
 21
21.406287
 31
0.0
  0
LINE
  5
377
100
AcDbEntity
  8
BODY
100
AcDbLine
 10
63.238318
 20
26.143891
 30
0.0
 11
63.738318
 21
25.643891
 31
0.0
  0
LINE
  5
378
100
AcDbEntity
  8
BODY
100
AcDbLine
 10
63.238318
 20
35.143891
 30
0.0
 11
63.738318
 21
35.643891
 31
0.0
  0
ARC
  5
379
100
AcDbEntity
  8
BODY
100
AcDbCircle
 10
57.138318
 20
30.643891
 30
0.0
 40
13.0
100
AcDbArc
 50
337.380135
 51
22.619865
  0
LINE
  5
37A
100
AcDbEntity
  8
BODY
100
AcDbLine
 10
70.138318
 20
37.781496
 30
0.0
 11
70.138318
 21
23.506287
 31
0.0
  0
ARC
  5
37B
100
AcDbEntity
  8
BODY
100
AcDbCircle
 10
67.393834
 20
23.525089
 30
0.0
 40
2.744549
100
AcDbArc
 50
309.465831
 51
50.534169
  0
ARC
  5
37C
100
AcDbEntity
  8
BODY
100
AcDbCircle
 10
67.393834
 20
37.762693
 30
0.0
 40
2.744549
100
AcDbArc
 50
309.465831
 51
50.534169
  0
LINE
  5
37D
100
AcDbEntity
  8
BODY
100
AcDbLine
 10
15.25
 20
65.643891
 30
0.0
 11
30.0
 21
65.643891
 31
0.0
  0
LINE
  5
37E
100
AcDbEntity
  8
SHAFT
100
AcDbLine
 10
30.0
 20
123.315647
 30
0.0
 11
13.25
 21
115.643891
 31
0.0
  0
LINE
  5
37F
100
AcDbEntity
  8
SHAFT
100
AcDbLine
 10
14.0
 20
130.643891
 30
0.0
 11
30.0
 21
123.315647
 31
0.0
  0
LINE
  5
380
100
AcDbEntity
  8
BODY
100
AcDbLine
 10
30.0
 20
115.643891
 30
0.0
 11
13.25
 21
115.643891
 31
0.0
  0
LINE
  5
381
100
AcDbEntity
  8
SHAFT
100
AcDbLine
 10
14.0
 20
130.643891
 30
0.0
 11
46.0
 21
130.643891
 31
0.0
  0
LINE
  5
382
100
AcDbEntity
  8
SHAFT
100
AcDbLine
 10
13.25
 20
115.643891
 30
0.0
 11
30.0
 21
115.643891
 31
0.0
  0
LINE
  5
383
100
AcDbEntity
  8
BODY
100
AcDbLine
 10
30.0
 20
90.643891
 30
0.0
 11
13.723903
 21
66.351209
 31
0.0
  0
LINE
  5
384
100
AcDbEntity
  8
BODY
100
AcDbLine
 10
13.25
 20
115.643891
 30
0.0
 11
30.0
 21
90.643891
 31
0.0
  0
LINE
  5
385
100
AcDbEntity
  8
BODY
100
AcDbLine
 10
13.25
 20
115.643891
 30
0.0
 11
13.25
 21
67.643891
 31
0.0
  0
LINE
  5
386
100
AcDbEntity
  8
BODY
100
AcDbLine
 10
13.25
 20
115.643891
 30
0.0
 11
11.085954
 21
67.553982
 31
0.0
  0
ARC
  5
387
100
AcDbEntity
  8
BODY
100
AcDbCircle
 10
15.25
 20
67.643891
 30
0.0
 40
2.0
100
AcDbArc
 50
180.0
 51
270.0
  0
ARC
  5
388
100
AcDbEntity
  8
BODY
100
AcDbCircle
 10
9.087976
 20
67.643891
 30
0.0
 40
2.0
100
AcDbArc
 50
270.0
 51
357.423428
  0
ARC
  5
389
100
AcDbEntity
  8
BODY
100
AcDbCircle
 10
3.0
 20
62.643891
 30
0.0
 40
3.0
100
AcDbArc
 50
90.0
 51
180.0
  0
LINE
  5
38A
100
AcDbEntity
  8
BODY
100
AcDbLine
 10
3.0
 20
65.643891
 30
0.0
 11
9.087976
 21
65.643891
 31
0.0
  0
LINE
  5
38B
100
AcDbEntity
  8
SHAFT
100
AcDbLine
 10
14.0
 20
130.643891
 30
0.0
 11
13.25
 21
115.643891
 31
0.0
  0
LINE
  5
38C
100
AcDbEntity
  8
BODY
100
AcDbLine
 10
46.75
 20
115.643891
 30
0.0
 11
48.914046
 21
67.553982
 31
0.0
  0
ARC
  5
38D
100
AcDbEntity
  8
BODY
100
AcDbCircle
 10
50.912024
 20
67.643891
 30
0.0
 40
2.0
100
AcDbArc
 50
182.576572
 51
270.0
  0
LINE
  5
38E
100
AcDbEntity
  8
BODY
100
AcDbLine
 10
30.0
 20
59.143891
 30
0.0
 11
45.832345
 21
59.143891
 31
0.0
  0
ARC
  5
38F
100
AcDbEntity
  8
BODY
100
AcDbCircle
 10
45.832345
 20
57.143891
 30
0.0
 40
2.0
100
AcDbArc
 50
2.408216
 51
90.0
  0
ARC
  5
390
100
AcDbEntity
  8
BODY
100
AcDbCircle
 10
57.0
 20
62.643891
 30
0.0
 40
3.0
100
AcDbArc
 50
0.0
 51
90.0
  0
LINE
  5
391
100
AcDbEntity
  8
BODY
100
AcDbLine
 10
50.912024
 20
65.643891
 30
0.0
 11
57.0
 21
65.643891
 31
0.0
  0
LINE
  5
392
100
AcDbEntity
  8
BODY
100
AcDbLine
 10
32.0
 20
126.893891
 30
0.0
 11
32.0
 21
106.343891
 31
0.0
  0
LINE
  5
393
100
AcDbEntity
  8
BODY
100
AcDbLine
 10
32.5
 20
127.393891
 30
0.0
 11
32.5
 21
106.643891
 31
0.0
  0
LINE
  5
394
100
AcDbEntity
  8
BODY
100
AcDbLine
 10
32.5
 20
106.643891
 30
0.0
 11
30.0
 21
105.143891
 31
0.0
  0
LINE
  5
395
100
AcDbEntity
  8
BODY
100
AcDbLine
 10
32.5
 20
106.643891
 30
0.0
 11
30.0
 21
106.643891
 31
0.0
  0
LINE
  5
396
100
AcDbEntity
  8
BODY
100
AcDbLine
 10
32.5
 20
111.143891
 30
0.0
 11
32.0
 21
110.643891
 31
0.0
  0
LINE
  5
397
100
AcDbEntity
  8
BODY
100
AcDbLine
 10
30.0
 20
111.143891
 30
0.0
 11
32.5
 21
111.143891
 31
0.0
  0
LINE
  5
398
100
AcDbEntity
  8
BODY
100
AcDbLine
 10
30.0
 20
110.643891
 30
0.0
 11
32.5
 21
110.643891
 31
0.0
  0
LINE
  5
399
100
AcDbEntity
  8
SHAFT
100
AcDbLine
 10
32.0
 20
115.643891
 30
0.0
 11
46.75
 21
115.643891
 31
0.0
  0
LINE
  5
39A
100
AcDbEntity
  8
BODY
100
AcDbLine
 10
35.75
 20
130.643891
 30
0.0
 11
32.0
 21
126.893891
 31
0.0
  0
LINE
  5
39B
100
AcDbEntity
  8
SHAFT
100
AcDbLine
 10
32.75
 20
127.643891
 30
0.0
 11
35.75
 21
130.643891
 31
0.0
  0
LINE
  5
39C
100
AcDbEntity
  8
BODY
100
AcDbLine
 10
46.75
 20
115.643891
 30
0.0
 11
32.0
 21
115.643891
 31
0.0
  0
LINE
  5
39D
100
AcDbEntity
  8
SHAFT
100
AcDbLine
 10
32.75
 20
127.643891
 30
0.0
 11
32.75
 21
115.643891
 31
0.0
  0
LINE
  5
39E
100
AcDbEntity
  8
BODY
100
AcDbLine
 10
32.0
 20
126.893891
 30
0.0
 11
30.0
 21
126.893891
 31
0.0
  0
LINE
  5
39F
100
AcDbEntity
  8
BODY
100
AcDbLine
 10
32.5
 20
127.393891
 30
0.0
 11
30.0
 21
127.393891
 31
0.0
  0
LINE
  5
3A0
100
AcDbEntity
  8
SHAFT
100
AcDbLine
 10
46.0
 20
130.643891
 30
0.0
 11
46.75
 21
115.643891
 31
0.0
  0
ENDBLK
  5
3A2
100
AcDbEntity
  8
0
100
AcDbBlockEnd
  0
BLOCK
  5
3A9
100
AcDbEntity
  8
0
100
AcDbBlockBegin
  2
A$C3D2E53C4
 70
     0
 10
0.0
 20
0.0
 30
0.0
  3
A$C3D2E53C4
  1

  0
INSERT
  5
3A7
100
AcDbEntity
  8
0
  6
CONTINUOUS
100
AcDbBlockReference
  2
A$C4D0D3218
 10
-0.000001
 20
0.000001
 30
0.0
  0
INSERT
  5
3A8
100
AcDbEntity
  8
0
  6
CONTINUOUS
100
AcDbBlockReference
  2
A$C4D0D3218
 10
558.499999
 20
0.000001
 30
0.0
 41
-1.0
  0
ENDBLK
  5
3AA
100
AcDbEntity
  8
0
100
AcDbBlockEnd
  0
ENDSEC
  0
SECTION
  2
ENTITIES
  0
ARC
  5
3A
100
AcDbEntity
  8
001
  6
CONTINUOUS
 62
     7
100
AcDbCircle
 10
1620.228394
 20
587.853638
 30
0.0
 40
2.25
100
AcDbArc
 50
0.0
 51
90.0
  0
LINE
  5
3B
100
AcDbEntity
  8
001
  6
CONTINUOUS
 62
     7
100
AcDbLine
 10
1622.478394
 20
587.853638
 30
0.0
 11
1622.478394
 21
577.353638
 31
0.0
  0
ARC
  5
3C
100
AcDbEntity
  8
001
  6
CONTINUOUS
 62
     7
100
AcDbCircle
 10
1620.228394
 20
577.353638
 30
0.0
 40
2.25
100
AcDbArc
 50
270.0
 51
0.0
  0
ARC
  5
3D
100
AcDbEntity
  8
001
  6
CONTINUOUS
 62
     7
100
AcDbCircle
 10
1620.228394
 20
600.60376
 30
0.0
 40
2.25
100
AcDbArc
 50
359.996892
 51
90.0
  0
LINE
  5
3E
100
AcDbEntity
  8
001
  6
CONTINUOUS
 62
     7
100
AcDbLine
 10
1622.478394
 20
592.353638
 30
0.0
 11
1622.478394
 21
600.603638
 31
0.0
  0
ARC
  5
3F
100
AcDbEntity
  8
001
  6
CONTINUOUS
 62
     7
100
AcDbCircle
 10
1620.228394
 20
592.353638
 30
0.0
 40
2.25
100
AcDbArc
 50
270.0
 51
0.0
  0
ARC
  5
40
100
AcDbEntity
  8
001
  6
CONTINUOUS
 62
     7
100
AcDbCircle
 10
1334.728394
 20
587.853638
 30
0.0
 40
2.25
100
AcDbArc
 50
90.006217
 51
180.0
  0
LINE
  5
41
100
AcDbEntity
  8
001
  6
CONTINUOUS
 62
     7
100
AcDbLine
 10
1332.478394
 20
587.853638
 30
0.0
 11
1332.478394
 21
577.353638
 31
0.0
  0
ARC
  5
42
100
AcDbEntity
  8
001
  6
CONTINUOUS
 62
     7
100
AcDbCircle
 10
1334.728394
 20
577.353638
 30
0.0
 40
2.25
100
AcDbArc
 50
180.0
 51
269.993783
  0
ARC
  5
43
100
AcDbEntity
  8
001
  6
CONTINUOUS
 62
     7
100
AcDbCircle
 10
1334.728394
 20
600.60376
 30
0.0
 40
2.25
100
AcDbArc
 50
90.006217
 51
180.003109
  0
LINE
  5
44
100
AcDbEntity
  8
001
  6
CONTINUOUS
 62
     7
100
AcDbLine
 10
1332.478394
 20
592.353638
 30
0.0
 11
1332.478394
 21
600.603638
 31
0.0
  0
ARC
  5
45
100
AcDbEntity
  8
001
  6
CONTINUOUS
 62
     7
100
AcDbCircle
 10
1334.728394
 20
592.353638
 30
0.0
 40
2.25
100
AcDbArc
 50
180.0
 51
269.993783
  0
LINE
  5
46
100
AcDbEntity
  8
001
  6
CONTINUOUS
 62
     7
100
AcDbLine
 10
1334.728394
 20
590.103638
 30
0.0
 11
1620.228394
 21
590.103638
 31
0.0
  0
LINE
  5
47
100
AcDbEntity
  8
001
  6
CONTINUOUS
 62
     7
100
AcDbLine
 10
1620.228394
 20
575.103638
 30
0.0
 11
1334.728149
 21
575.103638
 31
0.0
  0
ARC
  5
48
100
AcDbEntity
  8
001
  6
CONTINUOUS
 62
     7
100
AcDbCircle
 10
1500.478394
 20
745.103516
 30
0.0
 40
2.0
100
AcDbArc
 50
270.0
 51
0.003497
  0
ARC
  5
49
100
AcDbEntity
  8
001
  6
CONTINUOUS
 62
     7
100
AcDbCircle
 10
1454.478394
 20
745.103516
 30
0.0
 40
2.0
100
AcDbArc
 50
179.996503
 51
269.993006
  0
LINE
  5
4A
100
AcDbEntity
  8
001
  6
CONTINUOUS
 62
     7
100
AcDbLine
 10
1454.478149
 20
743.103516
 30
0.0
 11
1500.478394
 21
743.103516
 31
0.0
  0
LINE
  5
4B
100
AcDbEntity
  8
001
  6
CONTINUOUS
 62
     7
100
AcDbLine
 10
1461.478394
 20
739.703491
 30
0.0
 11
1463.441528
 21
743.103516
 31
0.0
  0
LINE
  5
4C
100
AcDbEntity
  8
001
  6
CONTINUOUS
 62
     7
100
AcDbLine
 10
1491.515259
 20
743.103516
 30
0.0
 11
1493.478149
 21
739.703491
 31
0.0
  0
LINE
  5
4D
100
AcDbEntity
  8
001
  6
CONTINUOUS
 62
     7
100
AcDbLine
 10
1461.478394
 20
739.703491
 30
0.0
 11
1493.478149
 21
739.703491
 31
0.0
  0
ARC
  5
4E
100
AcDbEntity
  8
001
  6
CONTINUOUS
 62
     7
100
AcDbCircle
 10
841.008554
 20
1155.778564
 30
0.0
 40
73.0
100
AcDbArc
 50
187.642392
 51
252.073932
  0
ARC
  5
4F
100
AcDbEntity
  8
001
  6
CONTINUOUS
 62
     7
100
AcDbCircle
 10
867.478394
 20
1237.603687
 30
0.0
 40
159.0
100
AcDbArc
 50
252.073978
 51
287.926022
  0
ARC
  5
50
100
AcDbEntity
  8
001
  6
CONTINUOUS
 62
     7
100
AcDbCircle
 10
893.948175
 20
1155.778584
 30
0.0
 40
73.0
100
AcDbArc
 50
287.926016
 51
352.357591
  0
ARC
  5
51
100
AcDbEntity
  8
001
  6
CONTINUOUS
 62
     7
100
AcDbCircle
 10
388.478401
 20
1223.603699
 30
0.0
 40
583.0
100
AcDbArc
 50
352.357571
 51
7.642429
  0
ARC
  5
52
100
AcDbEntity
  8
001
  6
CONTINUOUS
 62
     7
100
AcDbCircle
 10
893.948236
 20
1291.428813
 30
0.0
 40
73.0
100
AcDbArc
 50
7.642409
 51
72.073984
  0
ARC
  5
53
100
AcDbEntity
  8
001
  6
CONTINUOUS
 62
     7
100
AcDbCircle
 10
867.478582
 20
1209.60365
 30
0.0
 40
159.0
100
AcDbArc
 50
72.074049
 51
107.926094
  0
ARC
  5
54
100
AcDbEntity
  8
001
  6
CONTINUOUS
 62
     7
100
AcDbCircle
 10
841.008617
 20
1291.428855
 30
0.0
 40
73.0
100
AcDbArc
 50
107.926121
 51
172.357624
  0
ARC
  5
55
100
AcDbEntity
  8
001
  6
CONTINUOUS
 62
     7
100
AcDbCircle
 10
1346.478447
 20
1223.603699
 30
0.0
 40
583.0
100
AcDbArc
 50
172.357571
 51
187.642429
  0
ARC
  5
56
100
AcDbEntity
  8
001
  6
CONTINUOUS
 62
     7
100
AcDbCircle
 10
893.948271
 20
1155.778556
 30
0.0
 40
31.0
100
AcDbArc
 50
287.925948
 51
352.357626
  0
ARC
  5
57
100
AcDbEntity
  8
001
  6
CONTINUOUS
 62
     7
100
AcDbCircle
 10
388.47844
 20
1223.603699
 30
0.0
 40
541.0
100
AcDbArc
 50
352.357569
 51
7.642431
  0
ARC
  5
58
100
AcDbEntity
  8
001
  6
CONTINUOUS
 62
     7
100
AcDbCircle
 10
893.948289
 20
1291.428714
 30
0.0
 40
31.0
100
AcDbArc
 50
7.642612
 51
72.074086
  0
ARC
  5
59
100
AcDbEntity
  8
001
  6
CONTINUOUS
 62
     7
100
AcDbCircle
 10
841.008565
 20
1291.428755
 30
0.0
 40
31.0
100
AcDbArc
 50
107.926162
 51
172.357465
  0
ARC
  5
5A
100
AcDbEntity
  8
001
  6
CONTINUOUS
 62
     7
100
AcDbCircle
 10
1346.478408
 20
1223.603699
 30
0.0
 40
541.0
100
AcDbArc
 50
172.357569
 51
187.642431
  0
ARC
  5
5B
100
AcDbEntity
  8
001
  6
CONTINUOUS
 62
     7
100
AcDbCircle
 10
841.008582
 20
1155.778514
 30
0.0
 40
31.0
100
AcDbArc
 50
187.642297
 51
252.073804
  0
ARC
  5
5C
100
AcDbEntity
  8
001
  6
CONTINUOUS
 62
     7
100
AcDbCircle
 10
1518.228394
 20
745.85376
 30
0.0
 40
3.0
100
AcDbArc
 50
90.0
 51
180.0
  0
ARC
  5
5D
100
AcDbEntity
  8
001
  6
CONTINUOUS
 62
     7
100
AcDbCircle
 10
1529.987427
 20
745.85376
 30
0.0
 40
3.0
100
AcDbArc
 50
90.0
 51
180.0
  0
LINE
  5
5E
100
AcDbEntity
  8
001
  6
CONTINUOUS
 62
     7
100
AcDbLine
 10
1559.978394
 20
700.85376
 30
0.0
 11
1543.197388
 21
746.881348
 31
0.0
  0
ARC
  5
5F
100
AcDbEntity
  8
001
  6
CONTINUOUS
 62
     7
100
AcDbCircle
 10
1540.378866
 20
745.85376
 30
0.0
 40
3.0
100
AcDbArc
 50
20.031048
 51
90.001567
  0
LINE
  5
60
100
AcDbEntity
  8
001
  6
CONTINUOUS
 62
     7
100
AcDbLine
 10
1540.378784
 20
748.85376
 30
0.0
 11
1518.228394
 21
748.85376
 31
0.0
  0
LINE
  5
61
100
AcDbEntity
  8
001
  6
CONTINUOUS
 62
     7
100
AcDbLine
 10
1515.228394
 20
745.85376
 30
0.0
 11
1515.228394
 21
736.353882
 31
0.0
  0
LINE
  5
62
100
AcDbEntity
  8
001
  6
CONTINUOUS
 62
     7
100
AcDbLine
 10
1526.987427
 20
745.85376
 30
0.0
 11
1526.987427
 21
736.353882
 31
0.0
  0
ARC
  5
63
100
AcDbEntity
  8
001
  6
CONTINUOUS
 62
     7
100
AcDbCircle
 10
1513.728394
 20
736.35376
 30
0.0
 40
1.5
100
AcDbArc
 50
270.0
 51
0.004663
  0
ARC
  5
64
100
AcDbEntity
  8
001
  6
CONTINUOUS
 62
     7
100
AcDbCircle
 10
1525.487427
 20
736.35376
 30
0.0
 40
1.5
100
AcDbArc
 50
270.0
 51
0.004663
  0
LINE
  5
65
100
AcDbEntity
  8
001
  6
CONTINUOUS
 62
     7
100
AcDbLine
 10
1525.487427
 20
734.85376
 30
0.0
 11
1429.46936
 21
734.85376
 31
0.0
  0
ARC
  5
66
100
AcDbEntity
  8
001
  6
CONTINUOUS
 62
     7
100
AcDbCircle
 10
1436.728394
 20
745.85376
 30
0.0
 40
3.0
100
AcDbArc
 50
0.0
 51
90.0
  0
ARC
  5
67
100
AcDbEntity
  8
001
  6
CONTINUOUS
 62
     7
100
AcDbCircle
 10
1424.96936
 20
745.85376
 30
0.0
 40
3.0
100
AcDbArc
 50
0.0
 51
90.0
  0
LINE
  5
68
100
AcDbEntity
  8
001
  6
CONTINUOUS
 62
     7
100
AcDbLine
 10
1394.978394
 20
700.85376
 30
0.0
 11
1411.759155
 21
746.881348
 31
0.0
  0
ARC
  5
69
100
AcDbEntity
  8
001
  6
CONTINUOUS
 62
     7
100
AcDbCircle
 10
1414.577677
 20
745.85376
 30
0.0
 40
3.0
100
AcDbArc
 50
89.998433
 51
159.968952
  0
LINE
  5
6A
100
AcDbEntity
  8
001
  6
CONTINUOUS
 62
     7
100
AcDbLine
 10
1414.577759
 20
748.85376
 30
0.0
 11
1436.728394
 21
748.85376
 31
0.0
  0
ARC
  5
6B
100
AcDbEntity
  8
001
  6
CONTINUOUS
 62
     7
100
AcDbCircle
 10
1441.228394
 20
736.35376
 30
0.0
 40
1.5
100
AcDbArc
 50
179.995337
 51
270.0
  0
ARC
  5
6C
100
AcDbEntity
  8
001
  6
CONTINUOUS
 62
     7
100
AcDbCircle
 10
1429.46936
 20
736.35376
 30
0.0
 40
1.5
100
AcDbArc
 50
179.995337
 51
270.0
  0
LINE
  5
6D
100
AcDbEntity
  8
001
  6
CONTINUOUS
 62
     7
100
AcDbLine
 10
1427.96936
 20
745.85376
 30
0.0
 11
1427.96936
 21
736.353882
 31
0.0
  0
LINE
  5
6E
100
AcDbEntity
  8
001
  6
CONTINUOUS
 62
     7
100
AcDbLine
 10
1439.728394
 20
745.85376
 30
0.0
 11
1439.728394
 21
736.353882
 31
0.0
  0
LINE
  5
6F
100
AcDbEntity
  8
001
  6
CONTINUOUS
 62
     7
100
AcDbLine
 10
1559.978394
 20
700.85376
 30
0.0
 11
1394.978394
 21
700.85376
 31
0.0
  0
ARC
  5
70
100
AcDbEntity
  8
001
  6
CONTINUOUS
 62
     7
100
AcDbCircle
 10
1559.651426
 20
619.459491
 30
0.0
 40
20.25
100
AcDbArc
 50
11.383746
 51
22.143531
  0
LINE
  5
71
100
AcDbEntity
  8
001
  6
CONTINUOUS
 62
     7
100
AcDbLine
 10
1580.478394
 20
618.611572
 30
0.0
 11
1579.503052
 21
623.456421
 31
0.0
  0
LINE
  5
72
100
AcDbEntity
  8
001
  6
CONTINUOUS
 62
     7
100
AcDbLine
 10
1580.478394
 20
607.85376
 30
0.0
 11
1580.478394
 21
618.611572
 31
0.0
  0
LINE
  5
73
100
AcDbEntity
  8
001
  6
CONTINUOUS
 62
     7
100
AcDbLine
 10
1620.228394
 20
602.85376
 30
0.0
 11
1334.728394
 21
602.85376
 31
0.0
  0
LINE
  5
74
100
AcDbEntity
  8
001
  6
CONTINUOUS
 62
     7
100
AcDbLine
 10
1581.478394
 20
556.353638
 30
0.0
 11
1581.478394
 21
488.978607
 31
0.0
  0
LINE
  5
75
100
AcDbEntity
  8
001
  6
CONTINUOUS
 62
     7
100
AcDbLine
 10
1373.478394
 20
556.353638
 30
0.0
 11
1373.478394
 21
488.978577
 31
0.0
  0
LINE
  5
76
100
AcDbEntity
  8
001
  6
CONTINUOUS
 62
     7
100
AcDbLine
 10
1374.478394
 20
607.85376
 30
0.0
 11
1374.478394
 21
618.611572
 31
0.0
  0
ARC
  5
77
100
AcDbEntity
  8
001
  6
CONTINUOUS
 62
     7
100
AcDbCircle
 10
1395.305361
 20
619.459491
 30
0.0
 40
20.25
100
AcDbArc
 50
157.856469
 51
168.616254
  0
LINE
  5
78
100
AcDbEntity
  8
001
  6
CONTINUOUS
 62
     7
100
AcDbLine
 10
1374.478394
 20
618.611572
 30
0.0
 11
1375.453735
 21
623.456421
 31
0.0
  0
LINE
  5
79
100
AcDbEntity
  8
001
  6
CONTINUOUS
 62
     7
100
AcDbLine
 10
1376.54895
 20
627.092285
 30
0.0
 11
1400.118774
 21
700.85376
 31
0.0
  0
LINE
  5
7A
100
AcDbEntity
  8
001
  6
CONTINUOUS
 62
     7
100
AcDbLine
 10
1575.853394
 20
556.353638
 30
0.0
 11
1379.985596
 21
556.353638
 31
0.0
  0
LINE
  5
7B
100
AcDbEntity
  8
001
  6
CONTINUOUS
 62
     7
100
AcDbLine
 10
1551.341309
 20
674.103638
 30
0.0
 11
1403.77002
 21
674.103638
 31
0.0
  0
ARC
  5
7C
100
AcDbEntity
  8
001
  6
CONTINUOUS
 62
     7
100
AcDbCircle
 10
1560.328434
 20
700.098601
 30
0.0
 40
5.0
100
AcDbArc
 50
197.72063
 51
260.000144
  0
LINE
  5
7D
100
AcDbEntity
  8
001
  6
CONTINUOUS
 62
     7
100
AcDbLine
 10
1598.094727
 20
688.362244
 30
0.0
 11
1559.460205
 21
695.174561
 31
0.0
  0
ARC
  5
7E
100
AcDbEntity
  8
001
  6
CONTINUOUS
 62
     7
100
AcDbCircle
 10
1597.226361
 20
683.438288
 30
0.0
 40
5.0
100
AcDbArc
 50
19.289145
 51
79.998549
  0
LINE
  5
7F
100
AcDbEntity
  8
001
  6
CONTINUOUS
 62
     7
100
AcDbLine
 10
1614.047119
 20
650.514465
 30
0.0
 11
1601.945801
 21
685.089966
 31
0.0
  0
ARC
  5
80
100
AcDbEntity
  8
001
  6
CONTINUOUS
 62
     7
100
AcDbCircle
 10
1612.159404
 20
649.85376
 30
0.0
 40
2.0
100
AcDbArc
 50
270.000566
 51
19.290189
  0
LINE
  5
81
100
AcDbEntity
  8
001
  6
CONTINUOUS
 62
     7
100
AcDbLine
 10
1612.159424
 20
647.85376
 30
0.0
 11
1603.683594
 21
647.85376
 31
0.0
  0
ARC
  5
82
100
AcDbEntity
  8
001
  6
CONTINUOUS
 62
     7
100
AcDbCircle
 10
1603.683613
 20
649.85376
 30
0.0
 40
2.0
100
AcDbArc
 50
199.290189
 51
269.999434
  0
ARC
  5
83
100
AcDbEntity
  8
001
  6
CONTINUOUS
 62
     7
100
AcDbCircle
 10
1581.187368
 20
661.103638
 30
0.0
 40
13.0
100
AcDbArc
 50
89.999956
 51
197.720725
  0
LINE
  5
84
100
AcDbEntity
  8
001
  6
CONTINUOUS
 62
     7
100
AcDbLine
 10
1581.187378
 20
674.103638
 30
0.0
 11
1583.853882
 21
674.103638
 31
0.0
  0
ARC
  5
85
100
AcDbEntity
  8
001
  6
CONTINUOUS
 62
     7
100
AcDbCircle
 10
1583.853865
 20
661.103638
 30
0.0
 40
13.0
100
AcDbArc
 50
19.290047
 51
89.999925
  0
LINE
  5
86
100
AcDbEntity
  8
001
  6
CONTINUOUS
 62
     7
100
AcDbLine
 10
1601.795898
 20
649.193054
 30
0.0
 11
1596.124023
 21
665.398193
 31
0.0
  0
LINE
  5
87
100
AcDbEntity
  8
001
  6
CONTINUOUS
 62
     7
100
AcDbLine
 10
1578.407837
 20
627.092285
 30
0.0
 11
1554.838013
 21
700.85376
 31
0.0
  0
LINE
  5
88
100
AcDbEntity
  8
001
  6
CONTINUOUS
 62
     7
100
AcDbLine
 10
1356.862183
 20
688.362244
 30
0.0
 11
1395.496704
 21
695.174561
 31
0.0
  0
ARC
  5
89
100
AcDbEntity
  8
001
  6
CONTINUOUS
 62
     7
100
AcDbCircle
 10
1357.730395
 20
683.4382
 30
0.0
 40
5.0
100
AcDbArc
 50
99.999673
 51
160.709787
  0
LINE
  5
8A
100
AcDbEntity
  8
001
  6
CONTINUOUS
 62
     7
100
AcDbLine
 10
1340.909668
 20
650.514465
 30
0.0
 11
1353.011108
 21
685.089966
 31
0.0
  0
ARC
  5
8B
100
AcDbEntity
  8
001
  6
CONTINUOUS
 62
     7
100
AcDbCircle
 10
1342.797383
 20
649.85376
 30
0.0
 40
2.0
100
AcDbArc
 50
160.709811
 51
269.999434
  0
LINE
  5
8C
100
AcDbEntity
  8
001
  6
CONTINUOUS
 62
     7
100
AcDbLine
 10
1342.797363
 20
647.85376
 30
0.0
 11
1351.273193
 21
647.85376
 31
0.0
  0
ARC
  5
8D
100
AcDbEntity
  8
001
  6
CONTINUOUS
 62
     7
100
AcDbCircle
 10
1351.273174
 20
649.85376
 30
0.0
 40
2.0
100
AcDbArc
 50
270.000566
 51
340.709811
  0
ARC
  5
8E
100
AcDbEntity
  8
001
  6
CONTINUOUS
 62
     7
100
AcDbCircle
 10
1371.102922
 20
661.103638
 30
0.0
 40
13.0
100
AcDbArc
 50
90.000075
 51
160.709953
  0
LINE
  5
8F
100
AcDbEntity
  8
001
  6
CONTINUOUS
 62
     7
100
AcDbLine
 10
1353.160889
 20
649.193054
 30
0.0
 11
1358.832764
 21
665.398193
 31
0.0
  0
ARC
  5
90
100
AcDbEntity
  8
001
  6
CONTINUOUS
 62
     7
100
AcDbCircle
 10
1373.769419
 20
661.103638
 30
0.0
 40
13.0
100
AcDbArc
 50
342.279275
 51
90.000044
  0
LINE
  5
91
100
AcDbEntity
  8
001
  6
CONTINUOUS
 62
     7
100
AcDbLine
 10
1373.769409
 20
674.103638
 30
0.0
 11
1371.102905
 21
674.103638
 31
0.0
  0
ARC
  5
92
100
AcDbEntity
  8
001
  6
CONTINUOUS
 62
     7
100
AcDbCircle
 10
1394.628346
 20
700.098579
 30
0.0
 40
5.0
100
AcDbArc
 50
280.001361
 51
342.279644
  0
LINE
  5
93
100
AcDbEntity
  8
001
  6
CONTINUOUS
 62
     7
100
AcDbLine
 10
1493.478149
 20
739.703491
 30
0.0
 11
1493.478149
 21
734.85376
 31
0.0
  0
LINE
  5
94
100
AcDbEntity
  8
001
  6
CONTINUOUS
 62
     7
100
AcDbLine
 10
1461.478394
 20
739.703491
 30
0.0
 11
1461.478394
 21
734.85376
 31
0.0
  0
ARC
  5
95
100
AcDbEntity
  8
001
  6
CONTINUOUS
 62
     7
100
AcDbCircle
 10
827.978394
 20
1154.610962
 30
0.0
 40
3.0
100
AcDbArc
 50
179.999994
 51
240.208414
  0
ARC
  5
96
100
AcDbEntity
  8
001
  6
CONTINUOUS
 62
     7
100
AcDbCircle
 10
906.978394
 20
1154.610962
 30
0.0
 40
3.0
100
AcDbArc
 50
299.791586
 51
0.000006
  0
ARC
  5
97
100
AcDbEntity
  8
001
  6
CONTINUOUS
 62
     7
100
AcDbCircle
 10
867.4785
 20
1223.603654
 30
0.0
 40
82.5
100
AcDbArc
 50
240.207767
 51
299.792062
  0
ARC
  5
98
100
AcDbEntity
  8
001
  6
CONTINUOUS
 62
     7
100
AcDbCircle
 10
906.978394
 20
1292.596279
 30
0.0
 40
3.0
100
AcDbArc
 50
0.002992
 51
60.209758
  0
ARC
  5
99
100
AcDbEntity
  8
001
  6
CONTINUOUS
 62
     7
100
AcDbCircle
 10
827.978394
 20
1292.596471
 30
0.0
 40
3.0
100
AcDbArc
 50
119.792929
 51
180.000674
  0
ARC
  5
9A
100
AcDbEntity
  8
001
  6
CONTINUOUS
 62
     7
100
AcDbCircle
 10
867.4785
 20
1223.603622
 30
0.0
 40
82.5
100
AcDbArc
 50
60.207938
 51
119.792233
  0
LINE
  5
9B
100
AcDbEntity
  8
001
  6
CONTINUOUS
 62
     7
100
AcDbLine
 10
824.978394
 20
1267.762451
 30
0.0
 11
824.978394
 21
1292.596436
 31
0.0
  0
LINE
  5
9C
100
AcDbEntity
  8
001
  6
CONTINUOUS
 62
     7
100
AcDbLine
 10
909.978394
 20
1267.762451
 30
0.0
 11
909.978394
 21
1292.596436
 31
0.0
  0
LINE
  5
9D
100
AcDbEntity
  8
001
  6
CONTINUOUS
 62
     7
100
AcDbLine
 10
909.978394
 20
1154.610962
 30
0.0
 11
909.978394
 21
1179.444824
 31
0.0
  0
ARC
  5
9E
100
AcDbEntity
  8
001
  6
CONTINUOUS
 62
     7
100
AcDbCircle
 10
924.978394
 20
1179.444944
 30
0.0
 40
15.0
100
AcDbArc
 50
142.47683
 51
180.000456
  0
ARC
  5
9F
100
AcDbEntity
  8
001
  6
CONTINUOUS
 62
     7
100
AcDbCircle
 10
867.478309
 20
1223.603638
 30
0.0
 40
57.5
100
AcDbArc
 50
322.476536
 51
37.523464
  0
LINE
  5
A0
100
AcDbEntity
  8
001
  6
CONTINUOUS
 62
     7
100
AcDbLine
 10
824.978394
 20
1154.610962
 30
0.0
 11
824.978394
 21
1179.444824
 31
0.0
  0
ARC
  5
A1
100
AcDbEntity
  8
001
  6
CONTINUOUS
 62
     7
100
AcDbCircle
 10
809.978394
 20
1179.444785
 30
0.0
 40
15.0
100
AcDbArc
 50
0.000151
 51
37.523936
  0
ARC
  5
A2
100
AcDbEntity
  8
001
  6
CONTINUOUS
 62
     7
100
AcDbCircle
 10
867.478417
 20
1223.603638
 30
0.0
 40
57.5
100
AcDbArc
 50
142.476536
 51
217.523464
  0
ARC
  5
A3
100
AcDbEntity
  8
001
  6
CONTINUOUS
 62
     7
100
AcDbCircle
 10
809.978394
 20
1267.762613
 30
0.0
 40
15.0
100
AcDbArc
 50
322.476064
 51
0.0
  0
ARC
  5
A4
100
AcDbEntity
  8
001
  6
CONTINUOUS
 62
     7
100
AcDbCircle
 10
924.978394
 20
1267.762454
 30
0.0
 40
15.0
100
AcDbArc
 50
180.00001
 51
217.52317
  0
ARC
  5
A5
100
AcDbEntity
  8
001
  6
CONTINUOUS
 62
     7
100
AcDbCircle
 10
867.478434
 20
1223.603677
 30
0.0
 40
42.5
100
AcDbArc
 50
56.81287
 51
69.595554
  0
ARC
  5
A6
100
AcDbEntity
  8
001
  6
CONTINUOUS
 62
     7
100
AcDbCircle
 10
867.478575
 20
1223.603782
 30
0.0
 40
42.5
100
AcDbArc
 50
110.404853
 51
123.187389
  0
ARC
  5
A7
100
AcDbEntity
  8
001
  6
CONTINUOUS
 62
     7
100
AcDbCircle
 10
867.478438
 20
1223.603674
 30
0.0
 40
65.0
100
AcDbArc
 50
50.006589
 51
130.832269
  0
LINE
  5
A8
100
AcDbEntity
  8
001
  6
CONTINUOUS
 62
     7
100
AcDbLine
 10
896.73407
 20
1259.560791
 30
0.0
 11
909.285767
 21
1270.327759
 31
0.0
  0
ARC
  5
A9
100
AcDbEntity
  8
001
  6
CONTINUOUS
 62
     7
100
AcDbCircle
 10
907.983499
 20
1271.845684
 30
0.0
 40
2.0
100
AcDbArc
 50
310.627152
 51
50.763842
  0
ARC
  5
AA
100
AcDbEntity
  8
001
  6
CONTINUOUS
 62
     7
100
AcDbCircle
 10
893.478673
 20
1263.355839
 30
0.0
 40
5.0
100
AcDbArc
 50
236.813207
 51
310.623032
  0
LINE
  5
AB
100
AcDbEntity
  8
001
  6
CONTINUOUS
 62
     7
100
AcDbLine
 10
838.222717
 20
1259.560791
 30
0.0
 11
825.671021
 21
1270.327759
 31
0.0
  0
ARC
  5
AC
100
AcDbEntity
  8
001
  6
CONTINUOUS
 62
     7
100
AcDbCircle
 10
841.47808
 20
1263.355817
 30
0.0
 40
5.0
100
AcDbArc
 50
229.37657
 51
303.187267
  0
ARC
  5
AD
100
AcDbEntity
  8
001
  6
CONTINUOUS
 62
     7
100
AcDbCircle
 10
826.973156
 20
1271.845676
 30
0.0
 40
2.0
100
AcDbArc
 50
129.235775
 51
229.377847
  0
ARC
  5
AE
100
AcDbEntity
  8
001
  6
CONTINUOUS
 62
     7
100
AcDbCircle
 10
867.478142
 20
1223.603776
 30
0.0
 40
42.5
100
AcDbArc
 50
236.813308
 51
249.595769
  0
LINE
  5
AF
100
AcDbEntity
  8
001
  6
CONTINUOUS
 62
     7
100
AcDbLine
 10
838.222717
 20
1187.646606
 30
0.0
 11
825.671021
 21
1176.879639
 31
0.0
  0
ARC
  5
B0
100
AcDbEntity
  8
001
  6
CONTINUOUS
 62
     7
100
AcDbCircle
 10
841.477999
 20
1183.851512
 30
0.0
 40
5.0
100
AcDbArc
 50
56.811627
 51
130.622211
  0
ARC
  5
B1
100
AcDbEntity
  8
001
  6
CONTINUOUS
 62
     7
100
AcDbCircle
 10
826.973187
 20
1175.361574
 30
0.0
 40
2.0
100
AcDbArc
 50
130.62103
 51
230.763068
  0
ARC
  5
B2
100
AcDbEntity
  8
001
  6
CONTINUOUS
 62
     7
100
AcDbCircle
 10
867.478434
 20
1223.603598
 30
0.0
 40
42.5
100
AcDbArc
 50
290.404446
 51
303.18713
  0
LINE
  5
B3
100
AcDbEntity
  8
001
  6
CONTINUOUS
 62
     7
100
AcDbLine
 10
896.73407
 20
1187.646606
 30
0.0
 11
909.285767
 21
1176.879639
 31
0.0
  0
ARC
  5
B4
100
AcDbEntity
  8
001
  6
CONTINUOUS
 62
     7
100
AcDbCircle
 10
893.478673
 20
1183.851558
 30
0.0
 40
5.0
100
AcDbArc
 50
49.376968
 51
123.186793
  0
ARC
  5
B5
100
AcDbEntity
  8
001
  6
CONTINUOUS
 62
     7
100
AcDbCircle
 10
907.983572
 20
1175.36165
 30
0.0
 40
2.0
100
AcDbArc
 50
309.233462
 51
49.3756
  0
ARC
  5
B6
100
AcDbEntity
  8
001
  6
CONTINUOUS
 62
     7
100
AcDbCircle
 10
867.478436
 20
1223.60367
 30
0.0
 40
65.0
100
AcDbArc
 50
230.006349
 51
309.993484
  0
CIRCLE
  5
B7
100
AcDbEntity
  8
001
  6
CONTINUOUS
 62
     7
100
AcDbCircle
 10
952.146667
 20
1178.124756
 30
0.0
 40
12.0
  0
LINE
  5
B8
100
AcDbEntity
  8
001
  6
CONTINUOUS
 62
     7
100
AcDbLine
 10
952.146667
 20
1164.268311
 30
0.0
 11
964.146667
 21
1171.196533
 31
0.0
  0
LINE
  5
B9
100
AcDbEntity
  8
001
  6
CONTINUOUS
 62
     7
100
AcDbLine
 10
940.146667
 20
1171.196533
 30
0.0
 11
952.146667
 21
1164.268311
 31
0.0
  0
LINE
  5
BA
100
AcDbEntity
  8
001
  6
CONTINUOUS
 62
     7
100
AcDbLine
 10
940.146667
 20
1185.052979
 30
0.0
 11
940.146667
 21
1171.196533
 31
0.0
  0
LINE
  5
BB
100
AcDbEntity
  8
001
  6
CONTINUOUS
 62
     7
100
AcDbLine
 10
952.146667
 20
1191.981079
 30
0.0
 11
940.146667
 21
1185.052979
 31
0.0
  0
LINE
  5
BC
100
AcDbEntity
  8
001
  6
CONTINUOUS
 62
     7
100
AcDbLine
 10
964.146667
 20
1171.196533
 30
0.0
 11
964.146667
 21
1185.052979
 31
0.0
  0
LINE
  5
BD
100
AcDbEntity
  8
001
  6
CONTINUOUS
 62
     7
100
AcDbLine
 10
964.146667
 20
1185.052979
 30
0.0
 11
952.146667
 21
1191.981079
 31
0.0
  0
CIRCLE
  5
BE
100
AcDbEntity
  8
001
  6
CONTINUOUS
 62
     7
100
AcDbCircle
 10
952.146667
 20
1178.124756
 30
0.0
 40
8.0
  0
CIRCLE
  5
BF
100
AcDbEntity
  8
001
  6
CONTINUOUS
 62
     7
100
AcDbCircle
 10
952.146667
 20
1178.124756
 30
0.0
 40
15.0
  0
CIRCLE
  5
C0
100
AcDbEntity
  8
001
  6
CONTINUOUS
 62
     7
100
AcDbCircle
 10
912.222229
 20
1103.373291
 30
0.0
 40
12.0
  0
LINE
  5
C1
100
AcDbEntity
  8
001
  6
CONTINUOUS
 62
     7
100
AcDbLine
 10
900.222229
 20
1110.301514
 30
0.0
 11
900.222229
 21
1096.445068
 31
0.0
  0
LINE
  5
C2
100
AcDbEntity
  8
001
  6
CONTINUOUS
 62
     7
100
AcDbLine
 10
912.222229
 20
1117.229736
 30
0.0
 11
900.222229
 21
1110.301514
 31
0.0
  0
CIRCLE
  5
C3
100
AcDbEntity
  8
001
  6
CONTINUOUS
 62
     7
100
AcDbCircle
 10
912.222229
 20
1103.373291
 30
0.0
 40
8.0
  0
CIRCLE
  5
C4
100
AcDbEntity
  8
001
  6
CONTINUOUS
 62
     7
100
AcDbCircle
 10
912.222229
 20
1103.373291
 30
0.0
 40
15.0
  0
LINE
  5
C5
100
AcDbEntity
  8
001
  6
CONTINUOUS
 62
     7
100
AcDbLine
 10
900.222229
 20
1096.445068
 30
0.0
 11
912.222229
 21
1089.516968
 31
0.0
  0
LINE
  5
C6
100
AcDbEntity
  8
001
  6
CONTINUOUS
 62
     7
100
AcDbLine
 10
912.222229
 20
1089.516968
 30
0.0
 11
924.222229
 21
1096.445068
 31
0.0
  0
LINE
  5
C7
100
AcDbEntity
  8
001
  6
CONTINUOUS
 62
     7
100
AcDbLine
 10
924.222229
 20
1096.445068
 30
0.0
 11
924.222229
 21
1110.301514
 31
0.0
  0
LINE
  5
C8
100
AcDbEntity
  8
001
  6
CONTINUOUS
 62
     7
100
AcDbLine
 10
924.222229
 20
1110.301514
 30
0.0
 11
912.222229
 21
1117.229736
 31
0.0
  0
CIRCLE
  5
C9
100
AcDbEntity
  8
001
  6
CONTINUOUS
 62
     7
100
AcDbCircle
 10
952.146667
 20
1269.082642
 30
0.0
 40
12.0
  0
LINE
  5
CA
100
AcDbEntity
  8
001
  6
CONTINUOUS
 62
     7
100
AcDbLine
 10
952.146667
 20
1282.939087
 30
0.0
 11
964.146667
 21
1276.010864
 31
0.0
  0
LINE
  5
CB
100
AcDbEntity
  8
001
  6
CONTINUOUS
 62
     7
100
AcDbLine
 10
940.146667
 20
1276.010864
 30
0.0
 11
952.146667
 21
1282.939087
 31
0.0
  0
LINE
  5
CC
100
AcDbEntity
  8
001
  6
CONTINUOUS
 62
     7
100
AcDbLine
 10
940.146667
 20
1262.154419
 30
0.0
 11
940.146667
 21
1276.010864
 31
0.0
  0
LINE
  5
CD
100
AcDbEntity
  8
001
  6
CONTINUOUS
 62
     7
100
AcDbLine
 10
952.146667
 20
1255.226196
 30
0.0
 11
940.146667
 21
1262.154419
 31
0.0
  0
LINE
  5
CE
100
AcDbEntity
  8
001
  6
CONTINUOUS
 62
     7
100
AcDbLine
 10
964.146667
 20
1276.010864
 30
0.0
 11
964.146667
 21
1262.154419
 31
0.0
  0
LINE
  5
CF
100
AcDbEntity
  8
001
  6
CONTINUOUS
 62
     7
100
AcDbLine
 10
964.146667
 20
1262.154419
 30
0.0
 11
952.146667
 21
1255.226196
 31
0.0
  0
CIRCLE
  5
D0
100
AcDbEntity
  8
001
  6
CONTINUOUS
 62
     7
100
AcDbCircle
 10
952.146667
 20
1269.082642
 30
0.0
 40
8.0
  0
CIRCLE
  5
D1
100
AcDbEntity
  8
001
  6
CONTINUOUS
 62
     7
100
AcDbCircle
 10
952.146667
 20
1269.082642
 30
0.0
 40
15.0
  0
CIRCLE
  5
D2
100
AcDbEntity
  8
001
  6
CONTINUOUS
 62
     7
100
AcDbCircle
 10
912.222229
 20
1343.833984
 30
0.0
 40
12.0
  0
LINE
  5
D3
100
AcDbEntity
  8
001
  6
CONTINUOUS
 62
     7
100
AcDbLine
 10
900.222229
 20
1336.905884
 30
0.0
 11
900.222229
 21
1350.762207
 31
0.0
  0
LINE
  5
D4
100
AcDbEntity
  8
001
  6
CONTINUOUS
 62
     7
100
AcDbLine
 10
912.222229
 20
1329.977661
 30
0.0
 11
900.222229
 21
1336.905884
 31
0.0
  0
CIRCLE
  5
D5
100
AcDbEntity
  8
001
  6
CONTINUOUS
 62
     7
100
AcDbCircle
 10
912.222229
 20
1343.833984
 30
0.0
 40
8.0
  0
CIRCLE
  5
D6
100
AcDbEntity
  8
001
  6
CONTINUOUS
 62
     7
100
AcDbCircle
 10
912.222229
 20
1343.833984
 30
0.0
 40
15.0
  0
LINE
  5
D7
100
AcDbEntity
  8
001
  6
CONTINUOUS
 62
     7
100
AcDbLine
 10
900.222229
 20
1350.762207
 30
0.0
 11
912.222229
 21
1357.69043
 31
0.0
  0
LINE
  5
D8
100
AcDbEntity
  8
001
  6
CONTINUOUS
 62
     7
100
AcDbLine
 10
912.222229
 20
1357.69043
 30
0.0
 11
924.222229
 21
1350.762207
 31
0.0
  0
LINE
  5
D9
100
AcDbEntity
  8
001
  6
CONTINUOUS
 62
     7
100
AcDbLine
 10
924.222229
 20
1350.762207
 30
0.0
 11
924.222229
 21
1336.905884
 31
0.0
  0
LINE
  5
DA
100
AcDbEntity
  8
001
  6
CONTINUOUS
 62
     7
100
AcDbLine
 10
924.222229
 20
1336.905884
 30
0.0
 11
912.222229
 21
1329.977661
 31
0.0
  0
CIRCLE
  5
DB
100
AcDbEntity
  8
001
  6
CONTINUOUS
 62
     7
100
AcDbCircle
 10
822.734558
 20
1103.373291
 30
0.0
 40
12.0
  0
LINE
  5
DC
100
AcDbEntity
  8
001
  6
CONTINUOUS
 62
     7
100
AcDbLine
 10
834.734558
 20
1110.301514
 30
0.0
 11
834.734558
 21
1096.445068
 31
0.0
  0
LINE
  5
DD
100
AcDbEntity
  8
001
  6
CONTINUOUS
 62
     7
100
AcDbLine
 10
822.734558
 20
1117.229736
 30
0.0
 11
834.734558
 21
1110.301514
 31
0.0
  0
CIRCLE
  5
DE
100
AcDbEntity
  8
001
  6
CONTINUOUS
 62
     7
100
AcDbCircle
 10
822.734558
 20
1103.373291
 30
0.0
 40
8.0
  0
CIRCLE
  5
DF
100
AcDbEntity
  8
001
  6
CONTINUOUS
 62
     7
100
AcDbCircle
 10
822.734558
 20
1103.373291
 30
0.0
 40
15.0
  0
LINE
  5
E0
100
AcDbEntity
  8
001
  6
CONTINUOUS
 62
     7
100
AcDbLine
 10
834.734558
 20
1096.445068
 30
0.0
 11
822.734558
 21
1089.516968
 31
0.0
  0
LINE
  5
E1
100
AcDbEntity
  8
001
  6
CONTINUOUS
 62
     7
100
AcDbLine
 10
822.734558
 20
1089.516968
 30
0.0
 11
810.734558
 21
1096.445068
 31
0.0
  0
LINE
  5
E2
100
AcDbEntity
  8
001
  6
CONTINUOUS
 62
     7
100
AcDbLine
 10
810.734558
 20
1096.445068
 30
0.0
 11
810.734558
 21
1110.301514
 31
0.0
  0
LINE
  5
E3
100
AcDbEntity
  8
001
  6
CONTINUOUS
 62
     7
100
AcDbLine
 10
810.734558
 20
1110.301514
 30
0.0
 11
822.734558
 21
1117.229736
 31
0.0
  0
CIRCLE
  5
E4
100
AcDbEntity
  8
001
  6
CONTINUOUS
 62
     7
100
AcDbCircle
 10
782.810059
 20
1178.124756
 30
0.0
 40
12.0
  0
LINE
  5
E5
100
AcDbEntity
  8
001
  6
CONTINUOUS
 62
     7
100
AcDbLine
 10
782.810059
 20
1164.268311
 30
0.0
 11
770.810059
 21
1171.196533
 31
0.0
  0
LINE
  5
E6
100
AcDbEntity
  8
001
  6
CONTINUOUS
 62
     7
100
AcDbLine
 10
794.810059
 20
1171.196533
 30
0.0
 11
782.810059
 21
1164.268311
 31
0.0
  0
LINE
  5
E7
100
AcDbEntity
  8
001
  6
CONTINUOUS
 62
     7
100
AcDbLine
 10
794.810059
 20
1185.052979
 30
0.0
 11
794.810059
 21
1171.196533
 31
0.0
  0
LINE
  5
E8
100
AcDbEntity
  8
001
  6
CONTINUOUS
 62
     7
100
AcDbLine
 10
782.810059
 20
1191.981079
 30
0.0
 11
794.810059
 21
1185.052979
 31
0.0
  0
LINE
  5
E9
100
AcDbEntity
  8
001
  6
CONTINUOUS
 62
     7
100
AcDbLine
 10
770.810059
 20
1171.196533
 30
0.0
 11
770.810059
 21
1185.052979
 31
0.0
  0
LINE
  5
EA
100
AcDbEntity
  8
001
  6
CONTINUOUS
 62
     7
100
AcDbLine
 10
770.810059
 20
1185.052979
 30
0.0
 11
782.810059
 21
1191.981079
 31
0.0
  0
CIRCLE
  5
EB
100
AcDbEntity
  8
001
  6
CONTINUOUS
 62
     7
100
AcDbCircle
 10
782.810059
 20
1178.124756
 30
0.0
 40
8.0
  0
CIRCLE
  5
EC
100
AcDbEntity
  8
001
  6
CONTINUOUS
 62
     7
100
AcDbCircle
 10
782.810059
 20
1178.124756
 30
0.0
 40
15.0
  0
CIRCLE
  5
ED
100
AcDbEntity
  8
001
  6
CONTINUOUS
 62
     7
100
AcDbCircle
 10
782.810059
 20
1269.082642
 30
0.0
 40
12.0
  0
LINE
  5
EE
100
AcDbEntity
  8
001
  6
CONTINUOUS
 62
     7
100
AcDbLine
 10
782.810059
 20
1282.939087
 30
0.0
 11
770.810059
 21
1276.010864
 31
0.0
  0
LINE
  5
EF
100
AcDbEntity
  8
001
  6
CONTINUOUS
 62
     7
100
AcDbLine
 10
794.810059
 20
1276.010864
 30
0.0
 11
782.810059
 21
1282.939087
 31
0.0
  0
LINE
  5
F0
100
AcDbEntity
  8
001
  6
CONTINUOUS
 62
     7
100
AcDbLine
 10
794.810059
 20
1262.154419
 30
0.0
 11
794.810059
 21
1276.010864
 31
0.0
  0
LINE
  5
F1
100
AcDbEntity
  8
001
  6
CONTINUOUS
 62
     7
100
AcDbLine
 10
782.810059
 20
1255.226196
 30
0.0
 11
794.810059
 21
1262.154419
 31
0.0
  0
LINE
  5
F2
100
AcDbEntity
  8
001
  6
CONTINUOUS
 62
     7
100
AcDbLine
 10
770.810059
 20
1276.010864
 30
0.0
 11
770.810059
 21
1262.154419
 31
0.0
  0
LINE
  5
F3
100
AcDbEntity
  8
001
  6
CONTINUOUS
 62
     7
100
AcDbLine
 10
770.810059
 20
1262.154419
 30
0.0
 11
782.810059
 21
1255.226196
 31
0.0
  0
CIRCLE
  5
F4
100
AcDbEntity
  8
001
  6
CONTINUOUS
 62
     7
100
AcDbCircle
 10
782.810059
 20
1269.082642
 30
0.0
 40
8.0
  0
CIRCLE
  5
F5
100
AcDbEntity
  8
001
  6
CONTINUOUS
 62
     7
100
AcDbCircle
 10
782.810059
 20
1269.082642
 30
0.0
 40
15.0
  0
CIRCLE
  5
F6
100
AcDbEntity
  8
001
  6
CONTINUOUS
 62
     7
100
AcDbCircle
 10
822.734558
 20
1343.833984
 30
0.0
 40
12.0
  0
LINE
  5
F7
100
AcDbEntity
  8
001
  6
CONTINUOUS
 62
     7
100
AcDbLine
 10
834.734558
 20
1336.905884
 30
0.0
 11
834.734558
 21
1350.762207
 31
0.0
  0
LINE
  5
F8
100
AcDbEntity
  8
001
  6
CONTINUOUS
 62
     7
100
AcDbLine
 10
822.734558
 20
1329.977661
 30
0.0
 11
834.734558
 21
1336.905884
 31
0.0
  0
CIRCLE
  5
F9
100
AcDbEntity
  8
001
  6
CONTINUOUS
 62
     7
100
AcDbCircle
 10
822.734558
 20
1343.833984
 30
0.0
 40
8.0
  0
CIRCLE
  5
FA
100
AcDbEntity
  8
001
  6
CONTINUOUS
 62
     7
100
AcDbCircle
 10
822.734558
 20
1343.833984
 30
0.0
 40
15.0
  0
LINE
  5
FB
100
AcDbEntity
  8
001
  6
CONTINUOUS
 62
     7
100
AcDbLine
 10
834.734558
 20
1350.762207
 30
0.0
 11
822.734558
 21
1357.69043
 31
0.0
  0
LINE
  5
FC
100
AcDbEntity
  8
001
  6
CONTINUOUS
 62
     7
100
AcDbLine
 10
822.734558
 20
1357.69043
 30
0.0
 11
810.734558
 21
1350.762207
 31
0.0
  0
LINE
  5
FD
100
AcDbEntity
  8
001
  6
CONTINUOUS
 62
     7
100
AcDbLine
 10
810.734558
 20
1350.762207
 30
0.0
 11
810.734558
 21
1336.905884
 31
0.0
  0
LINE
  5
FE
100
AcDbEntity
  8
001
  6
CONTINUOUS
 62
     7
100
AcDbLine
 10
810.734558
 20
1336.905884
 30
0.0
 11
822.734558
 21
1329.977661
 31
0.0
  0
ARC
  5
FF
100
AcDbEntity
  8
001
  6
CONTINUOUS
 62
     7
100
AcDbCircle
 10
861.558138
 20
1358.103638
 30
0.0
 40
3.0
100
AcDbArc
 50
89.999454
 51
171.385807
  0
ARC
  5
100
100
AcDbEntity
  8
001
  6
CONTINUOUS
 62
     7
100
AcDbCircle
 10
873.398588
 20
1358.103638
 30
0.0
 40
3.0
100
AcDbArc
 50
8.614193
 51
90.000546
  0
ARC
  5
101
100
AcDbEntity
  8
001
  6
CONTINUOUS
 62
     7
100
AcDbCircle
 10
889.278012
 20
1306.690891
 30
0.0
 40
5.0
100
AcDbArc
 50
188.613881
 51
209.368473
  0
ARC
  5
102
100
AcDbEntity
  8
001
  6
CONTINUOUS
 62
     7
100
AcDbCircle
 10
845.678714
 20
1306.690891
 30
0.0
 40
5.0
100
AcDbArc
 50
330.631527
 51
351.386119
  0
ARC
  5
103
100
AcDbEntity
  8
001
  6
CONTINUOUS
 62
     7
100
AcDbCircle
 10
867.478301
 20
1209.603618
 30
0.0
 40
117.0
100
AcDbArc
 50
96.798754
 51
107.926008
  0
ARC
  5
104
100
AcDbEntity
  8
001
  6
CONTINUOUS
 62
     7
100
AcDbCircle
 10
867.478425
 20
1209.603618
 30
0.0
 40
117.0
100
AcDbArc
 50
72.073992
 51
83.201246
  0
LINE
  5
105
100
AcDbEntity
  8
001
  6
CONTINUOUS
 62
     7
100
AcDbLine
 10
861.558167
 20
1361.103638
 30
0.0
 11
873.39856
 21
1361.103638
 31
0.0
  0
LINE
  5
106
100
AcDbEntity
  8
001
  6
CONTINUOUS
 62
     7
100
AcDbLine
 10
876.379333
 20
1347.103638
 30
0.0
 11
858.577393
 21
1347.103638
 31
0.0
  0
LINE
  5
107
100
AcDbEntity
  8
001
  6
CONTINUOUS
 62
     7
100
AcDbLine
 10
884.334351
 20
1305.942017
 30
0.0
 11
876.364807
 21
1358.552979
 31
0.0
  0
LINE
  5
108
100
AcDbEntity
  8
001
  6
CONTINUOUS
 62
     7
100
AcDbLine
 10
850.622375
 20
1305.942017
 30
0.0
 11
858.59198
 21
1358.552979
 31
0.0
  0
ARC
  5
109
100
AcDbEntity
  8
001
  6
CONTINUOUS
 62
     7
100
AcDbCircle
 10
873.398588
 20
1089.103638
 30
0.0
 40
3.0
100
AcDbArc
 50
269.999454
 51
351.385807
  0
LINE
  5
10A
100
AcDbEntity
  8
001
  6
CONTINUOUS
 62
     7
100
AcDbLine
 10
861.558167
 20
1086.103638
 30
0.0
 11
873.39856
 21
1086.103638
 31
0.0
  0
LINE
  5
10B
100
AcDbEntity
  8
001
  6
CONTINUOUS
 62
     7
100
AcDbLine
 10
876.379333
 20
1100.103638
 30
0.0
 11
858.577393
 21
1100.103638
 31
0.0
  0
LINE
  5
10C
100
AcDbEntity
  8
001
  6
CONTINUOUS
 62
     7
100
AcDbLine
 10
884.334351
 20
1141.265259
 30
0.0
 11
876.364807
 21
1088.654297
 31
0.0
  0
ARC
  5
10D
100
AcDbEntity
  8
001
  6
CONTINUOUS
 62
     7
100
AcDbCircle
 10
861.558138
 20
1089.103638
 30
0.0
 40
3.0
100
AcDbArc
 50
188.614193
 51
270.000546
  0
LINE
  5
10E
100
AcDbEntity
  8
001
  6
CONTINUOUS
 62
     7
100
AcDbLine
 10
850.622375
 20
1141.265259
 30
0.0
 11
858.59198
 21
1088.654297
 31
0.0
  0
ARC
  5
10F
100
AcDbEntity
  8
001
  6
CONTINUOUS
 62
     7
100
AcDbCircle
 10
845.678772
 20
1140.516403
 30
0.0
 40
5.0
100
AcDbArc
 50
8.613665
 51
29.369834
  0
ARC
  5
110
100
AcDbEntity
  8
001
  6
CONTINUOUS
 62
     7
100
AcDbCircle
 10
889.277954
 20
1140.516403
 30
0.0
 40
5.0
100
AcDbArc
 50
150.630166
 51
171.386335
  0
ARC
  5
111
100
AcDbEntity
  8
001
  6
CONTINUOUS
 62
     7
100
AcDbCircle
 10
867.478301
 20
1237.603657
 30
0.0
 40
117.0
100
AcDbArc
 50
252.073992
 51
263.201246
  0
ARC
  5
112
100
AcDbEntity
  8
001
  6
CONTINUOUS
 62
     7
100
AcDbCircle
 10
867.478425
 20
1237.603657
 30
0.0
 40
117.0
100
AcDbArc
 50
276.798754
 51
287.926008
  0
ARC
  5
113
100
AcDbEntity
  8
001
  6
CONTINUOUS
 62
     7
100
AcDbCircle
 10
871.478271
 20
1229.603638
 30
0.0
 40
3.0
100
AcDbArc
 50
0.0
 51
90.0
  0
LINE
  5
114
100
AcDbEntity
  8
001
  6
CONTINUOUS
 62
     7
100
AcDbLine
 10
871.478271
 20
1232.603638
 30
0.0
 11
863.478271
 21
1232.603638
 31
0.0
  0
ARC
  5
115
100
AcDbEntity
  8
001
  6
CONTINUOUS
 62
     7
100
AcDbCircle
 10
863.478271
 20
1229.603638
 30
0.0
 40
3.0
100
AcDbArc
 50
90.0
 51
180.0
  0
LINE
  5
116
100
AcDbEntity
  8
001
  6
CONTINUOUS
 62
     7
100
AcDbLine
 10
860.478271
 20
1228.103638
 30
0.0
 11
860.478271
 21
1229.603638
 31
0.0
  0
ARC
  5
117
100
AcDbEntity
  8
001
  6
CONTINUOUS
 62
     7
100
AcDbCircle
 10
863.478271
 20
1228.103638
 30
0.0
 40
3.0
100
AcDbArc
 50
180.0
 51
270.0
  0
ARC
  5
118
100
AcDbEntity
  8
001
  6
CONTINUOUS
 62
     7
100
AcDbCircle
 10
871.478271
 20
1219.103638
 30
0.0
 40
3.0
100
AcDbArc
 50
0.0
 51
90.0
  0
LINE
  5
119
100
AcDbEntity
  8
001
  6
CONTINUOUS
 62
     7
100
AcDbLine
 10
874.478271
 20
1217.603638
 30
0.0
 11
874.478271
 21
1219.103638
 31
0.0
  0
ARC
  5
11A
100
AcDbEntity
  8
001
  6
CONTINUOUS
 62
     7
100
AcDbCircle
 10
871.478271
 20
1217.603638
 30
0.0
 40
3.0
100
AcDbArc
 50
270.0
 51
0.0
  0
LINE
  5
11B
100
AcDbEntity
  8
001
  6
CONTINUOUS
 62
     7
100
AcDbLine
 10
871.478271
 20
1214.603638
 30
0.0
 11
863.478271
 21
1214.603638
 31
0.0
  0
ARC
  5
11C
100
AcDbEntity
  8
001
  6
CONTINUOUS
 62
     7
100
AcDbCircle
 10
863.478271
 20
1217.603638
 30
0.0
 40
3.0
100
AcDbArc
 50
180.0
 51
270.0
  0
ARC
  5
11D
100
AcDbEntity
  8
001
  6
CONTINUOUS
 62
     7
100
AcDbCircle
 10
863.478271
 20
1217.603638
 30
0.0
 40
6.0
100
AcDbArc
 50
180.0
 51
270.0
  0
LINE
  5
11E
100
AcDbEntity
  8
001
  6
CONTINUOUS
 62
     7
100
AcDbLine
 10
871.478271
 20
1211.603638
 30
0.0
 11
863.478271
 21
1211.603638
 31
0.0
  0
ARC
  5
11F
100
AcDbEntity
  8
001
  6
CONTINUOUS
 62
     7
100
AcDbCircle
 10
871.478271
 20
1217.603638
 30
0.0
 40
6.0
100
AcDbArc
 50
270.0
 51
0.0
  0
LINE
  5
120
100
AcDbEntity
  8
001
  6
CONTINUOUS
 62
     7
100
AcDbLine
 10
877.478271
 20
1217.603638
 30
0.0
 11
877.478271
 21
1219.103638
 31
0.0
  0
ARC
  5
121
100
AcDbEntity
  8
001
  6
CONTINUOUS
 62
     7
100
AcDbCircle
 10
871.478271
 20
1219.103638
 30
0.0
 40
6.0
100
AcDbArc
 50
0.0
 51
90.0
  0
LINE
  5
122
100
AcDbEntity
  8
001
  6
CONTINUOUS
 62
     7
100
AcDbLine
 10
871.478271
 20
1225.103638
 30
0.0
 11
863.478271
 21
1225.103638
 31
0.0
  0
LINE
  5
123
100
AcDbEntity
  8
001
  6
CONTINUOUS
 62
     7
100
AcDbLine
 10
871.478271
 20
1222.103638
 30
0.0
 11
863.478271
 21
1222.103638
 31
0.0
  0
ARC
  5
124
100
AcDbEntity
  8
001
  6
CONTINUOUS
 62
     7
100
AcDbCircle
 10
863.478271
 20
1228.103638
 30
0.0
 40
6.0
100
AcDbArc
 50
180.0
 51
270.0
  0
LINE
  5
125
100
AcDbEntity
  8
001
  6
CONTINUOUS
 62
     7
100
AcDbLine
 10
857.478271
 20
1228.103638
 30
0.0
 11
857.478271
 21
1229.603638
 31
0.0
  0
ARC
  5
126
100
AcDbEntity
  8
001
  6
CONTINUOUS
 62
     7
100
AcDbCircle
 10
863.478271
 20
1229.603638
 30
0.0
 40
6.0
100
AcDbArc
 50
90.0
 51
180.0
  0
LINE
  5
127
100
AcDbEntity
  8
001
  6
CONTINUOUS
 62
     7
100
AcDbLine
 10
871.478271
 20
1235.603638
 30
0.0
 11
863.478271
 21
1235.603638
 31
0.0
  0
ARC
  5
128
100
AcDbEntity
  8
001
  6
CONTINUOUS
 62
     7
100
AcDbCircle
 10
871.478271
 20
1229.603638
 30
0.0
 40
6.0
100
AcDbArc
 50
0.0
 51
90.0
  0
LINE
  5
129
100
AcDbEntity
  8
001
  6
CONTINUOUS
 62
     7
100
AcDbLine
 10
877.478271
 20
1229.603638
 30
0.0
 11
874.478271
 21
1229.603638
 31
0.0
  0
LINE
  5
12A
100
AcDbEntity
  8
001
  6
CONTINUOUS
 62
     7
100
AcDbLine
 10
860.478271
 20
1217.603638
 30
0.0
 11
857.478271
 21
1217.603638
 31
0.0
  0
LINE
  5
12B
100
AcDbEntity
  8
001
  6
CONTINUOUS
 62
     7
100
AcDbLine
 10
1413.8479
 20
700.85376
 30
0.0
 11
1380.840942
 21
640.524109
 31
0.0
  0
LINE
  5
12C
100
AcDbEntity
  8
001
  6
CONTINUOUS
 62
     7
100
AcDbLine
 10
1541.108887
 20
700.85376
 30
0.0
 11
1574.115845
 21
640.524109
 31
0.0
  0
LINE
  5
12D
100
AcDbEntity
  8
001
  6
CONTINUOUS
 62
     7
100
AcDbLine
 10
1524.202393
 20
729.871094
 30
0.0
 11
1524.202393
 21
706.629639
 31
0.0
  0
LINE
  5
12E
100
AcDbEntity
  8
001
  6
CONTINUOUS
 62
     7
100
AcDbLine
 10
1430.754395
 20
729.871094
 30
0.0
 11
1430.754395
 21
706.629639
 31
0.0
  0
LINE
  5
12F
100
AcDbEntity
  8
001
  6
CONTINUOUS
 62
     7
100
AcDbLine
 10
1523.6698
 20
699.103638
 30
0.0
 11
1523.6698
 21
677.09491
 31
0.0
  0
LINE
  5
130
100
AcDbEntity
  8
001
  6
CONTINUOUS
 62
     7
100
AcDbLine
 10
1516.10437
 20
700.85376
 30
0.0
 11
1516.10437
 21
677.09491
 31
0.0
  0
LINE
  5
131
100
AcDbEntity
  8
001
  6
CONTINUOUS
 62
     7
100
AcDbLine
 10
1431.286987
 20
699.103638
 30
0.0
 11
1431.286987
 21
677.09491
 31
0.0
  0
LINE
  5
132
100
AcDbEntity
  8
001
  6
CONTINUOUS
 62
     7
100
AcDbLine
 10
1438.852417
 20
700.85376
 30
0.0
 11
1438.852417
 21
677.09491
 31
0.0
  0
ARC
  5
133
100
AcDbEntity
  8
001
  6
CONTINUOUS
 62
     7
100
AcDbCircle
 10
1587.316615
 20
612.188918
 30
0.0
 40
6.134002
100
AcDbArc
 50
55.615416
 51
115.617081
  0
ARC
  5
134
100
AcDbEntity
  8
001
  6
CONTINUOUS
 62
     7
100
AcDbCircle
 10
1597.708862
 20
595.394595
 30
0.0
 40
22.928265
100
AcDbArc
 50
72.412364
 51
107.587636
  0
ARC
  5
135
100
AcDbEntity
  8
001
  6
CONTINUOUS
 62
     7
100
AcDbCircle
 10
1608.10111
 20
612.188918
 30
0.0
 40
6.134002
100
AcDbArc
 50
64.382919
 51
124.384584
  0
LINE
  5
136
100
AcDbEntity
  8
001
  6
CONTINUOUS
 62
     7
100
AcDbLine
 10
1586.20874
 20
618.611572
 30
0.0
 11
1583.852295
 21
617.251099
 31
0.0
  0
LINE
  5
137
100
AcDbEntity
  8
001
  6
CONTINUOUS
 62
     7
100
AcDbLine
 10
1609.20874
 20
618.611572
 30
0.0
 11
1611.565186
 21
617.251099
 31
0.0
  0
LINE
  5
138
100
AcDbEntity
  8
001
  6
CONTINUOUS
 62
     7
100
AcDbLine
 10
1586.20874
 20
618.611572
 30
0.0
 11
1609.20874
 21
618.611572
 31
0.0
  0
LINE
  5
139
100
AcDbEntity
  8
001
  6
CONTINUOUS
 62
     7
100
AcDbLine
 10
1583.852295
 20
617.251099
 30
0.0
 11
1583.852295
 21
605.611572
 31
0.0
  0
LINE
  5
13A
100
AcDbEntity
  8
001
  6
CONTINUOUS
 62
     7
100
AcDbLine
 10
1590.780762
 20
617.251099
 30
0.0
 11
1590.780762
 21
605.611572
 31
0.0
  0
LINE
  5
13B
100
AcDbEntity
  8
001
  6
CONTINUOUS
 62
     7
100
AcDbLine
 10
1604.636963
 20
617.251099
 30
0.0
 11
1604.636963
 21
605.611572
 31
0.0
  0
LINE
  5
13C
100
AcDbEntity
  8
001
  6
CONTINUOUS
 62
     7
100
AcDbLine
 10
1611.565186
 20
617.251099
 30
0.0
 11
1611.565186
 21
605.611572
 31
0.0
  0
LINE
  5
13D
100
AcDbEntity
  8
001
  6
CONTINUOUS
 62
     7
100
AcDbLine
 10
1589.70874
 20
625.611572
 30
0.0
 11
1605.70874
 21
625.611572
 31
0.0
  0
ARC
  5
13E
100
AcDbEntity
  8
001
  6
CONTINUOUS
 62
     7
100
AcDbCircle
 10
1597.70874
 20
610.61125
 30
0.0
 40
17.000284
100
AcDbArc
 50
61.928024
 51
118.071976
  0
LINE
  5
13F
100
AcDbEntity
  8
001
  6
CONTINUOUS
 62
     7
100
AcDbLine
 10
1605.70874
 20
625.611572
 30
0.0
 11
1605.70874
 21
618.611572
 31
0.0
  0
LINE
  5
140
100
AcDbEntity
  8
001
  6
CONTINUOUS
 62
     7
100
AcDbLine
 10
1589.70874
 20
625.611572
 30
0.0
 11
1589.70874
 21
618.611572
 31
0.0
  0
LINE
  5
141
100
AcDbEntity
  8
001
  6
CONTINUOUS
 62
     7
100
AcDbLine
 10
1583.70874
 20
605.611572
 30
0.0
 11
1611.70874
 21
605.611572
 31
0.0
  0
LINE
  5
142
100
AcDbEntity
  8
001
  6
CONTINUOUS
 62
     7
100
AcDbLine
 10
1583.70874
 20
602.85376
 30
0.0
 11
1583.70874
 21
605.611572
 31
0.0
  0
LINE
  5
143
100
AcDbEntity
  8
001
  6
CONTINUOUS
 62
     7
100
AcDbLine
 10
1583.70874
 20
572.103638
 30
0.0
 11
1611.70874
 21
572.103638
 31
0.0
  0
LINE
  5
144
100
AcDbEntity
  8
001
  6
CONTINUOUS
 62
     7
100
AcDbLine
 10
1611.70874
 20
575.103638
 30
0.0
 11
1611.70874
 21
572.103638
 31
0.0
  0
ARC
  5
145
100
AcDbEntity
  8
001
  6
CONTINUOUS
 62
     7
100
AcDbCircle
 10
1597.708862
 20
585.320615
 30
0.0
 40
22.928265
100
AcDbArc
 50
252.412364
 51
287.587636
  0
ARC
  5
146
100
AcDbEntity
  8
001
  6
CONTINUOUS
 62
     7
100
AcDbCircle
 10
1587.316615
 20
568.526292
 30
0.0
 40
6.134002
100
AcDbArc
 50
244.382919
 51
304.384584
  0
LINE
  5
147
100
AcDbEntity
  8
001
  6
CONTINUOUS
 62
     7
100
AcDbLine
 10
1609.20874
 20
562.103638
 30
0.0
 11
1586.20874
 21
562.103638
 31
0.0
  0
LINE
  5
148
100
AcDbEntity
  8
001
  6
CONTINUOUS
 62
     7
100
AcDbLine
 10
1604.636963
 20
563.464111
 30
0.0
 11
1604.636963
 21
572.103638
 31
0.0
  0
LINE
  5
149
100
AcDbEntity
  8
001
  6
CONTINUOUS
 62
     7
100
AcDbLine
 10
1590.780762
 20
563.464111
 30
0.0
 11
1590.780762
 21
572.103638
 31
0.0
  0
ARC
  5
14A
100
AcDbEntity
  8
001
  6
CONTINUOUS
 62
     7
100
AcDbCircle
 10
1608.10111
 20
568.526292
 30
0.0
 40
6.134002
100
AcDbArc
 50
235.615416
 51
295.617081
  0
LINE
  5
14B
100
AcDbEntity
  8
001
  6
CONTINUOUS
 62
     7
100
AcDbLine
 10
1609.20874
 20
562.103638
 30
0.0
 11
1611.565186
 21
563.464111
 31
0.0
  0
LINE
  5
14C
100
AcDbEntity
  8
001
  6
CONTINUOUS
 62
     7
100
AcDbLine
 10
1611.565186
 20
563.464111
 30
0.0
 11
1611.565186
 21
572.103638
 31
0.0
  0
LINE
  5
14D
100
AcDbEntity
  8
001
  6
CONTINUOUS
 62
     7
100
AcDbLine
 10
1583.852295
 20
563.464111
 30
0.0
 11
1583.852295
 21
572.103638
 31
0.0
  0
LINE
  5
14E
100
AcDbEntity
  8
001
  6
CONTINUOUS
 62
     7
100
AcDbLine
 10
1586.20874
 20
562.103638
 30
0.0
 11
1583.852295
 21
563.464111
 31
0.0
  0
LINE
  5
14F
100
AcDbEntity
  8
001
  6
CONTINUOUS
 62
     7
100
AcDbLine
 10
1583.70874
 20
575.103638
 30
0.0
 11
1583.70874
 21
572.103638
 31
0.0
  0
LINE
  5
150
100
AcDbEntity
  8
001
  6
CONTINUOUS
 62
     7
100
AcDbLine
 10
1583.852295
 20
563.771729
 30
0.0
 11
1581.478394
 21
556.353638
 31
0.0
  0
ARC
  5
151
100
AcDbEntity
  8
001
  6
CONTINUOUS
 62
     7
100
AcDbCircle
 10
1585.478394
 20
607.853788
 30
0.0
 40
5.0
100
AcDbArc
 50
180.000318
 51
249.272079
  0
ARC
  5
152
100
AcDbEntity
  8
001
  6
CONTINUOUS
 62
     7
100
AcDbCircle
 10
1512.56515
 20
612.188918
 30
0.0
 40
6.134002
100
AcDbArc
 50
55.615416
 51
115.617081
  0
ARC
  5
153
100
AcDbEntity
  8
001
  6
CONTINUOUS
 62
     7
100
AcDbCircle
 10
1522.957397
 20
595.394595
 30
0.0
 40
22.928265
100
AcDbArc
 50
72.412364
 51
107.587636
  0
ARC
  5
154
100
AcDbEntity
  8
001
  6
CONTINUOUS
 62
     7
100
AcDbCircle
 10
1533.349645
 20
612.188918
 30
0.0
 40
6.134002
100
AcDbArc
 50
64.382919
 51
124.384584
  0
LINE
  5
155
100
AcDbEntity
  8
001
  6
CONTINUOUS
 62
     7
100
AcDbLine
 10
1511.457275
 20
618.611572
 30
0.0
 11
1509.10083
 21
617.251099
 31
0.0
  0
LINE
  5
156
100
AcDbEntity
  8
001
  6
CONTINUOUS
 62
     7
100
AcDbLine
 10
1534.457275
 20
618.611572
 30
0.0
 11
1536.813721
 21
617.251099
 31
0.0
  0
LINE
  5
157
100
AcDbEntity
  8
001
  6
CONTINUOUS
 62
     7
100
AcDbLine
 10
1511.457275
 20
618.611572
 30
0.0
 11
1534.457275
 21
618.611572
 31
0.0
  0
LINE
  5
158
100
AcDbEntity
  8
001
  6
CONTINUOUS
 62
     7
100
AcDbLine
 10
1509.10083
 20
617.251099
 30
0.0
 11
1509.10083
 21
605.611572
 31
0.0
  0
LINE
  5
159
100
AcDbEntity
  8
001
  6
CONTINUOUS
 62
     7
100
AcDbLine
 10
1516.029297
 20
617.251099
 30
0.0
 11
1516.029297
 21
605.611572
 31
0.0
  0
LINE
  5
15A
100
AcDbEntity
  8
001
  6
CONTINUOUS
 62
     7
100
AcDbLine
 10
1529.885498
 20
617.251099
 30
0.0
 11
1529.885498
 21
605.611572
 31
0.0
  0
LINE
  5
15B
100
AcDbEntity
  8
001
  6
CONTINUOUS
 62
     7
100
AcDbLine
 10
1536.813721
 20
617.251099
 30
0.0
 11
1536.813721
 21
605.611572
 31
0.0
  0
LINE
  5
15C
100
AcDbEntity
  8
001
  6
CONTINUOUS
 62
     7
100
AcDbLine
 10
1514.957275
 20
625.611572
 30
0.0
 11
1530.957275
 21
625.611572
 31
0.0
  0
ARC
  5
15D
100
AcDbEntity
  8
001
  6
CONTINUOUS
 62
     7
100
AcDbCircle
 10
1522.957275
 20
610.61125
 30
0.0
 40
17.000284
100
AcDbArc
 50
61.928024
 51
118.071976
  0
LINE
  5
15E
100
AcDbEntity
  8
001
  6
CONTINUOUS
 62
     7
100
AcDbLine
 10
1530.957275
 20
625.611572
 30
0.0
 11
1530.957275
 21
618.611572
 31
0.0
  0
LINE
  5
15F
100
AcDbEntity
  8
001
  6
CONTINUOUS
 62
     7
100
AcDbLine
 10
1514.957275
 20
625.611572
 30
0.0
 11
1514.957275
 21
618.611572
 31
0.0
  0
LINE
  5
160
100
AcDbEntity
  8
001
  6
CONTINUOUS
 62
     7
100
AcDbLine
 10
1508.957275
 20
605.611572
 30
0.0
 11
1536.957275
 21
605.611572
 31
0.0
  0
LINE
  5
161
100
AcDbEntity
  8
001
  6
CONTINUOUS
 62
     7
100
AcDbLine
 10
1536.957275
 20
602.611572
 30
0.0
 11
1536.957275
 21
605.611572
 31
0.0
  0
LINE
  5
162
100
AcDbEntity
  8
001
  6
CONTINUOUS
 62
     7
100
AcDbLine
 10
1508.957275
 20
602.85376
 30
0.0
 11
1508.957275
 21
605.611572
 31
0.0
  0
LINE
  5
163
100
AcDbEntity
  8
001
  6
CONTINUOUS
 62
     7
100
AcDbLine
 10
1508.957275
 20
572.103638
 30
0.0
 11
1536.957275
 21
572.103638
 31
0.0
  0
LINE
  5
164
100
AcDbEntity
  8
001
  6
CONTINUOUS
 62
     7
100
AcDbLine
 10
1536.957275
 20
575.103638
 30
0.0
 11
1536.957275
 21
572.103638
 31
0.0
  0
ARC
  5
165
100
AcDbEntity
  8
001
  6
CONTINUOUS
 62
     7
100
AcDbCircle
 10
1522.957397
 20
585.320615
 30
0.0
 40
22.928265
100
AcDbArc
 50
252.412364
 51
287.587636
  0
ARC
  5
166
100
AcDbEntity
  8
001
  6
CONTINUOUS
 62
     7
100
AcDbCircle
 10
1512.56515
 20
568.526292
 30
0.0
 40
6.134002
100
AcDbArc
 50
244.382919
 51
304.384584
  0
LINE
  5
167
100
AcDbEntity
  8
001
  6
CONTINUOUS
 62
     7
100
AcDbLine
 10
1534.457275
 20
562.103638
 30
0.0
 11
1511.457275
 21
562.103638
 31
0.0
  0
LINE
  5
168
100
AcDbEntity
  8
001
  6
CONTINUOUS
 62
     7
100
AcDbLine
 10
1529.885498
 20
563.464111
 30
0.0
 11
1529.885498
 21
572.103638
 31
0.0
  0
LINE
  5
169
100
AcDbEntity
  8
001
  6
CONTINUOUS
 62
     7
100
AcDbLine
 10
1516.029297
 20
563.464111
 30
0.0
 11
1516.029297
 21
572.103638
 31
0.0
  0
ARC
  5
16A
100
AcDbEntity
  8
001
  6
CONTINUOUS
 62
     7
100
AcDbCircle
 10
1533.349645
 20
568.526292
 30
0.0
 40
6.134002
100
AcDbArc
 50
235.615416
 51
295.617081
  0
LINE
  5
16B
100
AcDbEntity
  8
001
  6
CONTINUOUS
 62
     7
100
AcDbLine
 10
1534.457275
 20
562.103638
 30
0.0
 11
1536.813721
 21
563.464111
 31
0.0
  0
LINE
  5
16C
100
AcDbEntity
  8
001
  6
CONTINUOUS
 62
     7
100
AcDbLine
 10
1536.813721
 20
563.464111
 30
0.0
 11
1536.813721
 21
572.103638
 31
0.0
  0
LINE
  5
16D
100
AcDbEntity
  8
001
  6
CONTINUOUS
 62
     7
100
AcDbLine
 10
1509.10083
 20
563.464111
 30
0.0
 11
1509.10083
 21
572.103638
 31
0.0
  0
LINE
  5
16E
100
AcDbEntity
  8
001
  6
CONTINUOUS
 62
     7
100
AcDbLine
 10
1511.457275
 20
562.103638
 30
0.0
 11
1509.10083
 21
563.464111
 31
0.0
  0
LINE
  5
16F
100
AcDbEntity
  8
001
  6
CONTINUOUS
 62
     7
100
AcDbLine
 10
1508.957275
 20
575.103638
 30
0.0
 11
1508.957275
 21
572.103638
 31
0.0
  0
ARC
  5
170
100
AcDbEntity
  8
001
  6
CONTINUOUS
 62
     7
100
AcDbCircle
 10
1421.607264
 20
612.188918
 30
0.0
 40
6.134002
100
AcDbArc
 50
55.615416
 51
115.617081
  0
ARC
  5
171
100
AcDbEntity
  8
001
  6
CONTINUOUS
 62
     7
100
AcDbCircle
 10
1431.999512
 20
595.394595
 30
0.0
 40
22.928265
100
AcDbArc
 50
72.412364
 51
107.587636
  0
ARC
  5
172
100
AcDbEntity
  8
001
  6
CONTINUOUS
 62
     7
100
AcDbCircle
 10
1442.391759
 20
612.188918
 30
0.0
 40
6.134002
100
AcDbArc
 50
64.382919
 51
124.384584
  0
LINE
  5
173
100
AcDbEntity
  8
001
  6
CONTINUOUS
 62
     7
100
AcDbLine
 10
1420.49939
 20
618.611572
 30
0.0
 11
1418.142944
 21
617.251099
 31
0.0
  0
LINE
  5
174
100
AcDbEntity
  8
001
  6
CONTINUOUS
 62
     7
100
AcDbLine
 10
1443.49939
 20
618.611572
 30
0.0
 11
1445.855835
 21
617.251099
 31
0.0
  0
LINE
  5
175
100
AcDbEntity
  8
001
  6
CONTINUOUS
 62
     7
100
AcDbLine
 10
1420.49939
 20
618.611572
 30
0.0
 11
1443.49939
 21
618.611572
 31
0.0
  0
LINE
  5
176
100
AcDbEntity
  8
001
  6
CONTINUOUS
 62
     7
100
AcDbLine
 10
1418.142944
 20
617.251099
 30
0.0
 11
1418.142944
 21
605.611572
 31
0.0
  0
LINE
  5
177
100
AcDbEntity
  8
001
  6
CONTINUOUS
 62
     7
100
AcDbLine
 10
1425.071411
 20
617.251099
 30
0.0
 11
1425.071411
 21
605.611572
 31
0.0
  0
LINE
  5
178
100
AcDbEntity
  8
001
  6
CONTINUOUS
 62
     7
100
AcDbLine
 10
1438.927612
 20
617.251099
 30
0.0
 11
1438.927612
 21
605.611572
 31
0.0
  0
LINE
  5
179
100
AcDbEntity
  8
001
  6
CONTINUOUS
 62
     7
100
AcDbLine
 10
1445.855835
 20
617.251099
 30
0.0
 11
1445.855835
 21
605.611572
 31
0.0
  0
LINE
  5
17A
100
AcDbEntity
  8
001
  6
CONTINUOUS
 62
     7
100
AcDbLine
 10
1423.99939
 20
625.611572
 30
0.0
 11
1439.99939
 21
625.611572
 31
0.0
  0
ARC
  5
17B
100
AcDbEntity
  8
001
  6
CONTINUOUS
 62
     7
100
AcDbCircle
 10
1431.99939
 20
610.61125
 30
0.0
 40
17.000284
100
AcDbArc
 50
61.928024
 51
118.071976
  0
LINE
  5
17C
100
AcDbEntity
  8
001
  6
CONTINUOUS
 62
     7
100
AcDbLine
 10
1439.99939
 20
625.611572
 30
0.0
 11
1439.99939
 21
618.611572
 31
0.0
  0
LINE
  5
17D
100
AcDbEntity
  8
001
  6
CONTINUOUS
 62
     7
100
AcDbLine
 10
1423.99939
 20
625.611572
 30
0.0
 11
1423.99939
 21
618.611572
 31
0.0
  0
LINE
  5
17E
100
AcDbEntity
  8
001
  6
CONTINUOUS
 62
     7
100
AcDbLine
 10
1417.99939
 20
605.611572
 30
0.0
 11
1445.99939
 21
605.611572
 31
0.0
  0
LINE
  5
17F
100
AcDbEntity
  8
001
  6
CONTINUOUS
 62
     7
100
AcDbLine
 10
1445.99939
 20
602.611572
 30
0.0
 11
1445.99939
 21
605.611572
 31
0.0
  0
LINE
  5
180
100
AcDbEntity
  8
001
  6
CONTINUOUS
 62
     7
100
AcDbLine
 10
1417.99939
 20
602.85376
 30
0.0
 11
1417.99939
 21
605.611572
 31
0.0
  0
LINE
  5
181
100
AcDbEntity
  8
001
  6
CONTINUOUS
 62
     7
100
AcDbLine
 10
1417.99939
 20
572.103638
 30
0.0
 11
1445.99939
 21
572.103638
 31
0.0
  0
LINE
  5
182
100
AcDbEntity
  8
001
  6
CONTINUOUS
 62
     7
100
AcDbLine
 10
1445.99939
 20
575.103638
 30
0.0
 11
1445.99939
 21
572.103638
 31
0.0
  0
ARC
  5
183
100
AcDbEntity
  8
001
  6
CONTINUOUS
 62
     7
100
AcDbCircle
 10
1431.999512
 20
585.320615
 30
0.0
 40
22.928265
100
AcDbArc
 50
252.412364
 51
287.587636
  0
ARC
  5
184
100
AcDbEntity
  8
001
  6
CONTINUOUS
 62
     7
100
AcDbCircle
 10
1421.607264
 20
568.526292
 30
0.0
 40
6.134002
100
AcDbArc
 50
244.382919
 51
304.384584
  0
LINE
  5
185
100
AcDbEntity
  8
001
  6
CONTINUOUS
 62
     7
100
AcDbLine
 10
1443.49939
 20
562.103638
 30
0.0
 11
1420.49939
 21
562.103638
 31
0.0
  0
LINE
  5
186
100
AcDbEntity
  8
001
  6
CONTINUOUS
 62
     7
100
AcDbLine
 10
1438.927612
 20
563.464111
 30
0.0
 11
1438.927612
 21
572.103638
 31
0.0
  0
LINE
  5
187
100
AcDbEntity
  8
001
  6
CONTINUOUS
 62
     7
100
AcDbLine
 10
1425.071411
 20
563.464111
 30
0.0
 11
1425.071411
 21
572.103638
 31
0.0
  0
ARC
  5
188
100
AcDbEntity
  8
001
  6
CONTINUOUS
 62
     7
100
AcDbCircle
 10
1442.391759
 20
568.526292
 30
0.0
 40
6.134002
100
AcDbArc
 50
235.615416
 51
295.617081
  0
LINE
  5
189
100
AcDbEntity
  8
001
  6
CONTINUOUS
 62
     7
100
AcDbLine
 10
1443.49939
 20
562.103638
 30
0.0
 11
1445.855835
 21
563.464111
 31
0.0
  0
LINE
  5
18A
100
AcDbEntity
  8
001
  6
CONTINUOUS
 62
     7
100
AcDbLine
 10
1445.855835
 20
563.464111
 30
0.0
 11
1445.855835
 21
572.103638
 31
0.0
  0
LINE
  5
18B
100
AcDbEntity
  8
001
  6
CONTINUOUS
 62
     7
100
AcDbLine
 10
1418.142944
 20
563.464111
 30
0.0
 11
1418.142944
 21
572.103638
 31
0.0
  0
LINE
  5
18C
100
AcDbEntity
  8
001
  6
CONTINUOUS
 62
     7
100
AcDbLine
 10
1420.49939
 20
562.103638
 30
0.0
 11
1418.142944
 21
563.464111
 31
0.0
  0
LINE
  5
18D
100
AcDbEntity
  8
001
  6
CONTINUOUS
 62
     7
100
AcDbLine
 10
1417.99939
 20
575.103638
 30
0.0
 11
1417.99939
 21
572.103638
 31
0.0
  0
LINE
  5
18E
100
AcDbEntity
  8
001
  6
CONTINUOUS
 62
     7
100
AcDbLine
 10
1574.705322
 20
620.85376
 30
0.0
 11
1530.957275
 21
620.85376
 31
0.0
  0
LINE
  5
18F
100
AcDbEntity
  8
001
  6
CONTINUOUS
 62
     7
100
AcDbLine
 10
1514.957275
 20
620.85376
 30
0.0
 11
1439.99939
 21
620.85376
 31
0.0
  0
LINE
  5
190
100
AcDbEntity
  8
001
  6
CONTINUOUS
 62
     7
100
AcDbLine
 10
1423.99939
 20
620.85376
 30
0.0
 11
1380.526123
 21
620.85376
 31
0.0
  0
ARC
  5
191
100
AcDbEntity
  8
001
  6
CONTINUOUS
 62
     7
100
AcDbCircle
 10
1367.640172
 20
612.188918
 30
0.0
 40
6.134002
100
AcDbArc
 50
64.382919
 51
124.384584
  0
ARC
  5
192
100
AcDbEntity
  8
001
  6
CONTINUOUS
 62
     7
100
AcDbCircle
 10
1357.247925
 20
595.394595
 30
0.0
 40
22.928265
100
AcDbArc
 50
72.412364
 51
107.587636
  0
ARC
  5
193
100
AcDbEntity
  8
001
  6
CONTINUOUS
 62
     7
100
AcDbCircle
 10
1346.855677
 20
612.188918
 30
0.0
 40
6.134002
100
AcDbArc
 50
55.615416
 51
115.617081
  0
LINE
  5
194
100
AcDbEntity
  8
001
  6
CONTINUOUS
 62
     7
100
AcDbLine
 10
1368.748047
 20
618.611572
 30
0.0
 11
1371.104492
 21
617.251099
 31
0.0
  0
LINE
  5
195
100
AcDbEntity
  8
001
  6
CONTINUOUS
 62
     7
100
AcDbLine
 10
1345.748047
 20
618.611572
 30
0.0
 11
1343.391602
 21
617.251099
 31
0.0
  0
LINE
  5
196
100
AcDbEntity
  8
001
  6
CONTINUOUS
 62
     7
100
AcDbLine
 10
1368.748047
 20
618.611572
 30
0.0
 11
1345.748047
 21
618.611572
 31
0.0
  0
LINE
  5
197
100
AcDbEntity
  8
001
  6
CONTINUOUS
 62
     7
100
AcDbLine
 10
1371.104492
 20
617.251099
 30
0.0
 11
1371.104492
 21
605.611572
 31
0.0
  0
LINE
  5
198
100
AcDbEntity
  8
001
  6
CONTINUOUS
 62
     7
100
AcDbLine
 10
1364.176025
 20
617.251099
 30
0.0
 11
1364.176025
 21
605.611572
 31
0.0
  0
LINE
  5
199
100
AcDbEntity
  8
001
  6
CONTINUOUS
 62
     7
100
AcDbLine
 10
1350.319824
 20
617.251099
 30
0.0
 11
1350.319824
 21
605.611572
 31
0.0
  0
LINE
  5
19A
100
AcDbEntity
  8
001
  6
CONTINUOUS
 62
     7
100
AcDbLine
 10
1343.391602
 20
617.251099
 30
0.0
 11
1343.391602
 21
605.611572
 31
0.0
  0
LINE
  5
19B
100
AcDbEntity
  8
001
  6
CONTINUOUS
 62
     7
100
AcDbLine
 10
1365.248047
 20
625.611572
 30
0.0
 11
1349.248047
 21
625.611572
 31
0.0
  0
ARC
  5
19C
100
AcDbEntity
  8
001
  6
CONTINUOUS
 62
     7
100
AcDbCircle
 10
1357.248047
 20
610.61125
 30
0.0
 40
17.000284
100
AcDbArc
 50
61.928024
 51
118.071976
  0
LINE
  5
19D
100
AcDbEntity
  8
001
  6
CONTINUOUS
 62
     7
100
AcDbLine
 10
1349.248047
 20
625.611572
 30
0.0
 11
1349.248047
 21
618.611572
 31
0.0
  0
LINE
  5
19E
100
AcDbEntity
  8
001
  6
CONTINUOUS
 62
     7
100
AcDbLine
 10
1365.248047
 20
625.611572
 30
0.0
 11
1365.248047
 21
618.611572
 31
0.0
  0
LINE
  5
19F
100
AcDbEntity
  8
001
  6
CONTINUOUS
 62
     7
100
AcDbLine
 10
1371.248047
 20
605.611572
 30
0.0
 11
1343.248047
 21
605.611572
 31
0.0
  0
LINE
  5
1A0
100
AcDbEntity
  8
001
  6
CONTINUOUS
 62
     7
100
AcDbLine
 10
1371.248047
 20
602.85376
 30
0.0
 11
1371.248047
 21
605.611572
 31
0.0
  0
LINE
  5
1A1
100
AcDbEntity
  8
001
  6
CONTINUOUS
 62
     7
100
AcDbLine
 10
1371.248047
 20
572.103638
 30
0.0
 11
1343.248047
 21
572.103638
 31
0.0
  0
LINE
  5
1A2
100
AcDbEntity
  8
001
  6
CONTINUOUS
 62
     7
100
AcDbLine
 10
1343.248047
 20
575.103638
 30
0.0
 11
1343.248047
 21
572.103638
 31
0.0
  0
ARC
  5
1A3
100
AcDbEntity
  8
001
  6
CONTINUOUS
 62
     7
100
AcDbCircle
 10
1357.247925
 20
585.320615
 30
0.0
 40
22.928265
100
AcDbArc
 50
252.412364
 51
287.587636
  0
ARC
  5
1A4
100
AcDbEntity
  8
001
  6
CONTINUOUS
 62
     7
100
AcDbCircle
 10
1367.640172
 20
568.526292
 30
0.0
 40
6.134002
100
AcDbArc
 50
235.615416
 51
295.617081
  0
LINE
  5
1A5
100
AcDbEntity
  8
001
  6
CONTINUOUS
 62
     7
100
AcDbLine
 10
1345.748047
 20
562.103638
 30
0.0
 11
1368.748047
 21
562.103638
 31
0.0
  0
LINE
  5
1A6
100
AcDbEntity
  8
001
  6
CONTINUOUS
 62
     7
100
AcDbLine
 10
1350.319824
 20
563.464111
 30
0.0
 11
1350.319824
 21
572.103638
 31
0.0
  0
LINE
  5
1A7
100
AcDbEntity
  8
001
  6
CONTINUOUS
 62
     7
100
AcDbLine
 10
1364.176025
 20
563.464111
 30
0.0
 11
1364.176025
 21
572.103638
 31
0.0
  0
ARC
  5
1A8
100
AcDbEntity
  8
001
  6
CONTINUOUS
 62
     7
100
AcDbCircle
 10
1346.855677
 20
568.526292
 30
0.0
 40
6.134002
100
AcDbArc
 50
244.382919
 51
304.384584
  0
LINE
  5
1A9
100
AcDbEntity
  8
001
  6
CONTINUOUS
 62
     7
100
AcDbLine
 10
1345.748047
 20
562.103638
 30
0.0
 11
1343.391602
 21
563.464111
 31
0.0
  0
LINE
  5
1AA
100
AcDbEntity
  8
001
  6
CONTINUOUS
 62
     7
100
AcDbLine
 10
1343.391602
 20
563.464111
 30
0.0
 11
1343.391602
 21
572.103638
 31
0.0
  0
LINE
  5
1AB
100
AcDbEntity
  8
001
  6
CONTINUOUS
 62
     7
100
AcDbLine
 10
1371.104492
 20
563.464111
 30
0.0
 11
1371.104492
 21
572.103638
 31
0.0
  0
LINE
  5
1AC
100
AcDbEntity
  8
001
  6
CONTINUOUS
 62
     7
100
AcDbLine
 10
1368.748047
 20
562.103638
 30
0.0
 11
1371.104492
 21
563.464111
 31
0.0
  0
LINE
  5
1AD
100
AcDbEntity
  8
001
  6
CONTINUOUS
 62
     7
100
AcDbLine
 10
1371.248047
 20
575.103638
 30
0.0
 11
1371.248047
 21
572.103638
 31
0.0
  0
LINE
  5
1AE
100
AcDbEntity
  8
001
  6
CONTINUOUS
 62
     7
100
AcDbLine
 10
1371.104492
 20
563.771729
 30
0.0
 11
1373.478394
 21
556.353638
 31
0.0
  0
ARC
  5
1AF
100
AcDbEntity
  8
001
  6
CONTINUOUS
 62
     7
100
AcDbCircle
 10
1369.478394
 20
607.853788
 30
0.0
 40
5.0
100
AcDbArc
 50
290.727921
 51
0.0
  0
LINE
  5
1B0
100
AcDbEntity
  8
001
  6
CONTINUOUS
 62
     7
100
AcDbLine
 10
1343.248047
 20
602.85376
 30
0.0
 11
1343.248047
 21
605.611572
 31
0.0
  0
LINE
  5
1B1
100
AcDbEntity
  8
001
  6
CONTINUOUS
 62
     7
100
AcDbLine
 10
1611.70874
 20
602.85376
 30
0.0
 11
1611.70874
 21
605.611572
 31
0.0
  0
LINE
  5
1B2
100
AcDbEntity
  8
001
  6
CONTINUOUS
 62
     7
100
AcDbLine
 10
930.478394
 20
556.353638
 30
0.0
 11
930.478394
 21
497.416992
 31
0.0
  0
LINE
  5
1B3
100
AcDbEntity
  8
001
  6
CONTINUOUS
 62
     7
100
AcDbLine
 10
804.478394
 20
556.353638
 30
0.0
 11
804.478394
 21
497.416992
 31
0.0
  0
LINE
  5
1B4
100
AcDbEntity
  8
001
  6
CONTINUOUS
 62
     7
100
AcDbLine
 10
934.698669
 20
569.54187
 30
0.0
 11
930.478394
 21
556.353638
 31
0.0
  0
ARC
  5
1B5
100
AcDbEntity
  8
001
  6
CONTINUOUS
 62
     7
100
AcDbCircle
 10
968.478394
 20
578.103638
 30
0.0
 40
3.0
100
AcDbArc
 50
270.0
 51
0.0
  0
ARC
  5
1B6
100
AcDbEntity
  8
001
  6
CONTINUOUS
 62
     7
100
AcDbCircle
 10
968.478394
 20
587.103638
 30
0.0
 40
3.0
100
AcDbArc
 50
0.0
 51
90.0
  0
ARC
  5
1B7
100
AcDbEntity
  8
001
  6
CONTINUOUS
 62
     7
100
AcDbCircle
 10
968.478394
 20
593.103638
 30
0.0
 40
3.0
100
AcDbArc
 50
270.0
 51
0.0
  0
LINE
  5
1B8
100
AcDbEntity
  8
001
  6
CONTINUOUS
 62
     7
100
AcDbLine
 10
971.478394
 20
587.103638
 30
0.0
 11
971.478394
 21
578.103638
 31
0.0
  0
ARC
  5
1B9
100
AcDbEntity
  8
001
  6
CONTINUOUS
 62
     7
100
AcDbCircle
 10
968.478394
 20
599.85376
 30
0.0
 40
3.0
100
AcDbArc
 50
0.0
 51
90.0
  0
LINE
  5
1BA
100
AcDbEntity
  8
001
  6
CONTINUOUS
 62
     7
100
AcDbLine
 10
971.478394
 20
593.103638
 30
0.0
 11
971.478394
 21
599.85376
 31
0.0
  0
LINE
  5
1BB
100
AcDbEntity
  8
001
  6
CONTINUOUS
 62
     7
100
AcDbLine
 10
928.478394
 20
620.85376
 30
0.0
 11
932.103638
 21
609.750122
 31
0.0
  0
LINE
  5
1BC
100
AcDbEntity
  8
001
  6
CONTINUOUS
 62
     7
100
AcDbLine
 10
810.405151
 20
556.353638
 30
0.0
 11
925.555786
 21
556.353638
 31
0.0
  0
LINE
  5
1BD
100
AcDbEntity
  8
001
  6
CONTINUOUS
 62
     7
100
AcDbLine
 10
800.258179
 20
569.54187
 30
0.0
 11
804.478394
 21
556.353638
 31
0.0
  0
ARC
  5
1BE
100
AcDbEntity
  8
001
  6
CONTINUOUS
 62
     7
100
AcDbCircle
 10
766.478394
 20
578.103638
 30
0.0
 40
3.0
100
AcDbArc
 50
180.0
 51
270.0
  0
ARC
  5
1BF
100
AcDbEntity
  8
001
  6
CONTINUOUS
 62
     7
100
AcDbCircle
 10
766.478394
 20
587.103638
 30
0.0
 40
3.0
100
AcDbArc
 50
90.0
 51
180.0
  0
LINE
  5
1C0
100
AcDbEntity
  8
001
  6
CONTINUOUS
 62
     7
100
AcDbLine
 10
763.478394
 20
587.103638
 30
0.0
 11
763.478394
 21
578.103638
 31
0.0
  0
ARC
  5
1C1
100
AcDbEntity
  8
001
  6
CONTINUOUS
 62
     7
100
AcDbCircle
 10
766.478394
 20
593.103638
 30
0.0
 40
3.0
100
AcDbArc
 50
180.0
 51
270.0
  0
ARC
  5
1C2
100
AcDbEntity
  8
001
  6
CONTINUOUS
 62
     7
100
AcDbCircle
 10
766.478394
 20
599.85376
 30
0.0
 40
3.0
100
AcDbArc
 50
90.0
 51
180.0
  0
LINE
  5
1C3
100
AcDbEntity
  8
001
  6
CONTINUOUS
 62
     7
100
AcDbLine
 10
763.478394
 20
593.103638
 30
0.0
 11
763.478394
 21
599.85376
 31
0.0
  0
LINE
  5
1C4
100
AcDbEntity
  8
001
  6
CONTINUOUS
 62
     7
100
AcDbLine
 10
806.478394
 20
620.85376
 30
0.0
 11
802.85321
 21
609.750122
 31
0.0
  0
LINE
  5
1C5
100
AcDbEntity
  8
001
  6
CONTINUOUS
 62
     7
100
AcDbLine
 10
766.478394
 20
602.85376
 30
0.0
 11
968.478394
 21
602.85376
 31
0.0
  0
LINE
  5
1C6
100
AcDbEntity
  8
001
  6
CONTINUOUS
 62
     7
100
AcDbLine
 10
968.478394
 20
590.103638
 30
0.0
 11
766.478394
 21
590.103638
 31
0.0
  0
LINE
  5
1C7
100
AcDbEntity
  8
001
  6
CONTINUOUS
 62
     7
100
AcDbLine
 10
766.478394
 20
575.103638
 30
0.0
 11
968.478394
 21
575.103638
 31
0.0
  0
LINE
  5
1C8
100
AcDbEntity
  8
001
  6
CONTINUOUS
 62
     7
100
AcDbLine
 10
930.47821
 20
497.416992
 30
0.0
 11
891.734009
 21
322.652161
 31
0.0
  0
LINE
  5
1C9
100
AcDbEntity
  8
001
  6
CONTINUOUS
 62
     7
100
AcDbLine
 10
804.478394
 20
497.416992
 30
0.0
 11
843.223083
 21
322.652161
 31
0.0
  0
ARC
  5
1CA
100
AcDbEntity
  8
001
  6
CONTINUOUS
 62
     7
100
AcDbCircle
 10
908.300966
 20
668.577237
 30
0.0
 40
17.000002
100
AcDbArc
 50
18.970565
 51
55.901664
  0
LINE
  5
1CB
100
AcDbEntity
  8
001
  6
CONTINUOUS
 62
     7
100
AcDbLine
 10
924.377625
 20
674.103638
 30
0.0
 11
928.478394
 21
662.174194
 31
0.0
  0
ARC
  5
1CC
100
AcDbEntity
  8
001
  6
CONTINUOUS
 62
     7
100
AcDbCircle
 10
923.437867
 20
690.935149
 30
0.0
 40
10.000001
100
AcDbArc
 50
179.999117
 51
235.900036
  0
ARC
  5
1CD
100
AcDbEntity
  8
001
  6
CONTINUOUS
 62
     7
100
AcDbCircle
 10
811.518981
 20
690.935149
 30
0.0
 40
10.000001
100
AcDbArc
 50
304.099964
 51
0.000883
  0
ARC
  5
1CE
100
AcDbEntity
  8
001
  6
CONTINUOUS
 62
     7
100
AcDbCircle
 10
826.655883
 20
668.577237
 30
0.0
 40
17.000002
100
AcDbArc
 50
124.098336
 51
161.029435
  0
LINE
  5
1CF
100
AcDbEntity
  8
001
  6
CONTINUOUS
 62
     7
100
AcDbLine
 10
810.579224
 20
674.103638
 30
0.0
 11
806.478394
 21
662.174194
 31
0.0
  0
LINE
  5
1D0
100
AcDbEntity
  8
001
  6
CONTINUOUS
 62
     7
100
AcDbLine
 10
928.478394
 20
662.174194
 30
0.0
 11
928.478394
 21
620.85376
 31
0.0
  0
LINE
  5
1D1
100
AcDbEntity
  8
001
  6
CONTINUOUS
 62
     7
100
AcDbLine
 10
806.478394
 20
662.174194
 30
0.0
 11
806.478394
 21
620.85376
 31
0.0
  0
ARC
  5
1D2
100
AcDbEntity
  8
001
  6
CONTINUOUS
 62
     7
100
AcDbCircle
 10
874.07097
 20
647.728394
 30
0.0
 40
2.0
100
AcDbArc
 50
270.00564
 51
357.285269
  0
LINE
  5
1D3
100
AcDbEntity
  8
001
  6
CONTINUOUS
 62
     7
100
AcDbLine
 10
877.800903
 20
684.170166
 30
0.0
 11
876.068726
 21
647.633667
 31
0.0
  0
LINE
  5
1D4
100
AcDbEntity
  8
001
  6
CONTINUOUS
 62
     7
100
AcDbLine
 10
877.800903
 20
684.170166
 30
0.0
 11
881.666138
 21
692.701965
 31
0.0
  0
ARC
  5
1D5
100
AcDbEntity
  8
001
  6
CONTINUOUS
 62
     7
100
AcDbCircle
 10
883.943399
 20
691.670288
 30
0.0
 40
2.5
100
AcDbArc
 50
90.002312
 51
155.627273
  0
LINE
  5
1D6
100
AcDbEntity
  8
001
  6
CONTINUOUS
 62
     7
100
AcDbLine
 10
879.58374
 20
672.150391
 30
0.0
 11
876.911011
 21
665.398193
 31
0.0
  0
ARC
  5
1D7
100
AcDbEntity
  8
001
  6
CONTINUOUS
 62
     7
100
AcDbCircle
 10
880.978394
 20
671.598021
 30
0.0
 40
1.5
100
AcDbArc
 50
0.011715
 51
158.392488
  0
LINE
  5
1D8
100
AcDbEntity
  8
001
  6
CONTINUOUS
 62
     7
100
AcDbLine
 10
882.478394
 20
691.09729
 30
0.0
 11
882.478394
 21
665.398193
 31
0.0
  0
ARC
  5
1D9
100
AcDbEntity
  8
001
  6
CONTINUOUS
 62
     7
100
AcDbCircle
 10
860.885878
 20
647.728394
 30
0.0
 40
2.0
100
AcDbArc
 50
182.714731
 51
269.992612
  0
LINE
  5
1DA
100
AcDbEntity
  8
001
  6
CONTINUOUS
 62
     7
100
AcDbLine
 10
857.155884
 20
684.170166
 30
0.0
 11
858.888062
 21
647.633667
 31
0.0
  0
LINE
  5
1DB
100
AcDbEntity
  8
001
  6
CONTINUOUS
 62
     7
100
AcDbLine
 10
855.373169
 20
672.150391
 30
0.0
 11
858.045959
 21
665.398193
 31
0.0
  0
ARC
  5
1DC
100
AcDbEntity
  8
001
  6
CONTINUOUS
 62
     7
100
AcDbCircle
 10
853.978394
 20
671.598638
 30
0.0
 40
1.5
100
AcDbArc
 50
21.582174
 51
180.011845
  0
LINE
  5
1DD
100
AcDbEntity
  8
001
  6
CONTINUOUS
 62
     7
100
AcDbLine
 10
852.478394
 20
691.09729
 30
0.0
 11
852.478394
 21
665.398193
 31
0.0
  0
LINE
  5
1DE
100
AcDbEntity
  8
001
  6
CONTINUOUS
 62
     7
100
AcDbLine
 10
857.155884
 20
684.170166
 30
0.0
 11
853.29071
 21
692.701965
 31
0.0
  0
ARC
  5
1DF
100
AcDbEntity
  8
001
  6
CONTINUOUS
 62
     7
100
AcDbCircle
 10
851.013449
 20
691.670288
 30
0.0
 40
2.5
100
AcDbArc
 50
24.372727
 51
89.997688
  0
LINE
  5
1E0
100
AcDbEntity
  8
001
  6
CONTINUOUS
 62
     7
100
AcDbLine
 10
860.88562
 20
645.728394
 30
0.0
 11
874.071167
 21
645.728394
 31
0.0
  0
LINE
  5
1E1
100
AcDbEntity
  8
001
  6
CONTINUOUS
 62
     7
100
AcDbLine
 10
858.791504
 20
684.95752
 30
0.0
 11
876.208008
 21
684.95752
 31
0.0
  0
LINE
  5
1E2
100
AcDbEntity
  8
001
  6
CONTINUOUS
 62
     7
100
AcDbLine
 10
855.074829
 20
695.174561
 30
0.0
 11
879.967896
 21
695.174561
 31
0.0
  0
ARC
  5
1E3
100
AcDbEntity
  8
001
  6
CONTINUOUS
 62
     7
100
AcDbCircle
 10
905.978394
 20
744.85376
 30
0.0
 40
4.0
100
AcDbArc
 50
0.001749
 51
90.0
  0
LINE
  5
1E4
100
AcDbEntity
  8
001
  6
CONTINUOUS
 62
     7
100
AcDbLine
 10
828.978394
 20
748.85376
 30
0.0
 11
905.978394
 21
748.85376
 31
0.0
  0
ARC
  5
1E5
100
AcDbEntity
  8
001
  6
CONTINUOUS
 62
     7
100
AcDbCircle
 10
920.978394
 20
730.85376
 30
0.0
 40
4.0
100
AcDbArc
 50
0.001749
 51
90.0
  0
LINE
  5
1E6
100
AcDbEntity
  8
001
  6
CONTINUOUS
 62
     7
100
AcDbLine
 10
909.978394
 20
734.85376
 30
0.0
 11
920.97821
 21
734.85376
 31
0.0
  0
LINE
  5
1E7
100
AcDbEntity
  8
001
  6
CONTINUOUS
 62
     7
100
AcDbLine
 10
924.978394
 20
730.853882
 30
0.0
 11
924.978394
 21
700.85376
 31
0.0
  0
LINE
  5
1E8
100
AcDbEntity
  8
001
  6
CONTINUOUS
 62
     7
100
AcDbLine
 10
909.978394
 20
744.853882
 30
0.0
 11
909.978394
 21
700.85376
 31
0.0
  0
ARC
  5
1E9
100
AcDbEntity
  8
001
  6
CONTINUOUS
 62
     7
100
AcDbCircle
 10
828.978394
 20
744.85376
 30
0.0
 40
4.0
100
AcDbArc
 50
90.0
 51
179.998251
  0
LINE
  5
1EA
100
AcDbEntity
  8
001
  6
CONTINUOUS
 62
     7
100
AcDbLine
 10
824.978394
 20
734.85376
 30
0.0
 11
813.978394
 21
734.85376
 31
0.0
  0
ARC
  5
1EB
100
AcDbEntity
  8
001
  6
CONTINUOUS
 62
     7
100
AcDbCircle
 10
813.978394
 20
730.85376
 30
0.0
 40
4.0
100
AcDbArc
 50
90.0
 51
179.998251
  0
LINE
  5
1EC
100
AcDbEntity
  8
001
  6
CONTINUOUS
 62
     7
100
AcDbLine
 10
824.978394
 20
700.85376
 30
0.0
 11
824.978394
 21
744.853882
 31
0.0
  0
LINE
  5
1ED
100
AcDbEntity
  8
001
  6
CONTINUOUS
 62
     7
100
AcDbLine
 10
809.978394
 20
730.853882
 30
0.0
 11
809.978394
 21
700.85376
 31
0.0
  0
LINE
  5
1EE
100
AcDbEntity
  8
001
  6
CONTINUOUS
 62
     7
100
AcDbLine
 10
924.978394
 20
700.85376
 30
0.0
 11
809.978394
 21
700.85376
 31
0.0
  0
LINE
  5
1EF
100
AcDbEntity
  8
001
  6
CONTINUOUS
 62
     7
100
AcDbLine
 10
913.437622
 20
690.935303
 30
0.0
 11
913.437622
 21
700.85376
 31
0.0
  0
LINE
  5
1F0
100
AcDbEntity
  8
001
  6
CONTINUOUS
 62
     7
100
AcDbLine
 10
821.518921
 20
690.935303
 30
0.0
 11
821.518921
 21
700.85376
 31
0.0
  0
ARC
  5
1F1
100
AcDbEntity
  8
001
  6
CONTINUOUS
 62
     7
100
AcDbCircle
 10
917.437622
 20
639.524109
 30
0.0
 40
5.0
100
AcDbArc
 50
180.0
 51
270.0
  0
ARC
  5
1F2
100
AcDbEntity
  8
001
  6
CONTINUOUS
 62
     7
100
AcDbCircle
 10
817.518921
 20
639.524109
 30
0.0
 40
5.0
100
AcDbArc
 50
270.0
 51
0.0
  0
LINE
  5
1F3
100
AcDbEntity
  8
001
  6
CONTINUOUS
 62
     7
100
AcDbLine
 10
832.478394
 20
640.524109
 30
0.0
 11
904.411621
 21
640.524109
 31
0.0
  0
LINE
  5
1F4
100
AcDbEntity
  8
001
  6
CONTINUOUS
 62
     7
100
AcDbLine
 10
912.437622
 20
700.85376
 30
0.0
 11
912.437622
 21
639.524109
 31
0.0
  0
LINE
  5
1F5
100
AcDbEntity
  8
001
  6
CONTINUOUS
 62
     7
100
AcDbLine
 10
822.518921
 20
700.85376
 30
0.0
 11
822.518921
 21
639.524109
 31
0.0
  0
LINE
  5
1F6
100
AcDbEntity
  8
001
  6
CONTINUOUS
 62
     7
100
AcDbLine
 10
966.146667
 20
572.103516
 30
0.0
 11
938.146362
 21
572.103516
 31
0.0
  0
LINE
  5
1F7
100
AcDbEntity
  8
001
  6
CONTINUOUS
 62
     7
100
AcDbLine
 10
966.146667
 20
575.103638
 30
0.0
 11
966.146667
 21
572.103516
 31
0.0
  0
ARC
  5
1F8
100
AcDbEntity
  8
001
  6
CONTINUOUS
 62
     7
100
AcDbCircle
 10
946.146637
 20
579.722397
 30
0.0
 40
17.330189
100
AcDbArc
 50
249.744025
 51
290.255975
  0
ARC
  5
1F9
100
AcDbEntity
  8
001
  6
CONTINUOUS
 62
     7
100
AcDbCircle
 10
958.146637
 20
579.722397
 30
0.0
 40
17.330189
100
AcDbArc
 50
249.744025
 51
290.255975
  0
LINE
  5
1FA
100
AcDbEntity
  8
001
  6
CONTINUOUS
 62
     7
100
AcDbLine
 10
940.146667
 20
562.392212
 30
0.0
 11
940.646667
 21
562.103516
 31
0.0
  0
LINE
  5
1FB
100
AcDbEntity
  8
001
  6
CONTINUOUS
 62
     7
100
AcDbLine
 10
964.146667
 20
562.392212
 30
0.0
 11
963.646667
 21
562.103516
 31
0.0
  0
LINE
  5
1FC
100
AcDbEntity
  8
001
  6
CONTINUOUS
 62
     7
100
AcDbLine
 10
940.646667
 20
562.103516
 30
0.0
 11
963.646667
 21
562.103516
 31
0.0
  0
LINE
  5
1FD
100
AcDbEntity
  8
001
  6
CONTINUOUS
 62
     7
100
AcDbLine
 10
964.146667
 20
562.392212
 30
0.0
 11
964.146667
 21
572.103516
 31
0.0
  0
LINE
  5
1FE
100
AcDbEntity
  8
001
  6
CONTINUOUS
 62
     7
100
AcDbLine
 10
952.146667
 20
563.463989
 30
0.0
 11
952.146667
 21
572.103516
 31
0.0
  0
LINE
  5
1FF
100
AcDbEntity
  8
001
  6
CONTINUOUS
 62
     7
100
AcDbLine
 10
940.146667
 20
562.392212
 30
0.0
 11
940.146667
 21
572.103516
 31
0.0
  0
LINE
  5
200
100
AcDbEntity
  8
001
  6
CONTINUOUS
 62
     7
100
AcDbLine
 10
938.146362
 20
575.103638
 30
0.0
 11
938.146362
 21
572.103516
 31
0.0
  0
LINE
  5
201
100
AcDbEntity
  8
001
  6
CONTINUOUS
 62
     7
100
AcDbLine
 10
966.146667
 20
605.85376
 30
0.0
 11
938.146362
 21
605.85376
 31
0.0
  0
LINE
  5
202
100
AcDbEntity
  8
001
  6
CONTINUOUS
 62
     7
100
AcDbLine
 10
960.146667
 20
625.85376
 30
0.0
 11
944.146362
 21
625.85376
 31
0.0
  0
ARC
  5
203
100
AcDbEntity
  8
001
  6
CONTINUOUS
 62
     7
100
AcDbCircle
 10
952.146515
 20
610.853519
 30
0.0
 40
17.000284
100
AcDbArc
 50
61.927441
 51
118.072559
  0
LINE
  5
204
100
AcDbEntity
  8
001
  6
CONTINUOUS
 62
     7
100
AcDbLine
 10
960.146667
 20
625.85376
 30
0.0
 11
960.146667
 21
618.85376
 31
0.0
  0
LINE
  5
205
100
AcDbEntity
  8
001
  6
CONTINUOUS
 62
     7
100
AcDbLine
 10
944.146362
 20
625.85376
 30
0.0
 11
944.146362
 21
618.85376
 31
0.0
  0
LINE
  5
206
100
AcDbEntity
  8
001
  6
CONTINUOUS
 62
     7
100
AcDbLine
 10
966.146667
 20
602.85376
 30
0.0
 11
966.146667
 21
605.85376
 31
0.0
  0
LINE
  5
207
100
AcDbEntity
  8
001
  6
CONTINUOUS
 62
     7
100
AcDbLine
 10
938.146362
 20
603.083618
 30
0.0
 11
938.146362
 21
605.85376
 31
0.0
  0
ARC
  5
208
100
AcDbEntity
  8
001
  6
CONTINUOUS
 62
     7
100
AcDbCircle
 10
958.146637
 20
601.234879
 30
0.0
 40
17.330189
100
AcDbArc
 50
69.744025
 51
110.255975
  0
ARC
  5
209
100
AcDbEntity
  8
001
  6
CONTINUOUS
 62
     7
100
AcDbCircle
 10
946.146637
 20
601.234879
 30
0.0
 40
17.330189
100
AcDbArc
 50
69.744025
 51
110.255975
  0
LINE
  5
20A
100
AcDbEntity
  8
001
  6
CONTINUOUS
 62
     7
100
AcDbLine
 10
964.146667
 20
618.565063
 30
0.0
 11
963.646667
 21
618.85376
 31
0.0
  0
LINE
  5
20B
100
AcDbEntity
  8
001
  6
CONTINUOUS
 62
     7
100
AcDbLine
 10
940.146667
 20
618.565063
 30
0.0
 11
940.646667
 21
618.85376
 31
0.0
  0
LINE
  5
20C
100
AcDbEntity
  8
001
  6
CONTINUOUS
 62
     7
100
AcDbLine
 10
963.646667
 20
618.85376
 30
0.0
 11
940.646667
 21
618.85376
 31
0.0
  0
LINE
  5
20D
100
AcDbEntity
  8
001
  6
CONTINUOUS
 62
     7
100
AcDbLine
 10
940.146667
 20
618.565063
 30
0.0
 11
940.146667
 21
605.85376
 31
0.0
  0
LINE
  5
20E
100
AcDbEntity
  8
001
  6
CONTINUOUS
 62
     7
100
AcDbLine
 10
952.146667
 20
617.493286
 30
0.0
 11
952.146667
 21
605.85376
 31
0.0
  0
LINE
  5
20F
100
AcDbEntity
  8
001
  6
CONTINUOUS
 62
     7
100
AcDbLine
 10
964.146667
 20
618.565063
 30
0.0
 11
964.146667
 21
605.85376
 31
0.0
  0
LINE
  5
210
100
AcDbEntity
  8
001
  6
CONTINUOUS
 62
     7
100
AcDbLine
 10
925.030518
 20
572.103516
 30
0.0
 11
897.030334
 21
572.103516
 31
0.0
  0
LINE
  5
211
100
AcDbEntity
  8
001
  6
CONTINUOUS
 62
     7
100
AcDbLine
 10
925.030518
 20
575.103638
 30
0.0
 11
925.030518
 21
572.103516
 31
0.0
  0
ARC
  5
212
100
AcDbEntity
  8
001
  6
CONTINUOUS
 62
     7
100
AcDbCircle
 10
905.030548
 20
579.722397
 30
0.0
 40
17.330189
100
AcDbArc
 50
249.744025
 51
290.255975
  0
ARC
  5
213
100
AcDbEntity
  8
001
  6
CONTINUOUS
 62
     7
100
AcDbCircle
 10
917.030548
 20
579.722397
 30
0.0
 40
17.330189
100
AcDbArc
 50
249.744025
 51
290.255975
  0
LINE
  5
214
100
AcDbEntity
  8
001
  6
CONTINUOUS
 62
     7
100
AcDbLine
 10
899.030518
 20
562.392212
 30
0.0
 11
899.530518
 21
562.103516
 31
0.0
  0
LINE
  5
215
100
AcDbEntity
  8
001
  6
CONTINUOUS
 62
     7
100
AcDbLine
 10
923.030518
 20
562.392212
 30
0.0
 11
922.530518
 21
562.103516
 31
0.0
  0
LINE
  5
216
100
AcDbEntity
  8
001
  6
CONTINUOUS
 62
     7
100
AcDbLine
 10
899.530518
 20
562.103516
 30
0.0
 11
922.530518
 21
562.103516
 31
0.0
  0
LINE
  5
217
100
AcDbEntity
  8
001
  6
CONTINUOUS
 62
     7
100
AcDbLine
 10
923.030518
 20
562.392212
 30
0.0
 11
923.030518
 21
572.103516
 31
0.0
  0
LINE
  5
218
100
AcDbEntity
  8
001
  6
CONTINUOUS
 62
     7
100
AcDbLine
 10
911.030518
 20
563.463989
 30
0.0
 11
911.030518
 21
572.103516
 31
0.0
  0
LINE
  5
219
100
AcDbEntity
  8
001
  6
CONTINUOUS
 62
     7
100
AcDbLine
 10
899.030518
 20
562.392212
 30
0.0
 11
899.030518
 21
572.103516
 31
0.0
  0
LINE
  5
21A
100
AcDbEntity
  8
001
  6
CONTINUOUS
 62
     7
100
AcDbLine
 10
897.030334
 20
575.103638
 30
0.0
 11
897.030334
 21
572.103516
 31
0.0
  0
LINE
  5
21B
100
AcDbEntity
  8
001
  6
CONTINUOUS
 62
     7
100
AcDbLine
 10
925.030518
 20
605.85376
 30
0.0
 11
897.030334
 21
605.85376
 31
0.0
  0
LINE
  5
21C
100
AcDbEntity
  8
001
  6
CONTINUOUS
 62
     7
100
AcDbLine
 10
919.030518
 20
625.85376
 30
0.0
 11
903.030334
 21
625.85376
 31
0.0
  0
ARC
  5
21D
100
AcDbEntity
  8
001
  6
CONTINUOUS
 62
     7
100
AcDbCircle
 10
911.030426
 20
610.853519
 30
0.0
 40
17.000284
100
AcDbArc
 50
61.927441
 51
118.072559
  0
LINE
  5
21E
100
AcDbEntity
  8
001
  6
CONTINUOUS
 62
     7
100
AcDbLine
 10
919.030518
 20
625.85376
 30
0.0
 11
919.030518
 21
618.85376
 31
0.0
  0
LINE
  5
21F
100
AcDbEntity
  8
001
  6
CONTINUOUS
 62
     7
100
AcDbLine
 10
903.030334
 20
625.85376
 30
0.0
 11
903.030334
 21
618.85376
 31
0.0
  0
LINE
  5
220
100
AcDbEntity
  8
001
  6
CONTINUOUS
 62
     7
100
AcDbLine
 10
925.030518
 20
602.85376
 30
0.0
 11
925.030518
 21
605.85376
 31
0.0
  0
LINE
  5
221
100
AcDbEntity
  8
001
  6
CONTINUOUS
 62
     7
100
AcDbLine
 10
897.030334
 20
603.083618
 30
0.0
 11
897.030334
 21
605.85376
 31
0.0
  0
ARC
  5
222
100
AcDbEntity
  8
001
  6
CONTINUOUS
 62
     7
100
AcDbCircle
 10
917.030548
 20
601.234879
 30
0.0
 40
17.330189
100
AcDbArc
 50
69.744025
 51
110.255975
  0
ARC
  5
223
100
AcDbEntity
  8
001
  6
CONTINUOUS
 62
     7
100
AcDbCircle
 10
905.030548
 20
601.234879
 30
0.0
 40
17.330189
100
AcDbArc
 50
69.744025
 51
110.255975
  0
LINE
  5
224
100
AcDbEntity
  8
001
  6
CONTINUOUS
 62
     7
100
AcDbLine
 10
923.030518
 20
618.565063
 30
0.0
 11
922.530518
 21
618.85376
 31
0.0
  0
LINE
  5
225
100
AcDbEntity
  8
001
  6
CONTINUOUS
 62
     7
100
AcDbLine
 10
899.030518
 20
618.565063
 30
0.0
 11
899.530518
 21
618.85376
 31
0.0
  0
LINE
  5
226
100
AcDbEntity
  8
001
  6
CONTINUOUS
 62
     7
100
AcDbLine
 10
922.530518
 20
618.85376
 30
0.0
 11
899.530518
 21
618.85376
 31
0.0
  0
LINE
  5
227
100
AcDbEntity
  8
001
  6
CONTINUOUS
 62
     7
100
AcDbLine
 10
899.030518
 20
618.565063
 30
0.0
 11
899.030518
 21
605.85376
 31
0.0
  0
LINE
  5
228
100
AcDbEntity
  8
001
  6
CONTINUOUS
 62
     7
100
AcDbLine
 10
911.030518
 20
617.493286
 30
0.0
 11
911.030518
 21
605.85376
 31
0.0
  0
LINE
  5
229
100
AcDbEntity
  8
001
  6
CONTINUOUS
 62
     7
100
AcDbLine
 10
923.030518
 20
618.565063
 30
0.0
 11
923.030518
 21
605.85376
 31
0.0
  0
LINE
  5
22A
100
AcDbEntity
  8
001
  6
CONTINUOUS
 62
     7
100
AcDbLine
 10
837.92627
 20
572.103516
 30
0.0
 11
809.926086
 21
572.103516
 31
0.0
  0
LINE
  5
22B
100
AcDbEntity
  8
001
  6
CONTINUOUS
 62
     7
100
AcDbLine
 10
837.92627
 20
575.103638
 30
0.0
 11
837.92627
 21
572.103516
 31
0.0
  0
ARC
  5
22C
100
AcDbEntity
  8
001
  6
CONTINUOUS
 62
     7
100
AcDbCircle
 10
817.9263
 20
579.722397
 30
0.0
 40
17.330189
100
AcDbArc
 50
249.744025
 51
290.255975
  0
ARC
  5
22D
100
AcDbEntity
  8
001
  6
CONTINUOUS
 62
     7
100
AcDbCircle
 10
829.9263
 20
579.722397
 30
0.0
 40
17.330189
100
AcDbArc
 50
249.744025
 51
290.255975
  0
LINE
  5
22E
100
AcDbEntity
  8
001
  6
CONTINUOUS
 62
     7
100
AcDbLine
 10
811.92627
 20
562.392212
 30
0.0
 11
812.42627
 21
562.103516
 31
0.0
  0
LINE
  5
22F
100
AcDbEntity
  8
001
  6
CONTINUOUS
 62
     7
100
AcDbLine
 10
835.92627
 20
562.392212
 30
0.0
 11
835.42627
 21
562.103516
 31
0.0
  0
LINE
  5
230
100
AcDbEntity
  8
001
  6
CONTINUOUS
 62
     7
100
AcDbLine
 10
812.42627
 20
562.103516
 30
0.0
 11
835.42627
 21
562.103516
 31
0.0
  0
LINE
  5
231
100
AcDbEntity
  8
001
  6
CONTINUOUS
 62
     7
100
AcDbLine
 10
835.92627
 20
562.392212
 30
0.0
 11
835.92627
 21
572.103516
 31
0.0
  0
LINE
  5
232
100
AcDbEntity
  8
001
  6
CONTINUOUS
 62
     7
100
AcDbLine
 10
823.92627
 20
563.463989
 30
0.0
 11
823.92627
 21
572.103516
 31
0.0
  0
LINE
  5
233
100
AcDbEntity
  8
001
  6
CONTINUOUS
 62
     7
100
AcDbLine
 10
811.92627
 20
562.392212
 30
0.0
 11
811.92627
 21
572.103516
 31
0.0
  0
LINE
  5
234
100
AcDbEntity
  8
001
  6
CONTINUOUS
 62
     7
100
AcDbLine
 10
809.926086
 20
575.103638
 30
0.0
 11
809.926086
 21
572.103516
 31
0.0
  0
LINE
  5
235
100
AcDbEntity
  8
001
  6
CONTINUOUS
 62
     7
100
AcDbLine
 10
837.92627
 20
605.85376
 30
0.0
 11
809.926086
 21
605.85376
 31
0.0
  0
LINE
  5
236
100
AcDbEntity
  8
001
  6
CONTINUOUS
 62
     7
100
AcDbLine
 10
831.92627
 20
625.85376
 30
0.0
 11
815.926086
 21
625.85376
 31
0.0
  0
ARC
  5
237
100
AcDbEntity
  8
001
  6
CONTINUOUS
 62
     7
100
AcDbCircle
 10
823.926178
 20
610.853519
 30
0.0
 40
17.000284
100
AcDbArc
 50
61.927441
 51
118.072559
  0
LINE
  5
238
100
AcDbEntity
  8
001
  6
CONTINUOUS
 62
     7
100
AcDbLine
 10
831.92627
 20
625.85376
 30
0.0
 11
831.92627
 21
618.85376
 31
0.0
  0
LINE
  5
239
100
AcDbEntity
  8
001
  6
CONTINUOUS
 62
     7
100
AcDbLine
 10
815.926086
 20
625.85376
 30
0.0
 11
815.926086
 21
618.85376
 31
0.0
  0
LINE
  5
23A
100
AcDbEntity
  8
001
  6
CONTINUOUS
 62
     7
100
AcDbLine
 10
837.92627
 20
602.85376
 30
0.0
 11
837.92627
 21
605.85376
 31
0.0
  0
LINE
  5
23B
100
AcDbEntity
  8
001
  6
CONTINUOUS
 62
     7
100
AcDbLine
 10
809.926086
 20
603.083618
 30
0.0
 11
809.926086
 21
605.85376
 31
0.0
  0
ARC
  5
23C
100
AcDbEntity
  8
001
  6
CONTINUOUS
 62
     7
100
AcDbCircle
 10
829.9263
 20
601.234879
 30
0.0
 40
17.330189
100
AcDbArc
 50
69.744025
 51
110.255975
  0
ARC
  5
23D
100
AcDbEntity
  8
001
  6
CONTINUOUS
 62
     7
100
AcDbCircle
 10
817.9263
 20
601.234879
 30
0.0
 40
17.330189
100
AcDbArc
 50
69.744025
 51
110.255975
  0
LINE
  5
23E
100
AcDbEntity
  8
001
  6
CONTINUOUS
 62
     7
100
AcDbLine
 10
835.92627
 20
618.565063
 30
0.0
 11
835.42627
 21
618.85376
 31
0.0
  0
LINE
  5
23F
100
AcDbEntity
  8
001
  6
CONTINUOUS
 62
     7
100
AcDbLine
 10
811.92627
 20
618.565063
 30
0.0
 11
812.42627
 21
618.85376
 31
0.0
  0
LINE
  5
240
100
AcDbEntity
  8
001
  6
CONTINUOUS
 62
     7
100
AcDbLine
 10
835.42627
 20
618.85376
 30
0.0
 11
812.42627
 21
618.85376
 31
0.0
  0
LINE
  5
241
100
AcDbEntity
  8
001
  6
CONTINUOUS
 62
     7
100
AcDbLine
 10
811.92627
 20
618.565063
 30
0.0
 11
811.92627
 21
605.85376
 31
0.0
  0
LINE
  5
242
100
AcDbEntity
  8
001
  6
CONTINUOUS
 62
     7
100
AcDbLine
 10
823.92627
 20
617.493286
 30
0.0
 11
823.92627
 21
605.85376
 31
0.0
  0
LINE
  5
243
100
AcDbEntity
  8
001
  6
CONTINUOUS
 62
     7
100
AcDbLine
 10
835.92627
 20
618.565063
 30
0.0
 11
835.92627
 21
605.85376
 31
0.0
  0
ARC
  5
244
100
AcDbEntity
  8
001
  6
CONTINUOUS
 62
     7
100
AcDbCircle
 10
941.609845
 20
612.853862
 30
0.0
 40
10.000001
100
AcDbArc
 50
198.081768
 51
249.736253
  0
ARC
  5
245
100
AcDbEntity
  8
001
  6
CONTINUOUS
 62
     7
100
AcDbCircle
 10
942.317992
 20
567.103634
 30
0.0
 40
8.0
100
AcDbArc
 50
121.429813
 51
162.2551
  0
LINE
  5
246
100
AcDbEntity
  8
001
  6
CONTINUOUS
 62
     7
100
AcDbLine
 10
768.810181
 20
575.103638
 30
0.0
 11
768.810181
 21
572.103516
 31
0.0
  0
LINE
  5
247
100
AcDbEntity
  8
001
  6
CONTINUOUS
 62
     7
100
AcDbLine
 10
796.810425
 20
575.103638
 30
0.0
 11
796.810425
 21
572.103516
 31
0.0
  0
ARC
  5
248
100
AcDbEntity
  8
001
  6
CONTINUOUS
 62
     7
100
AcDbCircle
 10
792.63878
 20
567.10368
 30
0.0
 40
8.0
100
AcDbArc
 50
17.744551
 51
58.56955
  0
LINE
  5
249
100
AcDbEntity
  8
001
  6
CONTINUOUS
 62
     7
100
AcDbLine
 10
768.810181
 20
572.103516
 30
0.0
 11
796.810425
 21
572.103516
 31
0.0
  0
ARC
  5
24A
100
AcDbEntity
  8
001
  6
CONTINUOUS
 62
     7
100
AcDbCircle
 10
788.810211
 20
579.722397
 30
0.0
 40
17.330189
100
AcDbArc
 50
249.744025
 51
290.255975
  0
ARC
  5
24B
100
AcDbEntity
  8
001
  6
CONTINUOUS
 62
     7
100
AcDbCircle
 10
776.810211
 20
579.722397
 30
0.0
 40
17.330189
100
AcDbArc
 50
249.744025
 51
290.255975
  0
LINE
  5
24C
100
AcDbEntity
  8
001
  6
CONTINUOUS
 62
     7
100
AcDbLine
 10
794.810181
 20
562.392212
 30
0.0
 11
794.310181
 21
562.103516
 31
0.0
  0
LINE
  5
24D
100
AcDbEntity
  8
001
  6
CONTINUOUS
 62
     7
100
AcDbLine
 10
770.810181
 20
562.392212
 30
0.0
 11
771.310181
 21
562.103516
 31
0.0
  0
LINE
  5
24E
100
AcDbEntity
  8
001
  6
CONTINUOUS
 62
     7
100
AcDbLine
 10
794.310181
 20
562.103516
 30
0.0
 11
771.310181
 21
562.103516
 31
0.0
  0
LINE
  5
24F
100
AcDbEntity
  8
001
  6
CONTINUOUS
 62
     7
100
AcDbLine
 10
770.810181
 20
562.392212
 30
0.0
 11
770.810181
 21
572.103516
 31
0.0
  0
LINE
  5
250
100
AcDbEntity
  8
001
  6
CONTINUOUS
 62
     7
100
AcDbLine
 10
782.810181
 20
563.463989
 30
0.0
 11
782.810181
 21
572.103516
 31
0.0
  0
LINE
  5
251
100
AcDbEntity
  8
001
  6
CONTINUOUS
 62
     7
100
AcDbLine
 10
794.810181
 20
562.392212
 30
0.0
 11
794.810181
 21
572.103516
 31
0.0
  0
LINE
  5
252
100
AcDbEntity
  8
001
  6
CONTINUOUS
 62
     7
100
AcDbLine
 10
768.810181
 20
605.85376
 30
0.0
 11
796.810425
 21
605.85376
 31
0.0
  0
LINE
  5
253
100
AcDbEntity
  8
001
  6
CONTINUOUS
 62
     7
100
AcDbLine
 10
774.810181
 20
625.85376
 30
0.0
 11
790.810425
 21
625.85376
 31
0.0
  0
ARC
  5
254
100
AcDbEntity
  8
001
  6
CONTINUOUS
 62
     7
100
AcDbCircle
 10
782.810333
 20
610.853519
 30
0.0
 40
17.000284
100
AcDbArc
 50
61.927441
 51
118.072559
  0
LINE
  5
255
100
AcDbEntity
  8
001
  6
CONTINUOUS
 62
     7
100
AcDbLine
 10
774.810181
 20
625.85376
 30
0.0
 11
774.810181
 21
618.85376
 31
0.0
  0
LINE
  5
256
100
AcDbEntity
  8
001
  6
CONTINUOUS
 62
     7
100
AcDbLine
 10
790.810425
 20
625.85376
 30
0.0
 11
790.810425
 21
618.85376
 31
0.0
  0
LINE
  5
257
100
AcDbEntity
  8
001
  6
CONTINUOUS
 62
     7
100
AcDbLine
 10
768.810181
 20
602.85376
 30
0.0
 11
768.810181
 21
605.85376
 31
0.0
  0
LINE
  5
258
100
AcDbEntity
  8
001
  6
CONTINUOUS
 62
     7
100
AcDbLine
 10
796.810425
 20
603.083618
 30
0.0
 11
796.810425
 21
605.85376
 31
0.0
  0
ARC
  5
259
100
AcDbEntity
  8
001
  6
CONTINUOUS
 62
     7
100
AcDbCircle
 10
776.810211
 20
601.234879
 30
0.0
 40
17.330189
100
AcDbArc
 50
69.744025
 51
110.255975
  0
ARC
  5
25A
100
AcDbEntity
  8
001
  6
CONTINUOUS
 62
     7
100
AcDbCircle
 10
788.810211
 20
601.234879
 30
0.0
 40
17.330189
100
AcDbArc
 50
69.744025
 51
110.255975
  0
LINE
  5
25B
100
AcDbEntity
  8
001
  6
CONTINUOUS
 62
     7
100
AcDbLine
 10
770.810181
 20
618.565063
 30
0.0
 11
771.310181
 21
618.85376
 31
0.0
  0
LINE
  5
25C
100
AcDbEntity
  8
001
  6
CONTINUOUS
 62
     7
100
AcDbLine
 10
794.810181
 20
618.565063
 30
0.0
 11
794.310181
 21
618.85376
 31
0.0
  0
LINE
  5
25D
100
AcDbEntity
  8
001
  6
CONTINUOUS
 62
     7
100
AcDbLine
 10
771.310181
 20
618.85376
 30
0.0
 11
794.310181
 21
618.85376
 31
0.0
  0
LINE
  5
25E
100
AcDbEntity
  8
001
  6
CONTINUOUS
 62
     7
100
AcDbLine
 10
794.810181
 20
618.565063
 30
0.0
 11
794.810181
 21
605.85376
 31
0.0
  0
LINE
  5
25F
100
AcDbEntity
  8
001
  6
CONTINUOUS
 62
     7
100
AcDbLine
 10
782.810181
 20
617.493286
 30
0.0
 11
782.810181
 21
605.85376
 31
0.0
  0
LINE
  5
260
100
AcDbEntity
  8
001
  6
CONTINUOUS
 62
     7
100
AcDbLine
 10
770.810181
 20
618.565063
 30
0.0
 11
770.810181
 21
605.85376
 31
0.0
  0
ARC
  5
261
100
AcDbEntity
  8
001
  6
CONTINUOUS
 62
     7
100
AcDbCircle
 10
793.347003
 20
612.853862
 30
0.0
 40
10.000001
100
AcDbArc
 50
290.263747
 51
341.918232
  0
LINE
  5
262
100
AcDbEntity
  8
001
  6
CONTINUOUS
 62
     7
100
AcDbLine
 10
806.478394
 20
620.85376
 30
0.0
 11
815.926086
 21
620.85376
 31
0.0
  0
LINE
  5
263
100
AcDbEntity
  8
001
  6
CONTINUOUS
 62
     7
100
AcDbLine
 10
831.92627
 20
620.85376
 30
0.0
 11
903.030334
 21
620.85376
 31
0.0
  0
LINE
  5
264
100
AcDbEntity
  8
001
  6
CONTINUOUS
 62
     7
100
AcDbLine
 10
919.030518
 20
620.85376
 30
0.0
 11
928.478394
 21
620.85376
 31
0.0
  0
CIRCLE
  5
265
100
AcDbEntity
  8
001
  6
CONTINUOUS
 62
     7
100
AcDbCircle
 10
867.478394
 20
757.103516
 30
0.0
 40
5.0
  0
LINE
  5
266
100
AcDbEntity
  8
001
  6
CONTINUOUS
 62
     7
100
AcDbLine
 10
864.978394
 20
755.660156
 30
0.0
 11
867.478394
 21
754.216797
 31
0.0
  0
LINE
  5
267
100
AcDbEntity
  8
001
  6
CONTINUOUS
 62
     7
100
AcDbLine
 10
864.978394
 20
758.546875
 30
0.0
 11
864.978394
 21
755.660156
 31
0.0
  0
LINE
  5
268
100
AcDbEntity
  8
001
  6
CONTINUOUS
 62
     7
100
AcDbLine
 10
867.478394
 20
759.990295
 30
0.0
 11
864.978394
 21
758.546875
 31
0.0
  0
LINE
  5
269
100
AcDbEntity
  8
001
  6
CONTINUOUS
 62
     7
100
AcDbLine
 10
869.978394
 20
758.546875
 30
0.0
 11
867.478394
 21
759.990295
 31
0.0
  0
LINE
  5
26A
100
AcDbEntity
  8
001
  6
CONTINUOUS
 62
     7
100
AcDbLine
 10
867.478394
 20
754.216797
 30
0.0
 11
869.978394
 21
755.660156
 31
0.0
  0
LINE
  5
26B
100
AcDbEntity
  8
001
  6
CONTINUOUS
 62
     7
100
AcDbLine
 10
869.978394
 20
755.660156
 30
0.0
 11
869.978394
 21
758.546875
 31
0.0
  0
LINE
  5
26C
100
AcDbEntity
  8
001
  6
CONTINUOUS
 62
     7
100
AcDbLine
 10
1477.478394
 20
830.103638
 30
0.0
 11
1460.728394
 21
830.103638
 31
0.0
  0
LINE
  5
26D
100
AcDbEntity
  8
001
  6
CONTINUOUS
 62
     7
100
AcDbLine
 10
1460.728394
 20
830.103638
 30
0.0
 11
1460.728394
 21
782.103516
 31
0.0
  0
ARC
  5
26F
100
AcDbEntity
  8
001
  6
CONTINUOUS
 62
     7
100
AcDbCircle
 10
1462.728394
 20
782.103516
 30
0.0
 40
2.0
100
AcDbArc
 50
180.0
 51
270.0
  0
LINE
  5
276
100
AcDbEntity
  8
001
  6
CONTINUOUS
 62
     7
100
AcDbLine
 10
1069.478394
 20
533.603638
 30
0.0
 11
1082.478394
 21
533.603638
 31
0.0
  0
ARC
  5
277
100
AcDbEntity
  8
001
  6
CONTINUOUS
 62
     7
100
AcDbCircle
 10
1069.478394
 20
526.603638
 30
0.0
 40
7.0
100
AcDbArc
 50
90.0
 51
180.0
  0
LINE
  5
278
100
AcDbEntity
  8
001
  6
CONTINUOUS
 62
     7
100
AcDbLine
 10
1057.914185
 20
493.203644
 30
0.0
 11
997.971008
 21
487.95929
 31
0.0
  0
ARC
  5
279
100
AcDbEntity
  8
001
  6
CONTINUOUS
 62
     7
100
AcDbCircle
 10
1057.478394
 20
498.184616
 30
0.0
 40
5.0
100
AcDbArc
 50
275.000142
 51
0.000173
  0
ARC
  5
27A
100
AcDbEntity
  8
001
  6
CONTINUOUS
 62
     7
100
AcDbCircle
 10
1000.062742
 20
464.050616
 30
0.0
 40
24.0
100
AcDbArc
 50
94.99999
 51
126.378489
  0
ARC
  5
27B
100
AcDbEntity
  8
001
  6
CONTINUOUS
 62
     7
100
AcDbCircle
 10
959.137666
 20
519.603638
 30
0.0
 40
45.0
100
AcDbArc
 50
270.000037
 51
306.378531
  0
CIRCLE
  5
27C
100
AcDbEntity
  8
001
  6
CONTINUOUS
 62
     7
100
AcDbCircle
 10
1477.478394
 20
390.103638
 30
0.0
 40
75.0
  0
CIRCLE
  5
27D
100
AcDbEntity
  8
001
  6
CONTINUOUS
 62
     7
100
AcDbCircle
 10
1477.478394
 20
390.103638
 30
0.0
 40
86.25
  0
CIRCLE
  5
27E
100
AcDbEntity
  8
001
  6
CONTINUOUS
 62
     7
100
AcDbCircle
 10
1477.478394
 20
390.103638
 30
0.0
 40
89.909576
  0
CIRCLE
  5
27F
100
AcDbEntity
  8
001
  6
CONTINUOUS
 62
     7
100
AcDbCircle
 10
1477.478394
 20
390.103638
 30
0.0
 40
101.5
  0
LINE
  5
280
100
AcDbEntity
  8
001
  6
CONTINUOUS
 62
     7
100
AcDbLine
 10
937.880371
 20
474.603638
 30
0.0
 11
959.137695
 21
474.603638
 31
0.0
  0
LINE
  5
281
100
AcDbEntity
  8
001
  6
CONTINUOUS
 62
     7
100
AcDbLine
 10
1057.914185
 20
287.003632
 30
0.0
 11
997.971008
 21
292.247986
 31
0.0
  0
ARC
  5
282
100
AcDbEntity
  8
001
  6
CONTINUOUS
 62
     7
100
AcDbCircle
 10
1057.478394
 20
282.022659
 30
0.0
 40
5.0
100
AcDbArc
 50
0.000176
 51
84.999858
  0
ARC
  5
283
100
AcDbEntity
  8
001
  6
CONTINUOUS
 62
     7
100
AcDbCircle
 10
1000.062742
 20
316.156659
 30
0.0
 40
24.0
100
AcDbArc
 50
233.621511
 51
265.00001
  0
ARC
  5
284
100
AcDbEntity
  8
001
  6
CONTINUOUS
 62
     7
100
AcDbCircle
 10
959.137666
 20
260.603638
 30
0.0
 40
45.0
100
AcDbArc
 50
53.621469
 51
89.999963
  0
LINE
  5
285
100
AcDbEntity
  8
001
  6
CONTINUOUS
 62
     7
100
AcDbLine
 10
1062.478394
 20
253.103653
 30
0.0
 11
1062.478394
 21
526.603638
 31
0.0
  0
ARC
  5
286
100
AcDbEntity
  8
001
  6
CONTINUOUS
 62
     7
100
AcDbCircle
 10
937.88033
 20
484.603638
 30
0.0
 40
10.0
100
AcDbArc
 50
167.499988
 51
270.000234
  0
ARC
  5
287
100
AcDbEntity
  8
001
  6
CONTINUOUS
 62
     7
100
AcDbCircle
 10
797.076281
 20
484.603638
 30
0.0
 40
10.0
100
AcDbArc
 50
270.000077
 51
12.500191
  0
LINE
  5
288
100
AcDbEntity
  8
001
  6
CONTINUOUS
 62
     7
100
AcDbLine
 10
1082.478394
 20
246.103653
 30
0.0
 11
1082.478394
 21
533.603638
 31
0.0
  0
LINE
  5
289
100
AcDbEntity
  8
001
  6
CONTINUOUS
 62
     7
100
AcDbLine
 10
990.469238
 20
474.246918
 30
0.0
 11
990.469238
 21
305.960358
 31
0.0
  0
LINE
  5
28A
100
AcDbEntity
  8
001
  6
CONTINUOUS
 62
     7
100
AcDbLine
 10
1069.478394
 20
1080.103638
 30
0.0
 11
1082.478394
 21
1080.103638
 31
0.0
  0
ARC
  5
28B
100
AcDbEntity
  8
001
  6
CONTINUOUS
 62
     7
100
AcDbCircle
 10
1069.478394
 20
1087.103638
 30
0.0
 40
7.0
100
AcDbArc
 50
180.0
 51
270.0
  0
LINE
  5
28C
100
AcDbEntity
  8
001
  6
CONTINUOUS
 62
     7
100
AcDbLine
 10
1057.914185
 20
1120.503662
 30
0.0
 11
997.971008
 21
1125.748047
 31
0.0
  0
ARC
  5
28D
100
AcDbEntity
  8
001
  6
CONTINUOUS
 62
     7
100
AcDbCircle
 10
1057.478394
 20
1115.52269
 30
0.0
 40
5.0
100
AcDbArc
 50
0.000176
 51
84.999858
  0
ARC
  5
28E
100
AcDbEntity
  8
001
  6
CONTINUOUS
 62
     7
100
AcDbCircle
 10
1000.062648
 20
1149.656728
 30
0.0
 40
24.0
100
AcDbArc
 50
233.621789
 51
265.000236
  0
ARC
  5
28F
100
AcDbEntity
  8
001
  6
CONTINUOUS
 62
     7
100
AcDbCircle
 10
959.13768
 20
1094.103628
 30
0.0
 40
45.0
100
AcDbArc
 50
53.621491
 51
82.605341
  0
LINE
  5
290
100
AcDbEntity
  8
001
  6
CONTINUOUS
 62
     7
100
AcDbLine
 10
1069.478394
 20
1367.103638
 30
0.0
 11
1082.478394
 21
1367.103638
 31
0.0
  0
ARC
  5
291
100
AcDbEntity
  8
001
  6
CONTINUOUS
 62
     7
100
AcDbCircle
 10
1069.478394
 20
1360.103638
 30
0.0
 40
7.0
100
AcDbArc
 50
90.0
 51
180.0
  0
LINE
  5
292
100
AcDbEntity
  8
001
  6
CONTINUOUS
 62
     7
100
AcDbLine
 10
1057.914185
 20
1326.703613
 30
0.0
 11
997.971008
 21
1321.459351
 31
0.0
  0
ARC
  5
293
100
AcDbEntity
  8
001
  6
CONTINUOUS
 62
     7
100
AcDbCircle
 10
1057.478394
 20
1331.684586
 30
0.0
 40
5.0
100
AcDbArc
 50
275.000142
 51
0.0
  0
ARC
  5
294
100
AcDbEntity
  8
001
  6
CONTINUOUS
 62
     7
100
AcDbCircle
 10
1000.062836
 20
1297.550686
 30
0.0
 40
24.0
100
AcDbArc
 50
95.000215
 51
126.378768
  0
ARC
  5
295
100
AcDbEntity
  8
001
  6
CONTINUOUS
 62
     7
100
AcDbCircle
 10
959.137654
 20
1353.103628
 30
0.0
 40
45.0
100
AcDbArc
 50
277.394849
 51
306.37855
  0
LINE
  5
296
100
AcDbEntity
  8
001
  6
CONTINUOUS
 62
     7
100
AcDbLine
 10
1062.478394
 20
1087.103638
 30
0.0
 11
1062.478394
 21
1360.103638
 31
0.0
  0
LINE
  5
297
100
AcDbEntity
  8
001
  6
CONTINUOUS
 62
     7
100
AcDbLine
 10
1082.478394
 20
1080.103638
 30
0.0
 11
1082.478394
 21
1367.103638
 31
0.0
  0
LINE
  5
298
100
AcDbEntity
  8
001
  6
CONTINUOUS
 62
     7
100
AcDbLine
 10
990.469238
 20
1139.460327
 30
0.0
 11
990.469238
 21
1307.746948
 31
0.0
  0
LINE
  5
299
100
AcDbEntity
  8
001
  6
CONTINUOUS
 62
     7
100
AcDbLine
 10
1082.478394
 20
246.103653
 30
0.0
 11
1069.478394
 21
246.103653
 31
0.0
  0
LINE
  5
29A
100
AcDbEntity
  8
001
  6
CONTINUOUS
 62
     7
100
AcDbLine
 10
1409.478394
 20
246.103653
 30
0.0
 11
1545.478394
 21
246.103653
 31
0.0
  0
LINE
  5
29B
100
AcDbEntity
  8
001
  6
CONTINUOUS
 62
     7
100
AcDbLine
 10
1407.478394
 20
263.666901
 30
0.0
 11
1407.478394
 21
248.103653
 31
0.0
  0
LINE
  5
29C
100
AcDbEntity
  8
001
  6
CONTINUOUS
 62
     7
100
AcDbLine
 10
1547.478394
 20
248.103653
 30
0.0
 11
1547.478394
 21
263.666901
 31
0.0
  0
ARC
  5
29D
100
AcDbEntity
  8
001
  6
CONTINUOUS
 62
     7
100
AcDbCircle
 10
1069.478394
 20
253.103653
 30
0.0
 40
7.0
100
AcDbArc
 50
180.0
 51
270.0
  0
LINE
  5
29E
100
AcDbEntity
  8
001
  6
CONTINUOUS
 62
     7
100
AcDbLine
 10
769.478394
 20
246.103653
 30
0.0
 11
780.478394
 21
246.103653
 31
0.0
  0
LINE
  5
29F
100
AcDbEntity
  8
001
  6
CONTINUOUS
 62
     7
100
AcDbLine
 10
767.478394
 20
339.772369
 30
0.0
 11
767.478394
 21
248.103653
 31
0.0
  0
LINE
  5
2A0
100
AcDbEntity
  8
001
  6
CONTINUOUS
 62
     7
100
AcDbLine
 10
782.478394
 20
339.772369
 30
0.0
 11
782.478394
 21
248.103653
 31
0.0
  0
ARC
  5
2A1
100
AcDbEntity
  8
001
  6
CONTINUOUS
 62
     7
100
AcDbCircle
 10
780.478394
 20
248.103653
 30
0.0
 40
2.0
100
AcDbArc
 50
270.0
 51
0.0
  0
ARC
  5
2A2
100
AcDbEntity
  8
001
  6
CONTINUOUS
 62
     7
100
AcDbCircle
 10
769.478394
 20
248.103653
 30
0.0
 40
2.0
100
AcDbArc
 50
180.0
 51
270.0
  0
LINE
  5
2A3
100
AcDbEntity
  8
001
  6
CONTINUOUS
 62
     7
100
AcDbLine
 10
785.478394
 20
305.603638
 30
0.0
 11
959.137695
 21
305.603638
 31
0.0
  0
ARC
  5
2A4
100
AcDbEntity
  8
001
  6
CONTINUOUS
 62
     7
100
AcDbCircle
 10
764.478394
 20
302.603638
 30
0.0
 40
3.0
100
AcDbArc
 50
0.0
 51
90.0
  0
ARC
  5
2A5
100
AcDbEntity
  8
001
  6
CONTINUOUS
 62
     7
100
AcDbCircle
 10
785.478394
 20
302.603638
 30
0.0
 40
3.0
100
AcDbArc
 50
90.0
 51
180.0
  0
ARC
  5
2A6
100
AcDbEntity
  8
001
  6
CONTINUOUS
 62
     7
100
AcDbCircle
 10
1549.478394
 20
263.666877
 30
0.0
 40
2.0
100
AcDbArc
 50
119.657355
 51
179.999312
  0
ARC
  5
2A7
100
AcDbEntity
  8
001
  6
CONTINUOUS
 62
     7
100
AcDbCircle
 10
1477.478455
 20
390.103654
 30
0.0
 40
143.5
100
AcDbArc
 50
299.659556
 51
240.340444
  0
ARC
  5
2A8
100
AcDbEntity
  8
001
  6
CONTINUOUS
 62
     7
100
AcDbCircle
 10
1545.478394
 20
248.103653
 30
0.0
 40
2.0
100
AcDbArc
 50
270.0
 51
0.0
  0
ARC
  5
2A9
100
AcDbEntity
  8
001
  6
CONTINUOUS
 62
     7
100
AcDbCircle
 10
1409.478394
 20
248.103653
 30
0.0
 40
2.0
100
AcDbArc
 50
180.0
 51
270.0
  0
ARC
  5
2AA
100
AcDbEntity
  8
001
  6
CONTINUOUS
 62
     7
100
AcDbCircle
 10
1405.478394
 20
263.666946
 30
0.0
 40
2.0
100
AcDbArc
 50
359.998696
 51
60.338621
  0
LINE
  5
2AB
100
AcDbEntity
  8
001
  6
CONTINUOUS
 62
     7
100
AcDbLine
 10
1079.478394
 20
264.83493
 30
0.0
 11
1065.478394
 21
264.83493
 31
0.0
  0
LINE
  5
2AC
100
AcDbEntity
  8
001
  6
CONTINUOUS
 62
     7
100
AcDbLine
 10
767.478394
 20
342.772369
 30
0.0
 11
782.478394
 21
342.772369
 31
0.0
  0
ARC
  5
2AD
100
AcDbEntity
  8
001
  6
CONTINUOUS
 62
     7
100
AcDbCircle
 10
764.478394
 20
339.772369
 30
0.0
 40
3.0
100
AcDbArc
 50
0.0
 51
90.0
  0
ARC
  5
2AE
100
AcDbEntity
  8
001
  6
CONTINUOUS
 62
     7
100
AcDbCircle
 10
785.478394
 20
339.772369
 30
0.0
 40
3.0
100
AcDbArc
 50
90.0
 51
180.0
  0
CIRCLE
  5
2AF
100
AcDbEntity
  8
001
  6
CONTINUOUS
 62
     7
100
AcDbCircle
 10
1417.228394
 20
494.459717
 30
0.0
 40
11.5
  0
CIRCLE
  5
2B0
100
AcDbEntity
  8
001
  6
CONTINUOUS
 62
     7
100
AcDbCircle
 10
1537.728394
 20
494.459717
 30
0.0
 40
11.5
  0
CIRCLE
  5
2B1
100
AcDbEntity
  8
001
  6
CONTINUOUS
 62
     7
100
AcDbCircle
 10
1597.978394
 20
390.103638
 30
0.0
 40
11.5
  0
CIRCLE
  5
2B2
100
AcDbEntity
  8
001
  6
CONTINUOUS
 62
     7
100
AcDbCircle
 10
1537.728394
 20
285.747589
 30
0.0
 40
11.5
  0
CIRCLE
  5
2B3
100
AcDbEntity
  8
001
  6
CONTINUOUS
 62
     7
100
AcDbCircle
 10
1417.228394
 20
285.747589
 30
0.0
 40
11.5
  0
CIRCLE
  5
2B4
100
AcDbEntity
  8
001
  6
CONTINUOUS
 62
     7
100
AcDbCircle
 10
1356.978394
 20
390.103638
 30
0.0
 40
11.5
  0
LINE
  5
2B5
100
AcDbEntity
  8
001
  6
CONTINUOUS
 62
     7
100
AcDbLine
 10
897.02124
 20
374.6026
 30
0.0
 11
837.93573
 21
374.6026
 31
0.0
  0
ARC
  5
2B6
100
AcDbEntity
  8
001
  6
CONTINUOUS
 62
     7
100
AcDbCircle
 10
837.935737
 20
369.6026
 30
0.0
 40
5.0
100
AcDbArc
 50
90.000077
 51
192.500191
  0
ARC
  5
2B7
100
AcDbEntity
  8
001
  6
CONTINUOUS
 62
     7
100
AcDbCircle
 10
897.021227
 20
369.6026
 30
0.0
 40
5.0
100
AcDbArc
 50
347.500167
 51
89.999846
  0
LINE
  5
2B8
100
AcDbEntity
  8
001
  6
CONTINUOUS
 62
     3
100
AcDbLine
 10
1630.0
 20
80.0
 30
0.0
 11
2025.0
 21
80.0
 31
0.0
  0
LINE
  5
2B9
100
AcDbEntity
  8
001
  6
CONTINUOUS
 62
     2
100
AcDbLine
 10
2025.0
 20
50.0
 30
0.0
 11
1630.0
 21
50.0
 31
0.0
  0
LINE
  5
2BA
100
AcDbEntity
  8
001
  6
CONTINUOUS
 62
     2
100
AcDbLine
 10
2025.0
 20
177.5
 30
0.0
 11
2025.0
 21
50.0
 31
0.0
  0
LINE
  5
2BB
100
AcDbEntity
  8
001
  6
CONTINUOUS
 62
     2
100
AcDbLine
 10
1630.0
 20
177.5
 30
0.0
 11
2025.0
 21
177.5
 31
0.0
  0
LINE
  5
2BC
100
AcDbEntity
  8
001
  6
CONTINUOUS
 62
     2
100
AcDbLine
 10
1630.0
 20
177.5
 30
0.0
 11
1630.0
 21
50.0
 31
0.0
  0
LINE
  5
2BD
100
AcDbEntity
  8
001
  6
CONTINUOUS
 62
     7
100
AcDbLine
 10
332.478424
 20
1308.103638
 30
0.0
 11
769.938538
 21
1308.103638
 31
0.0
  0
LINE
  5
2BE
100
AcDbEntity
  8
001
  6
CONTINUOUS
 62
     7
100
AcDbLine
 10
332.478424
 20
1139.103638
 30
0.0
 11
769.938538
 21
1139.103638
 31
0.0
  0
LINE
  5
2BF
100
AcDbEntity
  8
001
  6
CONTINUOUS
 62
     7
100
AcDbLine
 10
332.478424
 20
474.603638
 30
0.0
 11
797.076294
 21
474.603638
 31
0.0
  0
LINE
  5
2C0
100
AcDbEntity
  8
001
  6
CONTINUOUS
 62
     7
100
AcDbLine
 10
332.478424
 20
305.603638
 30
0.0
 11
764.478394
 21
305.603638
 31
0.0
  0
LINE
  5
2C1
100
AcDbEntity
  8
001
  6
CONTINUOUS
 62
     7
100
AcDbLine
 10
332.478424
 20
474.603638
 30
0.0
 11
332.478424
 21
305.603638
 31
0.0
  0
LINE
  5
2C2
100
AcDbEntity
  8
001
  6
CONTINUOUS
 62
     7
100
AcDbLine
 10
332.478424
 20
1139.103638
 30
0.0
 11
332.478424
 21
1308.103638
 31
0.0
  0
LINE
  5
2C3
100
AcDbEntity
  8
001
  6
DASHDOT
 62
     1
100
AcDbLine
 10
1632.521606
 20
390.103638
 30
0.0
 11
1318.081177
 21
390.103638
 31
0.0
  0
LINE
  5
2C4
100
AcDbEntity
  8
001
  6
DASHDOT
 62
     1
100
AcDbLine
 10
1468.473755
 20
757.103638
 30
0.0
 11
1449.978394
 21
757.103638
 31
0.0
  0
LINE
  5
2C5
100
AcDbEntity
  8
001
  6
DASHDOT
 62
     1
100
AcDbLine
 10
867.478394
 20
1058.827515
 30
0.0
 11
867.478394
 21
1387.214355
 31
0.0
  0
LINE
  5
2C6
100
AcDbEntity
  8
001
  6
DASHDOT
 62
     1
100
AcDbLine
 10
917.984314
 20
1086.849121
 30
0.0
 11
905.637024
 21
1122.258057
 31
0.0
  0
LINE
  5
2C7
100
AcDbEntity
  8
001
  6
DASHDOT
 62
     1
100
AcDbLine
 10
969.589966
 20
1176.717285
 30
0.0
 11
932.211487
 21
1179.733154
 31
0.0
  0
ARC
  5
2C8
100
AcDbEntity
  8
001
  6
DASHDOT
 62
     1
100
AcDbCircle
 10
893.948341
 20
1155.77867
 30
0.0
 40
55.5
100
AcDbArc
 50
287.925913
 51
309.984282
  0
ARC
  5
2C9
100
AcDbEntity
  8
001
  6
DASHDOT
 62
     1
100
AcDbCircle
 10
867.478782
 20
1237.603742
 30
0.0
 40
141.5
100
AcDbArc
 50
280.329592
 51
287.925862
  0
LINE
  5
2CA
100
AcDbEntity
  8
001
  6
DASHDOT
 62
     1
100
AcDbLine
 10
969.589966
 20
1270.48999
 30
0.0
 11
932.211487
 21
1267.474243
 31
0.0
  0
ARC
  5
2CB
100
AcDbEntity
  8
001
  6
DASHDOT
 62
     1
100
AcDbCircle
 10
388.478317
 20
1223.604168
 30
0.0
 40
565.5
100
AcDbArc
 50
2.586321
 51
6.63929
  0
LINE
  5
2CC
100
AcDbEntity
  8
001
  6
DASHDOT
 62
     1
100
AcDbLine
 10
917.984314
 20
1360.358154
 30
0.0
 11
905.637024
 21
1324.949219
 31
0.0
  0
ARC
  5
2CD
100
AcDbEntity
  8
001
  6
DASHDOT
 62
     1
100
AcDbCircle
 10
893.948165
 20
1291.428805
 30
0.0
 40
55.5
100
AcDbArc
 50
50.015399
 51
72.07383
  0
ARC
  5
2CE
100
AcDbEntity
  8
001
  6
DASHDOT
 62
     1
100
AcDbCircle
 10
867.477979
 20
1209.603813
 30
0.0
 40
141.5
100
AcDbArc
 50
72.07377
 51
79.670052
  0
LINE
  5
2CF
100
AcDbEntity
  8
001
  6
DASHDOT
 62
     1
100
AcDbLine
 10
816.972473
 20
1086.849121
 30
0.0
 11
829.319763
 21
1122.258057
 31
0.0
  0
ARC
  5
2D0
100
AcDbEntity
  8
001
  6
DASHDOT
 62
     1
100
AcDbCircle
 10
841.008644
 20
1155.778503
 30
0.0
 40
55.5
100
AcDbArc
 50
230.01545
 51
252.073938
  0
ARC
  5
2D1
100
AcDbEntity
  8
001
  6
DASHDOT
 62
     1
100
AcDbCircle
 10
867.478163
 20
1237.603691
 30
0.0
 40
141.5
100
AcDbArc
 50
252.074071
 51
259.670293
  0
LINE
  5
2D2
100
AcDbEntity
  8
001
  6
DASHDOT
 62
     1
100
AcDbLine
 10
765.366882
 20
1176.717285
 30
0.0
 11
802.7453
 21
1179.733154
 31
0.0
  0
ARC
  5
2D3
100
AcDbEntity
  8
001
  6
DASHDOT
 62
     1
100
AcDbCircle
 10
1346.478508
 20
1223.602373
 30
0.0
 40
565.5
100
AcDbArc
 50
182.586234
 51
186.639203
  0
LINE
  5
2D4
100
AcDbEntity
  8
001
  6
DASHDOT
 62
     1
100
AcDbLine
 10
765.366882
 20
1270.48999
 30
0.0
 11
802.7453
 21
1267.474243
 31
0.0
  0
ARC
  5
2D5
100
AcDbEntity
  8
001
  6
DASHDOT
 62
     1
100
AcDbCircle
 10
1346.478508
 20
1223.605025
 30
0.0
 40
565.5
100
AcDbArc
 50
173.360797
 51
177.413766
  0
LINE
  5
2D6
100
AcDbEntity
  8
001
  6
DASHDOT
 62
     1
100
AcDbLine
 10
816.972473
 20
1360.358154
 30
0.0
 11
829.319763
 21
1324.949219
 31
0.0
  0
ARC
  5
2D7
100
AcDbEntity
  8
001
  6
DASHDOT
 62
     1
100
AcDbCircle
 10
841.008583
 20
1291.428772
 30
0.0
 40
55.5
100
AcDbArc
 50
107.926062
 51
129.98455
  0
ARC
  5
2D8
100
AcDbEntity
  8
001
  6
DASHDOT
 62
     1
100
AcDbCircle
 10
867.478224
 20
1209.603585
 30
0.0
 40
141.5
100
AcDbArc
 50
100.329707
 51
107.925929
  0
LINE
  5
2D9
100
AcDbEntity
  8
001
  6
DASHDOT
 62
     1
100
AcDbLine
 10
1597.70874
 20
632.738525
 30
0.0
 11
1597.70874
 21
557.280029
 31
0.0
  0
LINE
  5
2DA
100
AcDbEntity
  8
001
  6
DASHDOT
 62
     1
100
AcDbLine
 10
1522.957275
 20
632.738525
 30
0.0
 11
1522.957275
 21
557.280029
 31
0.0
  0
LINE
  5
2DB
100
AcDbEntity
  8
001
  6
DASHDOT
 62
     1
100
AcDbLine
 10
1431.99939
 20
632.738525
 30
0.0
 11
1431.99939
 21
557.280029
 31
0.0
  0
LINE
  5
2DC
100
AcDbEntity
  8
001
  6
DASHDOT
 62
     1
100
AcDbLine
 10
1357.248047
 20
632.738525
 30
0.0
 11
1357.248047
 21
557.280029
 31
0.0
  0
LINE
  5
2DD
100
AcDbEntity
  8
001
  6
DASHDOT
 62
     1
100
AcDbLine
 10
952.146667
 20
636.763184
 30
0.0
 11
952.146667
 21
552.774292
 31
0.0
  0
LINE
  5
2DE
100
AcDbEntity
  8
001
  6
DASHDOT
 62
     1
100
AcDbLine
 10
911.030518
 20
636.763184
 30
0.0
 11
911.030518
 21
552.774292
 31
0.0
  0
LINE
  5
2DF
100
AcDbEntity
  8
001
  6
DASHDOT
 62
     1
100
AcDbLine
 10
823.92627
 20
636.763184
 30
0.0
 11
823.92627
 21
552.774292
 31
0.0
  0
LINE
  5
2E0
100
AcDbEntity
  8
001
  6
DASHDOT
 62
     1
100
AcDbLine
 10
782.810181
 20
636.763184
 30
0.0
 11
782.810181
 21
552.774292
 31
0.0
  0
LINE
  5
2E1
100
AcDbEntity
  8
001
  6
DASHDOT
 62
     1
100
AcDbLine
 10
859.360962
 20
757.103516
 30
0.0
 11
875.867554
 21
757.103516
 31
0.0
  0
LINE
  5
2E2
100
AcDbEntity
  8
001
  6
DASHDOT
 62
     1
100
AcDbLine
 10
867.478394
 20
844.862
 30
0.0
 11
867.478394
 21
286.829102
 31
0.0
  0
ARC
  5
2E3
100
AcDbEntity
  8
001
  6
DASHDOT
 62
     1
100
AcDbCircle
 10
388.478317
 20
1223.60323
 30
0.0
 40
565.5
100
AcDbArc
 50
353.36071
 51
357.413679
  0
LINE
  5
2E4
100
AcDbEntity
  8
001
  6
DASHDOT
 62
     1
100
AcDbLine
 10
1107.478394
 20
390.103638
 30
0.0
 11
307.478424
 21
390.103638
 31
0.0
  0
LINE
  5
2E5
100
AcDbEntity
  8
001
  6
DASHDOT
 62
     1
100
AcDbLine
 10
1094.978394
 20
510.603638
 30
0.0
 11
1049.978394
 21
510.603638
 31
0.0
  0
LINE
  5
2E6
100
AcDbEntity
  8
001
  6
DASHDOT
 62
     1
100
AcDbLine
 10
1094.978394
 20
269.603638
 30
0.0
 11
1049.978394
 21
269.603638
 31
0.0
  0
LINE
  5
2E7
100
AcDbEntity
  8
001
  6
DASHDOT
 62
     1
100
AcDbLine
 10
1107.478394
 20
1223.603638
 30
0.0
 11
307.478424
 21
1223.603638
 31
0.0
  0
LINE
  5
2E8
100
AcDbEntity
  8
001
  6
DASHDOT
 62
     1
100
AcDbLine
 10
1094.978394
 20
1103.103638
 30
0.0
 11
1049.978394
 21
1103.103638
 31
0.0
  0
LINE
  5
2E9
100
AcDbEntity
  8
001
  6
DASHDOT
 62
     1
100
AcDbLine
 10
1094.978394
 20
1344.103638
 30
0.0
 11
1049.978394
 21
1344.103638
 31
0.0
  0
CIRCLE
  5
2EA
100
AcDbEntity
  8
001
  6
DASHDOT
 62
     1
100
AcDbCircle
 10
1477.478394
 20
390.103638
 30
0.0
 40
120.5
  0
LINE
  5
2EB
100
AcDbEntity
  8
001
  6
DASHDOT
 62
     1
100
AcDbLine
 10
1426.103394
 20
479.087769
 30
0.0
 11
1408.353394
 21
509.831665
 31
0.0
  0
LINE
  5
2EC
100
AcDbEntity
  8
001
  6
DASHDOT
 62
     1
100
AcDbLine
 10
1528.853394
 20
479.087769
 30
0.0
 11
1546.603394
 21
509.831665
 31
0.0
  0
LINE
  5
2ED
100
AcDbEntity
  8
001
  6
DASHDOT
 62
     1
100
AcDbLine
 10
1528.853394
 20
301.119537
 30
0.0
 11
1546.603394
 21
270.375641
 31
0.0
  0
LINE
  5
2EE
100
AcDbEntity
  8
001
  6
DASHDOT
 62
     1
100
AcDbLine
 10
1426.103394
 20
301.119537
 30
0.0
 11
1408.353394
 21
270.375641
 31
0.0
  0
CIRCLE
  5
2EF
100
AcDbEntity
  8
001
  6
CONTINUOUS
 62
     1
100
AcDbCircle
 10
912.222229
 20
1343.833984
 30
0.0
 40
6.92
  0
CIRCLE
  5
2F0
100
AcDbEntity
  8
001
  6
CONTINUOUS
 62
     1
100
AcDbCircle
 10
822.734558
 20
1343.833984
 30
0.0
 40
6.92
  0
CIRCLE
  5
2F1
100
AcDbEntity
  8
001
  6
CONTINUOUS
 62
     1
100
AcDbCircle
 10
782.810059
 20
1269.082642
 30
0.0
 40
6.92
  0
CIRCLE
  5
2F2
100
AcDbEntity
  8
001
  6
CONTINUOUS
 62
     1
100
AcDbCircle
 10
782.810059
 20
1178.124756
 30
0.0
 40
6.92
  0
CIRCLE
  5
2F3
100
AcDbEntity
  8
001
  6
CONTINUOUS
 62
     1
100
AcDbCircle
 10
822.734558
 20
1103.373291
 30
0.0
 40
6.92
  0
CIRCLE
  5
2F4
100
AcDbEntity
  8
001
  6
CONTINUOUS
 62
     1
100
AcDbCircle
 10
912.222229
 20
1103.373291
 30
0.0
 40
6.92
  0
CIRCLE
  5
2F5
100
AcDbEntity
  8
001
  6
CONTINUOUS
 62
     1
100
AcDbCircle
 10
952.146667
 20
1178.124756
 30
0.0
 40
6.92
  0
CIRCLE
  5
2F6
100
AcDbEntity
  8
001
  6
CONTINUOUS
 62
     1
100
AcDbCircle
 10
952.146667
 20
1269.082642
 30
0.0
 40
6.92
  0
CIRCLE
  5
2F9
100
AcDbEntity
  8
001
  6
CONTINUOUS
 62
     1
100
AcDbCircle
 10
867.478394
 20
757.103516
 30
0.0
 40
4.19
  0
LINE
  5
2FA
100
AcDbEntity
  8
001
  6
CONTINUOUS
 62
     1
100
AcDbLine
 10
775.890259
 20
626.38147
 30
0.0
 11
775.890259
 21
618.85376
 31
0.0
  0
LINE
  5
2FB
100
AcDbEntity
  8
001
  6
CONTINUOUS
 62
     1
100
AcDbLine
 10
789.730347
 20
626.38147
 30
0.0
 11
789.730347
 21
618.85376
 31
0.0
  0
LINE
  5
2FC
100
AcDbEntity
  8
001
  6
CONTINUOUS
 62
     1
100
AcDbLine
 10
817.006104
 20
626.38147
 30
0.0
 11
817.006104
 21
618.85376
 31
0.0
  0
LINE
  5
2FD
100
AcDbEntity
  8
001
  6
CONTINUOUS
 62
     1
100
AcDbLine
 10
830.846252
 20
626.38147
 30
0.0
 11
830.846252
 21
618.85376
 31
0.0
  0
LINE
  5
2FE
100
AcDbEntity
  8
001
  6
CONTINUOUS
 62
     1
100
AcDbLine
 10
904.110352
 20
626.38147
 30
0.0
 11
904.110352
 21
618.85376
 31
0.0
  0
LINE
  5
2FF
100
AcDbEntity
  8
001
  6
CONTINUOUS
 62
     1
100
AcDbLine
 10
917.9505
 20
626.38147
 30
0.0
 11
917.9505
 21
618.85376
 31
0.0
  0
LINE
  5
300
100
AcDbEntity
  8
001
  6
CONTINUOUS
 62
     1
100
AcDbLine
 10
945.226501
 20
626.38147
 30
0.0
 11
945.226501
 21
618.85376
 31
0.0
  0
LINE
  5
301
100
AcDbEntity
  8
001
  6
CONTINUOUS
 62
     1
100
AcDbLine
 10
959.066528
 20
626.38147
 30
0.0
 11
959.066528
 21
618.85376
 31
0.0
  0
LINE
  5
302
100
AcDbEntity
  8
001
  6
CONTINUOUS
 62
     1
100
AcDbLine
 10
1350.327881
 20
626.139404
 30
0.0
 11
1350.327881
 21
618.611572
 31
0.0
  0
LINE
  5
303
100
AcDbEntity
  8
001
  6
CONTINUOUS
 62
     1
100
AcDbLine
 10
1364.167969
 20
626.139404
 30
0.0
 11
1364.167969
 21
618.611572
 31
0.0
  0
LINE
  5
304
100
AcDbEntity
  8
001
  6
CONTINUOUS
 62
     1
100
AcDbLine
 10
1425.079468
 20
626.139404
 30
0.0
 11
1425.079468
 21
618.611572
 31
0.0
  0
LINE
  5
305
100
AcDbEntity
  8
001
  6
CONTINUOUS
 62
     1
100
AcDbLine
 10
1438.919556
 20
626.139404
 30
0.0
 11
1438.919556
 21
618.611572
 31
0.0
  0
LINE
  5
306
100
AcDbEntity
  8
001
  6
CONTINUOUS
 62
     1
100
AcDbLine
 10
1516.037354
 20
626.139404
 30
0.0
 11
1516.037354
 21
618.611572
 31
0.0
  0
LINE
  5
307
100
AcDbEntity
  8
001
  6
CONTINUOUS
 62
     1
100
AcDbLine
 10
1529.877441
 20
626.139404
 30
0.0
 11
1529.877441
 21
618.611572
 31
0.0
  0
LINE
  5
308
100
AcDbEntity
  8
001
  6
CONTINUOUS
 62
     1
100
AcDbLine
 10
1590.788818
 20
626.139404
 30
0.0
 11
1590.788818
 21
618.611572
 31
0.0
  0
LINE
  5
309
100
AcDbEntity
  8
001
  6
CONTINUOUS
 62
     1
100
AcDbLine
 10
1604.628906
 20
626.139404
 30
0.0
 11
1604.628906
 21
618.611572
 31
0.0
  0
LINE
  5
30A
100
AcDbEntity
  8
001
  6
CONTINUOUS
 62
     1
100
AcDbLine
 10
1460.728394
 20
830.103638
 30
0.0
 11
1477.478394
 21
805.103605
 31
0.0
  0
LINE
  5
30B
100
AcDbEntity
  8
001
  6
CONTINUOUS
 62
     1
100
AcDbLine
 10
1477.478394
 20
805.103605
 30
0.0
 11
1461.202271
 21
780.810852
 31
0.0
  0
LINE
  5
30C
100
AcDbEntity
  8
001
  6
DASHDOT
 62
     1
100
AcDbLine
 10
1477.478394
 20
844.862
 30
0.0
 11
1477.478394
 21
225.28569
 31
0.0
  0
TEXT
  5
30D
100
AcDbEntity
  8
001
 62
     3
100
AcDbText
 10
1640.0
 20
145.0
 30
0.0
 40
22.5
  1
ＪＷＷＡ　Ｂ　１２０準拠　%%c１５０
 41
0.670045
 72
     5
 11
1937.5
 21
145.0
 31
0.0
100
AcDbText
  0
TEXT
  5
30E
100
AcDbEntity
  8
001
 62
     3
100
AcDbText
 10
1640.0
 20
115.0
 30
0.0
 40
25.0
  1
浅層埋設対応型　ソフトシール仕切弁
 41
0.675497
 72
     5
 11
1980.0
 21
115.0
 31
0.0
100
AcDbText
  0
TEXT
  5
30F
100
AcDbEntity
  8
001
 62
     3
100
AcDbText
 10
1640.0
 20
90.0
 30
0.0
 40
20.0
  1
Ｋ形受挿し
 41
0.78125
 72
     5
 11
1727.5
 21
90.0
 31
0.0
100
AcDbText
  0
LINE
  5
316
100
AcDbEntity
  8
001
  6
CONTINUOUS
 62
     7
100
AcDbLine
 10
842.478394
 20
773.103638
 30
0.0
 11
842.478394
 21
748.85376
 31
0.0
  0
LINE
  5
317
100
AcDbEntity
  8
001
  6
CONTINUOUS
 62
     7
100
AcDbLine
 10
892.478394
 20
773.103638
 30
0.0
 11
892.478394
 21
748.85376
 31
0.0
  0
LINE
  5
318
100
AcDbEntity
  8
001
  6
CONTINUOUS
 62
     7
100
AcDbLine
 10
1502.478394
 20
778.103638
 30
0.0
 11
1502.478394
 21
745.103638
 31
0.0
  0
LINE
  5
319
100
AcDbEntity
  8
001
  6
CONTINUOUS
 62
     7
100
AcDbLine
 10
1452.478394
 20
778.103638
 30
0.0
 11
1452.478394
 21
745.103638
 31
0.0
  0
LINE
  5
31C
100
AcDbEntity
  8
001
  6
CONTINUOUS
 62
     7
100
AcDbLine
 10
1460.728394
 20
830.103638
 30
0.0
 11
1458.43348
 21
779.103638
 31
0.0
  0
LINE
  5
31E
100
AcDbEntity
  8
001
  6
CONTINUOUS
 62
     7
100
AcDbLine
 10
886.478394
 20
1240.353638
 30
0.0
 11
848.478394
 21
1240.353638
 31
0.0
  0
LINE
  5
31F
100
AcDbEntity
  8
001
  6
CONTINUOUS
 62
     7
100
AcDbLine
 10
886.478394
 20
1206.853638
 30
0.0
 11
848.478394
 21
1206.853638
 31
0.0
  0
LINE
  5
320
100
AcDbEntity
  8
001
  6
CONTINUOUS
 62
     7
100
AcDbLine
 10
884.228394
 20
1242.603638
 30
0.0
 11
850.728394
 21
1242.603638
 31
0.0
  0
LINE
  5
321
100
AcDbEntity
  8
001
  6
CONTINUOUS
 62
     7
100
AcDbLine
 10
884.228394
 20
1204.603638
 30
0.0
 11
850.728394
 21
1204.603638
 31
0.0
  0
LINE
  5
322
100
AcDbEntity
  8
001
  6
CONTINUOUS
 62
     7
100
AcDbLine
 10
886.478394
 20
1206.853638
 30
0.0
 11
886.478394
 21
1240.353638
 31
0.0
  0
LINE
  5
323
100
AcDbEntity
  8
001
  6
CONTINUOUS
 62
     7
100
AcDbLine
 10
848.478394
 20
1206.853638
 30
0.0
 11
848.478394
 21
1240.353638
 31
0.0
  0
LINE
  5
324
100
AcDbEntity
  8
001
  6
CONTINUOUS
 62
     7
100
AcDbLine
 10
884.228394
 20
1204.603638
 30
0.0
 11
884.228394
 21
1242.603638
 31
0.0
  0
LINE
  5
325
100
AcDbEntity
  8
001
  6
CONTINUOUS
 62
     7
100
AcDbLine
 10
850.728394
 20
1204.603638
 30
0.0
 11
850.728394
 21
1242.603638
 31
0.0
  0
LINE
  5
326
100
AcDbEntity
  8
001
  6
CONTINUOUS
 62
     7
100
AcDbLine
 10
848.478394
 20
1206.853638
 30
0.0
 11
850.728394
 21
1204.603638
 31
0.0
  0
LINE
  5
327
100
AcDbEntity
  8
001
  6
CONTINUOUS
 62
     7
100
AcDbLine
 10
884.228394
 20
1204.603638
 30
0.0
 11
886.478394
 21
1206.853638
 31
0.0
  0
LINE
  5
328
100
AcDbEntity
  8
001
  6
CONTINUOUS
 62
     7
100
AcDbLine
 10
886.478394
 20
1240.353638
 30
0.0
 11
884.228394
 21
1242.603638
 31
0.0
  0
LINE
  5
329
100
AcDbEntity
  8
001
  6
CONTINUOUS
 62
     7
100
AcDbLine
 10
850.728394
 20
1242.603638
 30
0.0
 11
848.478394
 21
1240.353638
 31
0.0
  0
CIRCLE
  5
32A
100
AcDbEntity
  8
001
  6
CONTINUOUS
 62
     7
100
AcDbCircle
 10
867.478516
 20
1223.60376
 30
0.0
 40
40.0
  0
ARC
  5
32B
100
AcDbEntity
  8
001
  6
CONTINUOUS
 62
     7
100
AcDbCircle
 10
867.478491
 20
1223.603773
 30
0.0
 40
35.0
100
AcDbArc
 50
315.000155
 51
59.584197
  0
LINE
  5
32C
100
AcDbEntity
  8
001
  6
CONTINUOUS
 62
     7
100
AcDbLine
 10
881.713623
 20
1247.751953
 30
0.0
 11
877.831299
 21
1262.240845
 31
0.0
  0
LINE
  5
32D
100
AcDbEntity
  8
001
  6
CONTINUOUS
 62
     7
100
AcDbLine
 10
881.713623
 20
1247.751953
 30
0.0
 11
885.197998
 21
1253.786987
 31
0.0
  0
LINE
  5
32E
100
AcDbEntity
  8
001
  6
CONTINUOUS
 62
     7
100
AcDbLine
 10
892.227295
 20
1198.855103
 30
0.0
 11
895.762817
 21
1195.319458
 31
0.0
  0
ARC
  5
32F
100
AcDbEntity
  8
001
  6
CONTINUOUS
 62
     7
100
AcDbCircle
 10
867.478638
 20
1197.10376
 30
0.0
 40
4.5
100
AcDbArc
 50
0.0
 51
180.0
  0
ARC
  5
330
100
AcDbEntity
  8
001
  6
CONTINUOUS
 62
     7
100
AcDbCircle
 10
867.478638
 20
1197.10376
 30
0.0
 40
2.5
100
AcDbArc
 50
0.0
 51
180.0
  0
ARC
  5
331
100
AcDbEntity
  8
001
  6
CONTINUOUS
 62
     7
100
AcDbCircle
 10
867.478638
 20
1191.10376
 30
0.0
 40
4.5
100
AcDbArc
 50
180.0
 51
0.0
  0
LINE
  5
332
100
AcDbEntity
  8
001
  6
CONTINUOUS
 62
     7
100
AcDbLine
 10
862.978638
 20
1191.10376
 30
0.0
 11
862.978638
 21
1197.10376
 31
0.0
  0
LINE
  5
333
100
AcDbEntity
  8
001
  6
CONTINUOUS
 62
     7
100
AcDbLine
 10
871.978638
 20
1191.10376
 30
0.0
 11
871.978638
 21
1197.10376
 31
0.0
  0
LINE
  5
334
100
AcDbEntity
  8
001
  6
CONTINUOUS
 62
     7
100
AcDbLine
 10
864.978638
 20
1197.10376
 30
0.0
 11
864.978638
 21
1191.10376
 31
0.0
  0
ARC
  5
335
100
AcDbEntity
  8
001
  6
CONTINUOUS
 62
     7
100
AcDbCircle
 10
867.478638
 20
1191.10376
 30
0.0
 40
2.5
100
AcDbArc
 50
180.0
 51
0.0
  0
LINE
  5
336
100
AcDbEntity
  8
001
  6
CONTINUOUS
 62
     7
100
AcDbLine
 10
869.978638
 20
1191.10376
 30
0.0
 11
869.978638
 21
1197.10376
 31
0.0
  0
ARC
  5
337
100
AcDbEntity
  8
001
  6
CONTINUOUS
 62
     7
100
AcDbCircle
 10
867.478722
 20
1223.603765
 30
0.0
 40
35.0
100
AcDbArc
 50
105.000226
 51
209.584379
  0
LINE
  5
338
100
AcDbEntity
  8
001
  6
CONTINUOUS
 62
     7
100
AcDbLine
 10
843.076538
 20
1209.80835
 30
0.0
 11
839.194336
 21
1195.319458
 31
0.0
  0
LINE
  5
339
100
AcDbEntity
  8
001
  6
CONTINUOUS
 62
     7
100
AcDbLine
 10
843.076538
 20
1209.80835
 30
0.0
 11
837.041626
 21
1206.324097
 31
0.0
  0
LINE
  5
33A
100
AcDbEntity
  8
001
  6
CONTINUOUS
 62
     7
100
AcDbLine
 10
858.419922
 20
1257.411133
 30
0.0
 11
857.125854
 21
1262.240845
 31
0.0
  0
ARC
  5
33B
100
AcDbEntity
  8
001
  6
CONTINUOUS
 62
     7
100
AcDbCircle
 10
880.55261
 20
1258.750738
 30
0.0
 40
5.0
100
AcDbArc
 50
69.595513
 51
132.850669
  0
ARC
  5
33C
100
AcDbEntity
  8
001
  6
CONTINUOUS
 62
     7
100
AcDbCircle
 10
854.40417
 20
1258.750736
 30
0.0
 40
5.0
100
AcDbArc
 50
47.147316
 51
110.404404
  0
ARC
  5
33D
100
AcDbEntity
  8
001
  6
CONTINUOUS
 62
     7
100
AcDbCircle
 10
854.404015
 20
1188.456575
 30
0.0
 40
5.0
100
AcDbArc
 50
249.596745
 51
312.854152
  0
ARC
  5
33E
100
AcDbEntity
  8
001
  6
CONTINUOUS
 62
     7
100
AcDbCircle
 10
880.552506
 20
1188.456643
 30
0.0
 40
5.0
100
AcDbArc
 50
227.149058
 51
290.405019
  0
LINE
  5
34C
100
AcDbEntity
  8
001
  6
CONTINUOUS
 62
     7
100
AcDbLine
 10
1453.478394
 20
779.103638
 30
0.0
 11
1501.478394
 21
779.103638
 31
0.0
  0
LINE
  5
356
100
AcDbEntity
  8
001
  6
CONTINUOUS
 62
     7
100
AcDbLine
 10
1477.478394
 20
780.103638
 30
0.0
 11
1462.728394
 21
780.103638
 31
0.0
  0
ARC
  5
3AC
100
AcDbEntity
  8
001
  6
CONTINUOUS
 62
     7
100
AcDbCircle
 10
1453.478394
 20
778.103638
 30
0.0
 40
1.0
100
AcDbArc
 50
90.0
 51
180.0
  0
ARC
  5
3AD
100
AcDbEntity
  8
001
  6
CONTINUOUS
 62
     7
100
AcDbCircle
 10
1501.478394
 20
778.103638
 30
0.0
 40
1.0
100
AcDbArc
 50
0.0
 51
90.0
  0
INSERT
  5
3AE
100
AcDbEntity
  8
0
  6
CONTINUOUS
100
AcDbBlockReference
  2
A$C4D0D3218
 10
837.478394
 20
768.459747
 30
0.0
  0
INSERT
  5
3AF
100
AcDbEntity
  8
0
  6
CONTINUOUS
100
AcDbBlockReference
  2
A$C4D0D3218
 10
1507.478394
 20
773.459747
 30
0.0
 41
-1.0
  0
LINE
  5
3B1
100
AcDbEntity
  8
001
  6
CONTINUOUS
 62
     7
100
AcDbLine
 10
843.478394
 20
774.103638
 30
0.0
 11
891.478394
 21
774.103638
 31
0.0
  0
ARC
  5
3B3
100
AcDbEntity
  8
001
  6
CONTINUOUS
 62
     7
100
AcDbCircle
 10
843.478394
 20
773.103638
 30
0.0
 40
1.0
100
AcDbArc
 50
90.0
 51
180.0
  0
ARC
  5
3B8
100
AcDbEntity
  8
001
  6
CONTINUOUS
 62
     7
100
AcDbCircle
 10
891.478394
 20
773.103638
 30
0.0
 40
1.0
100
AcDbArc
 50
0.0
 51
90.0
  0
LINE
  5
3BB
100
AcDbEntity
  8
001
  6
CONTINUOUS
 62
     1
100
AcDbLine
 10
884.228394
 20
825.103638
 30
0.0
 11
867.478394
 21
800.103605
 31
0.0
  0
LINE
  5
3BC
100
AcDbEntity
  8
001
  6
CONTINUOUS
 62
     7
100
AcDbLine
 10
884.228394
 20
825.103638
 30
0.0
 11
884.228394
 21
777.103516
 31
0.0
  0
LINE
  5
3BD
100
AcDbEntity
  8
001
  6
CONTINUOUS
 62
     7
100
AcDbLine
 10
884.228394
 20
825.103638
 30
0.0
 11
886.523307
 21
774.103638
 31
0.0
  0
LINE
  5
3BE
100
AcDbEntity
  8
001
  6
CONTINUOUS
 62
     7
100
AcDbLine
 10
867.478394
 20
775.103638
 30
0.0
 11
882.228394
 21
775.103638
 31
0.0
  0
LINE
  5
3BF
100
AcDbEntity
  8
001
  6
CONTINUOUS
 62
     1
100
AcDbLine
 10
867.478394
 20
800.103605
 30
0.0
 11
883.754517
 21
775.810852
 31
0.0
  0
ARC
  5
3C0
100
AcDbEntity
  8
001
  6
CONTINUOUS
 62
     7
100
AcDbCircle
 10
882.228394
 20
777.103516
 30
0.0
 40
2.0
100
AcDbArc
 50
270.0
 51
0.0
  0
LINE
  5
3C1
100
AcDbEntity
  8
001
  6
CONTINUOUS
 62
     7
100
AcDbLine
 10
867.478394
 20
825.103638
 30
0.0
 11
884.228394
 21
825.103638
 31
0.0
  0
ENDSEC
  0
SECTION
  2
OBJECTS
  0
DICTIONARY
  5
C
100
AcDbDictionary
  3
ACAD_GROUP
350
D
  3
ACAD_MLINESTYLE
350
1B
  0
DICTIONARY
  5
D
102
{ACAD_REACTORS
330
C
102
}
100
AcDbDictionary
  0
DICTIONARY
  5
1B
102
{ACAD_REACTORS
330
C
102
}
100
AcDbDictionary
  3
STANDARD
350
1C
  0
MLINESTYLE
  5
1C
102
{ACAD_REACTORS
330
1B
102
}
100
AcDbMlineStyle
  2
STANDARD
 70
     0
  3

 62
   256
 51
90.0
 52
90.0
 71
     2
 49
0.5
 62
   256
  6
BYLAYER
 49
-0.5
 62
   256
  6
BYLAYER
  0
ENDSEC
  0
EOF
