  0
SECTION
  2
HEADER
  9
$ACADVER
  1
AC1014
  9
$ACADMAINTVER
 70
     0
  9
$DWGCODEPAGE
  3
ANSI_932
  9
$INSBASE
 10
0.0
 20
0.0
 30
0.0
  9
$EXTMIN
 10
428.5
 20
60.0
 30
0.0
  9
$EXTMAX
 10
2430.0
 20
1658.936035
 30
0.0
  9
$LIMMIN
 10
0.000003
 20
-0.000003
  9
$LIMMAX
 10
2520.000003
 20
1781.999997
  9
$ORTHOMODE
 70
     0
  9
$REGENMODE
 70
     1
  9
$FILLMODE
 70
     1
  9
$QTEXTMODE
 70
     0
  9
$MIRRTEXT
 70
     1
  9
$DRAGMODE
 70
     2
  9
$LTSCALE
 40
50.4
  9
$OSMODE
 70
     0
  9
$ATTMODE
 70
     1
  9
$TEXTSIZE
 40
0.2
  9
$TRACEWID
 40
0.05
  9
$TEXTSTYLE
  7
STANDARD
  9
$CLAYER
  8
0
  9
$CELTYPE
  6
CONTINUOUS
  9
$CECOLOR
 62
   256
  9
$CELTSCALE
 40
1.0
  9
$DELOBJ
 70
     1
  9
$DISPSILH
 70
     0
  9
$DIMSCALE
 40
1.0
  9
$DIMASZ
 40
0.18
  9
$DIMEXO
 40
0.0625
  9
$DIMDLI
 40
0.38
  9
$DIMRND
 40
0.0
  9
$DIMDLE
 40
0.0
  9
$DIMEXE
 40
0.18
  9
$DIMTP
 40
0.0
  9
$DIMTM
 40
0.0
  9
$DIMTXT
 40
0.18
  9
$DIMCEN
 40
0.09
  9
$DIMTSZ
 40
0.0
  9
$DIMTOL
 70
     0
  9
$DIMLIM
 70
     0
  9
$DIMTIH
 70
     1
  9
$DIMTOH
 70
     1
  9
$DIMSE1
 70
     0
  9
$DIMSE2
 70
     0
  9
$DIMTAD
 70
     0
  9
$DIMZIN
 70
     0
  9
$DIMBLK
  1

  9
$DIMASO
 70
     1
  9
$DIMSHO
 70
     1
  9
$DIMPOST
  1

  9
$DIMAPOST
  1

  9
$DIMALT
 70
     0
  9
$DIMALTD
 70
     2
  9
$DIMALTF
 40
25.4
  9
$DIMLFAC
 40
1.0
  9
$DIMTOFL
 70
     0
  9
$DIMTVP
 40
0.0
  9
$DIMTIX
 70
     0
  9
$DIMSOXD
 70
     0
  9
$DIMSAH
 70
     0
  9
$DIMBLK1
  1

  9
$DIMBLK2
  1

  9
$DIMSTYLE
  2
STANDARD
  9
$DIMCLRD
 70
     0
  9
$DIMCLRE
 70
     0
  9
$DIMCLRT
 70
     0
  9
$DIMTFAC
 40
1.0
  9
$DIMGAP
 40
0.09
  9
$DIMJUST
 70
     0
  9
$DIMSD1
 70
     0
  9
$DIMSD2
 70
     0
  9
$DIMTOLJ
 70
     1
  9
$DIMTZIN
 70
     0
  9
$DIMALTZ
 70
     0
  9
$DIMALTTZ
 70
     0
  9
$DIMFIT
 70
     3
  9
$DIMUPT
 70
     0
  9
$DIMUNIT
 70
     2
  9
$DIMDEC
 70
     4
  9
$DIMTDEC
 70
     4
  9
$DIMALTU
 70
     2
  9
$DIMALTTD
 70
     2
  9
$DIMTXSTY
  7
STANDARD
  9
$DIMAUNIT
 70
     0
  9
$LUNITS
 70
     2
  9
$LUPREC
 70
     4
  9
$SKETCHINC
 40
0.1
  9
$FILLETRAD
 40
1.0
  9
$AUNITS
 70
     0
  9
$AUPREC
 70
     0
  9
$MENU
  1
acad
  9
$ELEVATION
 40
0.0
  9
$PELEVATION
 40
0.0
  9
$THICKNESS
 40
0.0
  9
$LIMCHECK
 70
     0
  9
$BLIPMODE
 70
     0
  9
$CHAMFERA
 40
0.0
  9
$CHAMFERB
 40
0.0
  9
$CHAMFERC
 40
0.0
  9
$CHAMFERD
 40
0.0
  9
$SKPOLY
 70
     0
  9
$TDCREATE
 40
0.0000000000
  9
$TDUPDATE
 40
0.0000000000
  9
$TDINDWG
 40
0.0000000000
  9
$TDUSRTIMER
 40
0.0000000000
  9
$USRTIMER
 70
     1
  9
$ANGBASE
 50
0.0
  9
$ANGDIR
 70
     0
  9
$PDMODE
 70
     0
  9
$PDSIZE
 40
0.0
  9
$PLINEWID
 40
0.0
  9
$COORDS
 70
     1
  9
$SPLFRAME
 70
     0
  9
$SPLINETYPE
 70
     6
  9
$SPLINESEGS
 70
     8
  9
$ATTDIA
 70
     0
  9
$ATTREQ
 70
     1
  9
$HANDLING
 70
     1
  9
$HANDSEED
  5
3E0
  9
$SURFTAB1
 70
     6
  9
$SURFTAB2
 70
     6
  9
$SURFTYPE
 70
     6
  9
$SURFU
 70
     6
  9
$SURFV
 70
     6
  9
$UCSNAME
  2

  9
$UCSORG
 10
0.0
 20
0.0
 30
0.0
  9
$UCSXDIR
 10
1.0
 20
0.0
 30
0.0
  9
$UCSYDIR
 10
0.0
 20
1.0
 30
0.0
  9
$PUCSNAME
  2

  9
$PUCSORG
 10
0.0
 20
0.0
 30
0.0
  9
$PUCSXDIR
 10
1.0
 20
0.0
 30
0.0
  9
$PUCSYDIR
 10
0.0
 20
1.0
 30
0.0
  9
$USERI1
 70
     0
  9
$USERI2
 70
     0
  9
$USERI3
 70
     0
  9
$USERI4
 70
     0
  9
$USERI5
 70
     0
  9
$USERR1
 40
0.0
  9
$USERR2
 40
0.0
  9
$USERR3
 40
0.0
  9
$USERR4
 40
0.0
  9
$USERR5
 40
0.0
  9
$WORLDVIEW
 70
     1
  9
$SHADEDGE
 70
     3
  9
$SHADEDIF
 70
    70
  9
$TILEMODE
 70
     1
  9
$MAXACTVP
 70
    48
  9
$PINSBASE
 10
0.0
 20
0.0
 30
0.0
  9
$PLIMCHECK
 70
     0
  9
$PEXTMIN
 10
1.000000E+20
 20
1.000000E+20
 30
1.000000E+20
  9
$PEXTMAX
 10
-1.000000E+20
 20
-1.000000E+20
 30
-1.000000E+20
  9
$PLIMMIN
 10
0.0
 20
0.0
  9
$PLIMMAX
 10
12.0
 20
9.0
  9
$UNITMODE
 70
     0
  9
$VISRETAIN
 70
     1
  9
$PLINEGEN
 70
     0
  9
$PSLTSCALE
 70
     1
  9
$TREEDEPTH
 70
  3020
  9
$PICKSTYLE
 70
     1
  9
$CMLSTYLE
  2
STANDARD
  9
$CMLJUST
 70
     0
  9
$CMLSCALE
 40
1.0
  9
$PROXYGRAPHICS
 70
     1
  9
$MEASUREMENT
 70
     0
  0
ENDSEC
  0
SECTION
  2
CLASSES
  0
CLASS
  1
LWPOLYLINE
  2
AcDbPolyline
  3
"AutoCAD"
 90
        0
280
     0
281
     1
  0
ENDSEC
  0
SECTION
  2
TABLES
  0
TABLE
  2
VPORT
  5
8
100
AcDbSymbolTable
 70
     2
  0
VPORT
  5
3DF
100
AcDbSymbolTableRecord
100
AcDbViewportTableRecord
  2
*ACTIVE
 70
     0
 10
0.0
 20
0.0
 11
1.0
 21
1.0
 12
1536.892196
 22
890.999997
 13
0.0
 23
0.0
 14
1.0
 24
1.0
 15
0.0
 25
0.0
 16
0.0
 26
0.0
 36
1.0
 17
0.0
 27
0.0
 37
0.0
 40
1782.0
 41
1.724907
 42
50.0
 43
0.0
 44
0.0
 50
0.0
 51
0.0
 71
     0
 72
   100
 73
     1
 74
     1
 75
     0
 76
     0
 77
     0
 78
     0
  0
ENDTAB
  0
TABLE
  2
LTYPE
  5
5
100
AcDbSymbolTable
 70
    25
  0
LTYPE
  5
12
100
AcDbSymbolTableRecord
100
AcDbLinetypeTableRecord
  2
BYBLOCK
 70
     0
  3

 72
    65
 73
     0
 40
0.0
  0
LTYPE
  5
13
100
AcDbSymbolTableRecord
100
AcDbLinetypeTableRecord
  2
BYLAYER
 70
     0
  3

 72
    65
 73
     0
 40
0.0
  0
LTYPE
  5
14
100
AcDbSymbolTableRecord
100
AcDbLinetypeTableRecord
  2
CONTINUOUS
 70
     0
  3
Solid line
 72
    65
 73
     0
 40
0.0
  0
LTYPE
  5
1F
100
AcDbSymbolTableRecord
100
AcDbLinetypeTableRecord
  2
BORDER
 70
     0
  3
__ __ . __ __ . __ __ . __ __ . __ __ . __ __ .
 72
    65
 73
     6
 40
1.75
 49
0.5
 74
     0
 49
-0.25
 74
     0
 49
0.5
 74
     0
 49
-0.25
 74
     0
 49
0.0
 74
     0
 49
-0.25
 74
     0
  0
LTYPE
  5
20
100
AcDbSymbolTableRecord
100
AcDbLinetypeTableRecord
  2
BORDER2
 70
     0
  3
__.__.__.__.__.__.__.__.__.__.__.__.__.__.__.__
 72
    65
 73
     6
 40
0.875
 49
0.25
 74
     0
 49
-0.125
 74
     0
 49
0.25
 74
     0
 49
-0.125
 74
     0
 49
0.0
 74
     0
 49
-0.125
 74
     0
  0
LTYPE
  5
21
100
AcDbSymbolTableRecord
100
AcDbLinetypeTableRecord
  2
BORDERX2
 70
     0
  3
____  ____  .  ____  ____  .  ____  ____  .  __
 72
    65
 73
     6
 40
3.5
 49
1.0
 74
     0
 49
-0.5
 74
     0
 49
1.0
 74
     0
 49
-0.5
 74
     0
 49
0.0
 74
     0
 49
-0.5
 74
     0
  0
LTYPE
  5
22
100
AcDbSymbolTableRecord
100
AcDbLinetypeTableRecord
  2
CENTER
 70
     0
  3
____ _ ____ _ ____ _ ____ _ ____ _ ____ _ ____ 
 72
    65
 73
     4
 40
2.0
 49
1.25
 74
     0
 49
-0.25
 74
     0
 49
0.25
 74
     0
 49
-0.25
 74
     0
  0
LTYPE
  5
23
100
AcDbSymbolTableRecord
100
AcDbLinetypeTableRecord
  2
CENTER2
 70
     0
  3
___ _ ___ _ ___ _ ___ _ ___ _ ___ _ ___ _ ___ _
 72
    65
 73
     4
 40
1.125
 49
0.75
 74
     0
 49
-0.125
 74
     0
 49
0.125
 74
     0
 49
-0.125
 74
     0
  0
LTYPE
  5
24
100
AcDbSymbolTableRecord
100
AcDbLinetypeTableRecord
  2
CENTERX2
 70
     0
  3
________  __  ________  __  ________  __  _____
 72
    65
 73
     4
 40
4.0
 49
2.5
 74
     0
 49
-0.5
 74
     0
 49
0.5
 74
     0
 49
-0.5
 74
     0
  0
LTYPE
  5
25
100
AcDbSymbolTableRecord
100
AcDbLinetypeTableRecord
  2
DASHDOT
 70
     0
  3
__ . __ . __ . __ . __ . __ . __ . __ . __ . __
 72
    65
 73
     4
 40
1.0
 49
0.5
 74
     0
 49
-0.25
 74
     0
 49
0.0
 74
     0
 49
-0.25
 74
     0
  0
LTYPE
  5
26
100
AcDbSymbolTableRecord
100
AcDbLinetypeTableRecord
  2
DASHDOT2
 70
     0
  3
_._._._._._._._._._._._._._._._._._._._._._._._
 72
    65
 73
     4
 40
0.5
 49
0.25
 74
     0
 49
-0.125
 74
     0
 49
0.0
 74
     0
 49
-0.125
 74
     0
  0
LTYPE
  5
27
100
AcDbSymbolTableRecord
100
AcDbLinetypeTableRecord
  2
DASHDOTX2
 70
     0
  3
____  .  ____  .  ____  .  ____  .  ____  .  __
 72
    65
 73
     4
 40
2.0
 49
1.0
 74
     0
 49
-0.5
 74
     0
 49
0.0
 74
     0
 49
-0.5
 74
     0
  0
LTYPE
  5
28
100
AcDbSymbolTableRecord
100
AcDbLinetypeTableRecord
  2
DASHED
 70
     0
  3
__ __ __ __ __ __ __ __ __ __ __ __ __ __ __ __
 72
    65
 73
     2
 40
0.75
 49
0.5
 74
     0
 49
-0.25
 74
     0
  0
LTYPE
  5
29
100
AcDbSymbolTableRecord
100
AcDbLinetypeTableRecord
  2
DASHED2
 70
     0
  3
_ _ _ _ _ _ _ _ _ _ _ _ _ _ _ _ _ _ _ _ _ _ _ _
 72
    65
 73
     2
 40
0.375
 49
0.25
 74
     0
 49
-0.125
 74
     0
  0
LTYPE
  5
2A
100
AcDbSymbolTableRecord
100
AcDbLinetypeTableRecord
  2
DASHEDX2
 70
     0
  3
____  ____  ____  ____  ____  ____  ____  ____ 
 72
    65
 73
     2
 40
1.5
 49
1.0
 74
     0
 49
-0.5
 74
     0
  0
LTYPE
  5
2B
100
AcDbSymbolTableRecord
100
AcDbLinetypeTableRecord
  2
DIVIDE
 70
     0
  3
____ . . ____ . . ____ . . ____ . . ____ . . __
 72
    65
 73
     6
 40
1.25
 49
0.5
 74
     0
 49
-0.25
 74
     0
 49
0.0
 74
     0
 49
-0.25
 74
     0
 49
0.0
 74
     0
 49
-0.25
 74
     0
  0
LTYPE
  5
2C
100
AcDbSymbolTableRecord
100
AcDbLinetypeTableRecord
  2
DIVIDE2
 70
     0
  3
__..__..__..__..__..__..__..__..__..__..__..__.
 72
    65
 73
     6
 40
0.625
 49
0.25
 74
     0
 49
-0.125
 74
     0
 49
0.0
 74
     0
 49
-0.125
 74
     0
 49
0.0
 74
     0
 49
-0.125
 74
     0
  0
LTYPE
  5
2D
100
AcDbSymbolTableRecord
100
AcDbLinetypeTableRecord
  2
DIVIDEX2
 70
     0
  3
________  .  .  ________  .  .  ________  .  . 
 72
    65
 73
     6
 40
2.5
 49
1.0
 74
     0
 49
-0.5
 74
     0
 49
0.0
 74
     0
 49
-0.5
 74
     0
 49
0.0
 74
     0
 49
-0.5
 74
     0
  0
LTYPE
  5
2E
100
AcDbSymbolTableRecord
100
AcDbLinetypeTableRecord
  2
DOT
 70
     0
  3
. . . . . . . . . . . . . . . . . . . . . . . .
 72
    65
 73
     2
 40
0.25
 49
0.0
 74
     0
 49
-0.25
 74
     0
  0
LTYPE
  5
2F
100
AcDbSymbolTableRecord
100
AcDbLinetypeTableRecord
  2
DOT2
 70
     0
  3
...............................................
 72
    65
 73
     2
 40
0.125
 49
0.0
 74
     0
 49
-0.125
 74
     0
  0
LTYPE
  5
30
100
AcDbSymbolTableRecord
100
AcDbLinetypeTableRecord
  2
DOTX2
 70
     0
  3
.  .  .  .  .  .  .  .  .  .  .  .  .  .  .  . 
 72
    65
 73
     2
 40
0.5
 49
0.0
 74
     0
 49
-0.5
 74
     0
  0
LTYPE
  5
31
100
AcDbSymbolTableRecord
100
AcDbLinetypeTableRecord
  2
HIDDEN
 70
     0
  3
__ __ __ __ __ __ __ __ __ __ __ __ __ __ __ __
 72
    65
 73
     2
 40
0.375
 49
0.25
 74
     0
 49
-0.125
 74
     0
  0
LTYPE
  5
32
100
AcDbSymbolTableRecord
100
AcDbLinetypeTableRecord
  2
HIDDEN2
 70
     0
  3
_ _ _ _ _ _ _ _ _ _ _ _ _ _ _ _ _ _ _ _ _ _ _ _
 72
    65
 73
     2
 40
0.1875
 49
0.125
 74
     0
 49
-0.0625
 74
     0
  0
LTYPE
  5
33
100
AcDbSymbolTableRecord
100
AcDbLinetypeTableRecord
  2
HIDDENX2
 70
     0
  3
____ ____ ____ ____ ____ ____ ____ ____ ____ __
 72
    65
 73
     2
 40
0.75
 49
0.5
 74
     0
 49
-0.25
 74
     0
  0
LTYPE
  5
34
100
AcDbSymbolTableRecord
100
AcDbLinetypeTableRecord
  2
PHANTOM
 70
     0
  3
______  __  __  ______  __  __  ______  __  __ 
 72
    65
 73
     6
 40
2.5
 49
1.25
 74
     0
 49
-0.25
 74
     0
 49
0.25
 74
     0
 49
-0.25
 74
     0
 49
0.25
 74
     0
 49
-0.25
 74
     0
  0
LTYPE
  5
35
100
AcDbSymbolTableRecord
100
AcDbLinetypeTableRecord
  2
PHANTOM2
 70
     0
  3
___ _ _ ___ _ _ ___ _ _ ___ _ _ ___ _ _ ___ _ _
 72
    65
 73
     6
 40
1.25
 49
0.625
 74
     0
 49
-0.125
 74
     0
 49
0.125
 74
     0
 49
-0.125
 74
     0
 49
0.125
 74
     0
 49
-0.125
 74
     0
  0
LTYPE
  5
36
100
AcDbSymbolTableRecord
100
AcDbLinetypeTableRecord
  2
PHANTOMX2
 70
     0
  3
____________    ____    ____    ____________   
 72
    65
 73
     6
 40
5.0
 49
2.5
 74
     0
 49
-0.5
 74
     0
 49
0.5
 74
     0
 49
-0.5
 74
     0
 49
0.5
 74
     0
 49
-0.5
 74
     0
  0
ENDTAB
  0
TABLE
  2
LAYER
  5
2
100
AcDbSymbolTable
 70
     5
  0
LAYER
  5
E
100
AcDbSymbolTableRecord
100
AcDbLayerTableRecord
  2
0
 70
     0
 62
     7
  6
CONTINUOUS
  0
LAYER
  5
38
100
AcDbSymbolTableRecord
100
AcDbLayerTableRecord
  2
001
 70
     0
 62
     7
  6
CONTINUOUS
  0
LAYER
  5
3CF
100
AcDbSymbolTableRecord
100
AcDbLayerTableRecord
  2
BODY
 70
     0
 62
     7
  6
CONTINUOUS
  0
LAYER
  5
3D0
100
AcDbSymbolTableRecord
100
AcDbLayerTableRecord
  2
SHAFT
 70
     0
 62
     6
  6
CONTINUOUS
  0
LAYER
  5
3D1
100
AcDbSymbolTableRecord
100
AcDbLayerTableRecord
  2
CENTER
 70
     0
 62
   144
  6
CENTER2
  0
ENDTAB
  0
TABLE
  2
STYLE
  5
3
100
AcDbSymbolTable
 70
     2
  0
STYLE
  5
F
100
AcDbSymbolTableRecord
100
AcDbTextStyleTableRecord
  2
STANDARD
 70
     0
 40
0.0
 41
1.0
 50
0.0
 71
     0
 42
0.2
  3
TXT
  4
BIGFONT
  0
STYLE
  5
37
100
AcDbSymbolTableRecord
100
AcDbTextStyleTableRecord
  2
STANDARD1
 70
     4
 40
0.0
 41
1.0
 50
0.0
 71
     0
 42
0.2
  3
TXT
  4
BIGFONT
  0
ENDTAB
  0
TABLE
  2
VIEW
  5
6
100
AcDbSymbolTable
 70
     0
  0
ENDTAB
  0
TABLE
  2
UCS
  5
7
100
AcDbSymbolTable
 70
     0
  0
ENDTAB
  0
TABLE
  2
APPID
  5
9
100
AcDbSymbolTable
 70
     1
  0
APPID
  5
10
100
AcDbSymbolTableRecord
100
AcDbRegAppTableRecord
  2
ACAD
 70
     0
  0
ENDTAB
  0
TABLE
  2
DIMSTYLE
  5
A
100
AcDbSymbolTable
 70
     1
  0
DIMSTYLE
105
385
100
AcDbSymbolTableRecord
100
AcDbDimStyleTableRecord
  2
STANDARD
 70
     0
  3

  4

  5

  6

  7

 40
1.0
 41
0.18
 42
0.0625
 43
0.38
 44
0.18
 45
0.0
 46
0.0
 47
0.0
 48
0.0
140
0.18
141
0.09
142
0.0
143
25.4
144
1.0
145
0.0
146
1.0
147
0.09
 71
     0
 72
     0
 73
     1
 74
     1
 75
     0
 76
     0
 77
     0
 78
     0
170
     0
171
     2
172
     0
173
     0
174
     0
175
     0
176
     0
177
     0
178
     0
270
     2
271
     4
272
     4
273
     2
274
     2
340
F
275
     0
280
     0
281
     0
282
     0
283
     1
284
     0
285
     0
286
     0
287
     3
288
     0
  0
ENDTAB
  0
TABLE
  2
BLOCK_RECORD
  5
1
100
AcDbSymbolTable
 70
     2
  0
BLOCK_RECORD
  5
18
100
AcDbSymbolTableRecord
100
AcDbBlockTableRecord
  2
*MODEL_SPACE
  0
BLOCK_RECORD
  5
15
100
AcDbSymbolTableRecord
100
AcDbBlockTableRecord
  2
*PAPER_SPACE
  0
BLOCK_RECORD
  5
386
100
AcDbSymbolTableRecord
100
AcDbBlockTableRecord
  2
A$C4D0D3218
  0
BLOCK_RECORD
  5
3D2
100
AcDbSymbolTableRecord
100
AcDbBlockTableRecord
  2
A$C3D2E53C4
  0
ENDTAB
  0
ENDSEC
  0
SECTION
  2
BLOCKS
  0
BLOCK
  5
19
100
AcDbEntity
  8
0
100
AcDbBlockBegin
  2
*MODEL_SPACE
 70
     0
 10
0.0
 20
0.0
 30
0.0
  3
*MODEL_SPACE
  1

  0
ENDBLK
  5
1A
100
AcDbEntity
  8
0
100
AcDbBlockEnd
  0
BLOCK
  5
16
100
AcDbEntity
 67
     1
  8
0
100
AcDbBlockBegin
  2
*PAPER_SPACE
 70
     0
 10
0.0
 20
0.0
 30
0.0
  3
*PAPER_SPACE
  1

  0
ENDBLK
  5
17
100
AcDbEntity
 67
     1
  8
0
100
AcDbBlockEnd
  0
BLOCK
  5
3CD
100
AcDbEntity
  8
0
100
AcDbBlockBegin
  2
A$C4D0D3218
 70
     0
 10
0.0
 20
0.0
 30
0.0
  3
A$C4D0D3218
  1

  0
LINE
  5
387
100
AcDbEntity
  8
BODY
100
AcDbLine
 10
47.298566
 20
58.50411
 30
0.0
 11
30.0
 21
33.988262
 31
0.0
  0
LINE
  5
388
100
AcDbEntity
  8
BODY
100
AcDbLine
 10
47.830578
 20
57.227929
 30
0.0
 11
48.758497
 21
35.164071
 31
0.0
  0
LINE
  5
389
100
AcDbEntity
  8
BODY
100
AcDbLine
 10
60.0
 20
62.643891
 30
0.0
 11
60.0
 21
35.143891
 31
0.0
  0
LINE
  5
38A
100
AcDbEntity
  8
BODY
100
AcDbLine
 10
0.0
 20
8.643891
 30
0.0
 11
0.0
 21
62.643891
 31
0.0
  0
LINE
  5
38B
100
AcDbEntity
  8
CENTER
100
AcDbLine
 10
30.0
 20
0.0
 30
0.0
 11
30.0
 21
136.35376
 31
0.0
  0
LINE
  5
38C
100
AcDbEntity
  8
BODY
100
AcDbLine
 10
57.0
 20
5.643891
 30
0.0
 11
3.0
 21
5.643891
 31
0.0
  0
ARC
  5
38D
100
AcDbEntity
  8
BODY
100
AcDbCircle
 10
3.0
 20
8.643891
 30
0.0
 40
3.0
100
AcDbArc
 50
180.0
 51
270.0
  0
ARC
  5
38E
100
AcDbEntity
  8
BODY
100
AcDbCircle
 10
51.917656
 20
7.643891
 30
0.0
 40
2.0
100
AcDbArc
 50
182.408216
 51
270.0
  0
LINE
  5
38F
100
AcDbEntity
  8
BODY
100
AcDbLine
 10
30.0
 20
33.988262
 30
0.0
 11
50.0
 21
5.643891
 31
0.0
  0
LINE
  5
390
100
AcDbEntity
  8
CENTER
100
AcDbLine
 10
45.826748
 20
30.643891
 30
0.0
 11
72.990715
 21
30.643891
 31
0.0
  0
LINE
  5
391
100
AcDbEntity
  8
BODY
100
AcDbLine
 10
69.138318
 20
35.643891
 30
0.0
 11
48.738318
 21
35.643891
 31
0.0
  0
LINE
  5
392
100
AcDbEntity
  8
BODY
100
AcDbLine
 10
63.238318
 20
35.143891
 30
0.0
 11
48.738318
 21
35.143891
 31
0.0
  0
LINE
  5
393
100
AcDbEntity
  8
BODY
100
AcDbLine
 10
49.158879
 20
25.643891
 30
0.0
 11
69.138318
 21
25.643891
 31
0.0
  0
LINE
  5
394
100
AcDbEntity
  8
BODY
100
AcDbLine
 10
49.155391
 20
25.726818
 30
0.0
 11
49.919423
 21
7.559853
 31
0.0
  0
LINE
  5
395
100
AcDbEntity
  8
BODY
100
AcDbLine
 10
48.738318
 20
26.143891
 30
0.0
 11
63.238318
 21
26.143891
 31
0.0
  0
LWPOLYLINE
  5
396
100
AcDbEntity
  8
BODY
100
AcDbPolyline
 90
        4
 70
     0
 43
0.0
 10
30.0
 20
39.881496
 10
22.0
 20
35.262693
 10
22.0
 20
26.025089
 10
30.0
 20
21.406287
  0
ARC
  5
397
100
AcDbEntity
  8
BODY
100
AcDbCircle
 10
30.0
 20
30.643891
 30
0.0
 40
8.0
100
AcDbArc
 50
90.0
 51
270.0
  0
LINE
  5
398
100
AcDbEntity
  8
CENTER
100
AcDbLine
 10
20.361507
 20
30.643891
 30
0.0
 11
31.763323
 21
30.643891
 31
0.0
  0
LINE
  5
399
100
AcDbEntity
  8
BODY
100
AcDbLine
 10
49.238318
 20
35.643891
 30
0.0
 11
49.238318
 21
25.643891
 31
0.0
  0
LINE
  5
39A
100
AcDbEntity
  8
BODY
100
AcDbLine
 10
48.738318
 20
35.143891
 30
0.0
 11
48.738318
 21
26.143891
 31
0.0
  0
LINE
  5
39B
100
AcDbEntity
  8
BODY
100
AcDbLine
 10
48.738318
 20
26.143891
 30
0.0
 11
49.238318
 21
25.643891
 31
0.0
  0
LINE
  5
39C
100
AcDbEntity
  8
BODY
100
AcDbLine
 10
48.738318
 20
35.143891
 30
0.0
 11
49.238318
 21
35.643891
 31
0.0
  0
LINE
  5
39D
100
AcDbEntity
  8
BODY
100
AcDbLine
 10
60.0
 20
26.143891
 30
0.0
 11
60.0
 21
8.643891
 31
0.0
  0
ARC
  5
39E
100
AcDbEntity
  8
BODY
100
AcDbCircle
 10
57.0
 20
8.643891
 30
0.0
 40
3.0
100
AcDbArc
 50
270.0
 51
0.0
  0
LINE
  5
39F
100
AcDbEntity
  8
BODY
100
AcDbLine
 10
69.138318
 20
21.406287
 30
0.0
 11
63.738318
 21
21.406287
 31
0.0
  0
LINE
  5
3A0
100
AcDbEntity
  8
BODY
100
AcDbLine
 10
69.138318
 20
39.881496
 30
0.0
 11
63.738318
 21
39.881496
 31
0.0
  0
LINE
  5
3A1
100
AcDbEntity
  8
BODY
100
AcDbLine
 10
63.238318
 20
35.143891
 30
0.0
 11
63.238318
 21
26.143891
 31
0.0
  0
LINE
  5
3A2
100
AcDbEntity
  8
BODY
100
AcDbLine
 10
63.738318
 20
39.881496
 30
0.0
 11
63.738318
 21
21.406287
 31
0.0
  0
LINE
  5
3A3
100
AcDbEntity
  8
BODY
100
AcDbLine
 10
63.238318
 20
26.143891
 30
0.0
 11
63.738318
 21
25.643891
 31
0.0
  0
LINE
  5
3A4
100
AcDbEntity
  8
BODY
100
AcDbLine
 10
63.238318
 20
35.143891
 30
0.0
 11
63.738318
 21
35.643891
 31
0.0
  0
ARC
  5
3A5
100
AcDbEntity
  8
BODY
100
AcDbCircle
 10
57.138318
 20
30.643891
 30
0.0
 40
13.0
100
AcDbArc
 50
337.380135
 51
22.619865
  0
LINE
  5
3A6
100
AcDbEntity
  8
BODY
100
AcDbLine
 10
70.138318
 20
37.781496
 30
0.0
 11
70.138318
 21
23.506287
 31
0.0
  0
ARC
  5
3A7
100
AcDbEntity
  8
BODY
100
AcDbCircle
 10
67.393834
 20
23.525089
 30
0.0
 40
2.744549
100
AcDbArc
 50
309.465831
 51
50.534169
  0
ARC
  5
3A8
100
AcDbEntity
  8
BODY
100
AcDbCircle
 10
67.393834
 20
37.762693
 30
0.0
 40
2.744549
100
AcDbArc
 50
309.465831
 51
50.534169
  0
LINE
  5
3A9
100
AcDbEntity
  8
BODY
100
AcDbLine
 10
15.25
 20
65.643891
 30
0.0
 11
30.0
 21
65.643891
 31
0.0
  0
LINE
  5
3AA
100
AcDbEntity
  8
SHAFT
100
AcDbLine
 10
30.0
 20
123.315647
 30
0.0
 11
13.25
 21
115.643891
 31
0.0
  0
LINE
  5
3AB
100
AcDbEntity
  8
SHAFT
100
AcDbLine
 10
14.0
 20
130.643891
 30
0.0
 11
30.0
 21
123.315647
 31
0.0
  0
LINE
  5
3AC
100
AcDbEntity
  8
BODY
100
AcDbLine
 10
30.0
 20
115.643891
 30
0.0
 11
13.25
 21
115.643891
 31
0.0
  0
LINE
  5
3AD
100
AcDbEntity
  8
SHAFT
100
AcDbLine
 10
14.0
 20
130.643891
 30
0.0
 11
46.0
 21
130.643891
 31
0.0
  0
LINE
  5
3AE
100
AcDbEntity
  8
SHAFT
100
AcDbLine
 10
13.25
 20
115.643891
 30
0.0
 11
30.0
 21
115.643891
 31
0.0
  0
LINE
  5
3AF
100
AcDbEntity
  8
BODY
100
AcDbLine
 10
30.0
 20
90.643891
 30
0.0
 11
13.723903
 21
66.351209
 31
0.0
  0
LINE
  5
3B0
100
AcDbEntity
  8
BODY
100
AcDbLine
 10
13.25
 20
115.643891
 30
0.0
 11
30.0
 21
90.643891
 31
0.0
  0
LINE
  5
3B1
100
AcDbEntity
  8
BODY
100
AcDbLine
 10
13.25
 20
115.643891
 30
0.0
 11
13.25
 21
67.643891
 31
0.0
  0
LINE
  5
3B2
100
AcDbEntity
  8
BODY
100
AcDbLine
 10
13.25
 20
115.643891
 30
0.0
 11
11.085954
 21
67.553982
 31
0.0
  0
ARC
  5
3B3
100
AcDbEntity
  8
BODY
100
AcDbCircle
 10
15.25
 20
67.643891
 30
0.0
 40
2.0
100
AcDbArc
 50
180.0
 51
270.0
  0
ARC
  5
3B4
100
AcDbEntity
  8
BODY
100
AcDbCircle
 10
9.087976
 20
67.643891
 30
0.0
 40
2.0
100
AcDbArc
 50
270.0
 51
357.423428
  0
ARC
  5
3B5
100
AcDbEntity
  8
BODY
100
AcDbCircle
 10
3.0
 20
62.643891
 30
0.0
 40
3.0
100
AcDbArc
 50
90.0
 51
180.0
  0
LINE
  5
3B6
100
AcDbEntity
  8
BODY
100
AcDbLine
 10
3.0
 20
65.643891
 30
0.0
 11
9.087976
 21
65.643891
 31
0.0
  0
LINE
  5
3B7
100
AcDbEntity
  8
SHAFT
100
AcDbLine
 10
14.0
 20
130.643891
 30
0.0
 11
13.25
 21
115.643891
 31
0.0
  0
LINE
  5
3B8
100
AcDbEntity
  8
BODY
100
AcDbLine
 10
46.75
 20
115.643891
 30
0.0
 11
48.914046
 21
67.553982
 31
0.0
  0
ARC
  5
3B9
100
AcDbEntity
  8
BODY
100
AcDbCircle
 10
50.912024
 20
67.643891
 30
0.0
 40
2.0
100
AcDbArc
 50
182.576572
 51
270.0
  0
LINE
  5
3BA
100
AcDbEntity
  8
BODY
100
AcDbLine
 10
30.0
 20
59.143891
 30
0.0
 11
45.832345
 21
59.143891
 31
0.0
  0
ARC
  5
3BB
100
AcDbEntity
  8
BODY
100
AcDbCircle
 10
45.832345
 20
57.143891
 30
0.0
 40
2.0
100
AcDbArc
 50
2.408216
 51
90.0
  0
ARC
  5
3BC
100
AcDbEntity
  8
BODY
100
AcDbCircle
 10
57.0
 20
62.643891
 30
0.0
 40
3.0
100
AcDbArc
 50
0.0
 51
90.0
  0
LINE
  5
3BD
100
AcDbEntity
  8
BODY
100
AcDbLine
 10
50.912024
 20
65.643891
 30
0.0
 11
57.0
 21
65.643891
 31
0.0
  0
LINE
  5
3BE
100
AcDbEntity
  8
BODY
100
AcDbLine
 10
32.0
 20
126.893891
 30
0.0
 11
32.0
 21
106.343891
 31
0.0
  0
LINE
  5
3BF
100
AcDbEntity
  8
BODY
100
AcDbLine
 10
32.5
 20
127.393891
 30
0.0
 11
32.5
 21
106.643891
 31
0.0
  0
LINE
  5
3C0
100
AcDbEntity
  8
BODY
100
AcDbLine
 10
32.5
 20
106.643891
 30
0.0
 11
30.0
 21
105.143891
 31
0.0
  0
LINE
  5
3C1
100
AcDbEntity
  8
BODY
100
AcDbLine
 10
32.5
 20
106.643891
 30
0.0
 11
30.0
 21
106.643891
 31
0.0
  0
LINE
  5
3C2
100
AcDbEntity
  8
BODY
100
AcDbLine
 10
32.5
 20
111.143891
 30
0.0
 11
32.0
 21
110.643891
 31
0.0
  0
LINE
  5
3C3
100
AcDbEntity
  8
BODY
100
AcDbLine
 10
30.0
 20
111.143891
 30
0.0
 11
32.5
 21
111.143891
 31
0.0
  0
LINE
  5
3C4
100
AcDbEntity
  8
BODY
100
AcDbLine
 10
30.0
 20
110.643891
 30
0.0
 11
32.5
 21
110.643891
 31
0.0
  0
LINE
  5
3C5
100
AcDbEntity
  8
SHAFT
100
AcDbLine
 10
32.0
 20
115.643891
 30
0.0
 11
46.75
 21
115.643891
 31
0.0
  0
LINE
  5
3C6
100
AcDbEntity
  8
BODY
100
AcDbLine
 10
35.75
 20
130.643891
 30
0.0
 11
32.0
 21
126.893891
 31
0.0
  0
LINE
  5
3C7
100
AcDbEntity
  8
SHAFT
100
AcDbLine
 10
32.75
 20
127.643891
 30
0.0
 11
35.75
 21
130.643891
 31
0.0
  0
LINE
  5
3C8
100
AcDbEntity
  8
BODY
100
AcDbLine
 10
46.75
 20
115.643891
 30
0.0
 11
32.0
 21
115.643891
 31
0.0
  0
LINE
  5
3C9
100
AcDbEntity
  8
SHAFT
100
AcDbLine
 10
32.75
 20
127.643891
 30
0.0
 11
32.75
 21
115.643891
 31
0.0
  0
LINE
  5
3CA
100
AcDbEntity
  8
BODY
100
AcDbLine
 10
32.0
 20
126.893891
 30
0.0
 11
30.0
 21
126.893891
 31
0.0
  0
LINE
  5
3CB
100
AcDbEntity
  8
BODY
100
AcDbLine
 10
32.5
 20
127.393891
 30
0.0
 11
30.0
 21
127.393891
 31
0.0
  0
LINE
  5
3CC
100
AcDbEntity
  8
SHAFT
100
AcDbLine
 10
46.0
 20
130.643891
 30
0.0
 11
46.75
 21
115.643891
 31
0.0
  0
ENDBLK
  5
3CE
100
AcDbEntity
  8
0
100
AcDbBlockEnd
  0
BLOCK
  5
3D5
100
AcDbEntity
  8
0
100
AcDbBlockBegin
  2
A$C3D2E53C4
 70
     0
 10
0.0
 20
0.0
 30
0.0
  3
A$C3D2E53C4
  1

  0
INSERT
  5
3D3
100
AcDbEntity
  8
0
  6
CONTINUOUS
100
AcDbBlockReference
  2
A$C4D0D3218
 10
-0.000001
 20
0.000001
 30
0.0
  0
INSERT
  5
3D4
100
AcDbEntity
  8
0
  6
CONTINUOUS
100
AcDbBlockReference
  2
A$C4D0D3218
 10
558.499999
 20
0.000001
 30
0.0
 41
-1.0
  0
ENDBLK
  5
3D6
100
AcDbEntity
  8
0
100
AcDbBlockEnd
  0
ENDSEC
  0
SECTION
  2
ENTITIES
  0
ARC
  5
3A
100
AcDbEntity
  8
001
  6
CONTINUOUS
 62
     7
100
AcDbCircle
 10
1885.5
 20
719.181091
 30
0.0
 40
3.0
100
AcDbArc
 50
0.0
 51
89.995337
  0
LINE
  5
3B
100
AcDbEntity
  8
001
  6
CONTINUOUS
 62
     7
100
AcDbLine
 10
1888.5
 20
719.181091
 30
0.0
 11
1888.5
 21
705.181091
 31
0.0
  0
ARC
  5
3C
100
AcDbEntity
  8
001
  6
CONTINUOUS
 62
     7
100
AcDbCircle
 10
1885.5
 20
705.181213
 30
0.0
 40
3.0
100
AcDbArc
 50
270.004663
 51
359.997669
  0
LINE
  5
3D
100
AcDbEntity
  8
001
  6
CONTINUOUS
 62
     7
100
AcDbLine
 10
1846.5
 20
677.181091
 30
0.0
 11
1846.5
 21
576.449951
 31
0.0
  0
ARC
  5
3E
100
AcDbEntity
  8
001
  6
CONTINUOUS
 62
     7
100
AcDbCircle
 10
1846.000017
 20
815.181213
 30
0.0
 40
5.0
100
AcDbArc
 50
269.999808
 51
19.999784
  0
LINE
  5
3F
100
AcDbEntity
  8
001
  6
CONTINUOUS
 62
     7
100
AcDbLine
 10
1841.77124
 20
810.181213
 30
0.0
 11
1846.0
 21
810.181213
 31
0.0
  0
ARC
  5
40
100
AcDbEntity
  8
001
  6
CONTINUOUS
 62
     7
100
AcDbCircle
 10
1841.770972
 20
812.181213
 30
0.0
 40
2.0
100
AcDbArc
 50
200.001272
 51
270.007695
  0
ARC
  5
41
100
AcDbEntity
  8
001
  6
CONTINUOUS
 62
     7
100
AcDbCircle
 10
1818.49996
 20
761.322091
 30
0.0
 40
27.0
100
AcDbArc
 50
11.384222
 51
56.999725
  0
ARC
  5
42
100
AcDbEntity
  8
001
  6
CONTINUOUS
 62
     7
100
AcDbCircle
 10
1749.405167
 20
814.539122
 30
0.0
 40
20.000002
100
AcDbArc
 50
56.999497
 51
89.998995
  0
LINE
  5
43
100
AcDbEntity
  8
001
  6
CONTINUOUS
 62
     7
100
AcDbLine
 10
1736.412842
 20
863.181091
 30
0.0
 11
1736.412842
 21
834.539124
 31
0.0
  0
ARC
  5
44
100
AcDbEntity
  8
001
  6
CONTINUOUS
 62
     7
100
AcDbCircle
 10
1885.5
 20
736.181213
 30
0.0
 40
3.0
100
AcDbArc
 50
0.0
 51
89.995337
  0
LINE
  5
45
100
AcDbEntity
  8
001
  6
CONTINUOUS
 62
     7
100
AcDbLine
 10
1888.5
 20
725.181091
 30
0.0
 11
1888.5
 21
736.181213
 31
0.0
  0
ARC
  5
46
100
AcDbEntity
  8
001
  6
CONTINUOUS
 62
     7
100
AcDbCircle
 10
1885.5
 20
725.181091
 30
0.0
 40
3.0
100
AcDbArc
 50
270.004663
 51
0.0
  0
LINE
  5
47
100
AcDbEntity
  8
001
  6
CONTINUOUS
 62
     7
100
AcDbLine
 10
1696.5
 20
899.781189
 30
0.0
 11
1730.5
 21
899.781189
 31
0.0
  0
LINE
  5
48
100
AcDbEntity
  8
001
  6
CONTINUOUS
 62
     7
100
AcDbLine
 10
1696.5
 20
899.781189
 30
0.0
 11
1698.463135
 21
903.181091
 31
0.0
  0
LINE
  5
49
100
AcDbEntity
  8
001
  6
CONTINUOUS
 62
     7
100
AcDbLine
 10
1728.537109
 20
903.181091
 30
0.0
 11
1730.5
 21
899.781189
 31
0.0
  0
LINE
  5
4A
100
AcDbEntity
  8
001
  6
CONTINUOUS
 62
     7
100
AcDbLine
 10
1730.5
 20
899.781189
 30
0.0
 11
1730.5
 21
897.181091
 31
0.0
  0
ARC
  5
4B
100
AcDbEntity
  8
001
  6
CONTINUOUS
 62
     7
100
AcDbCircle
 10
1749.5
 20
907.181213
 30
0.0
 40
4.0
100
AcDbArc
 50
90.0
 51
180.0
  0
LINE
  5
4C
100
AcDbEntity
  8
001
  6
CONTINUOUS
 62
     7
100
AcDbLine
 10
1775.699219
 20
911.181213
 30
0.0
 11
1749.5
 21
911.181213
 31
0.0
  0
LINE
  5
4D
100
AcDbEntity
  8
001
  6
CONTINUOUS
 62
     7
100
AcDbLine
 10
1745.5
 20
907.181213
 30
0.0
 11
1745.5
 21
899.181213
 31
0.0
  0
ARC
  5
4E
100
AcDbEntity
  8
001
  6
CONTINUOUS
 62
     7
100
AcDbCircle
 10
1743.5
 20
899.181091
 30
0.0
 40
2.0
100
AcDbArc
 50
270.0
 51
0.003497
  0
ARC
  5
4F
100
AcDbEntity
  8
001
  6
CONTINUOUS
 62
     7
100
AcDbCircle
 10
1775.699179
 20
907.181213
 30
0.0
 40
4.0
100
AcDbArc
 50
19.997551
 51
89.999429
  0
ARC
  5
50
100
AcDbEntity
  8
001
  6
CONTINUOUS
 62
     7
100
AcDbCircle
 10
1765.178711
 20
907.181213
 30
0.0
 40
4.0
100
AcDbArc
 50
90.0
 51
180.0
  0
LINE
  5
51
100
AcDbEntity
  8
001
  6
CONTINUOUS
 62
     7
100
AcDbLine
 10
1761.178955
 20
907.181213
 30
0.0
 11
1761.178955
 21
899.181213
 31
0.0
  0
ARC
  5
52
100
AcDbEntity
  8
001
  6
CONTINUOUS
 62
     7
100
AcDbCircle
 10
1759.178711
 20
899.181091
 30
0.0
 40
2.0
100
AcDbArc
 50
270.0
 51
0.003497
  0
LINE
  5
53
100
AcDbEntity
  8
001
  6
CONTINUOUS
 62
     7
100
AcDbLine
 10
1690.5
 20
903.181091
 30
0.0
 11
1736.499756
 21
903.181091
 31
0.0
  0
LINE
  5
54
100
AcDbEntity
  8
001
  6
CONTINUOUS
 62
     7
100
AcDbLine
 10
1747.898193
 20
863.181091
 30
0.0
 11
1747.898193
 21
894.681091
 31
0.0
  0
LINE
  5
55
100
AcDbEntity
  8
001
  6
CONTINUOUS
 62
     7
100
AcDbLine
 10
1746.5
 20
863.181091
 30
0.0
 11
1746.5
 21
837.039124
 31
0.0
  0
ARC
  5
56
100
AcDbEntity
  8
001
  6
CONTINUOUS
 62
     7
100
AcDbCircle
 10
1541.5
 20
719.181091
 30
0.0
 40
3.0
100
AcDbArc
 50
90.0
 51
180.0
  0
LINE
  5
57
100
AcDbEntity
  8
001
  6
CONTINUOUS
 62
     7
100
AcDbLine
 10
1538.5
 20
719.181091
 30
0.0
 11
1538.5
 21
705.181091
 31
0.0
  0
ARC
  5
58
100
AcDbEntity
  8
001
  6
CONTINUOUS
 62
     7
100
AcDbCircle
 10
1541.5
 20
705.181213
 30
0.0
 40
3.0
100
AcDbArc
 50
180.002331
 51
270.0
  0
LINE
  5
59
100
AcDbEntity
  8
001
  6
CONTINUOUS
 62
     7
100
AcDbLine
 10
1580.5
 20
677.181091
 30
0.0
 11
1580.5
 21
576.449951
 31
0.0
  0
LINE
  5
5A
100
AcDbEntity
  8
001
  6
CONTINUOUS
 62
     7
100
AcDbLine
 10
1594.372803
 20
831.456482
 30
0.0
 11
1587.108398
 21
811.497131
 31
0.0
  0
ARC
  5
5B
100
AcDbEntity
  8
001
  6
CONTINUOUS
 62
     7
100
AcDbCircle
 10
1580.999983
 20
815.181213
 30
0.0
 40
5.0
100
AcDbArc
 50
160.000216
 51
270.000192
  0
LINE
  5
5C
100
AcDbEntity
  8
001
  6
CONTINUOUS
 62
     7
100
AcDbLine
 10
1585.229004
 20
810.181213
 30
0.0
 11
1581.0
 21
810.181213
 31
0.0
  0
ARC
  5
5D
100
AcDbEntity
  8
001
  6
CONTINUOUS
 62
     7
100
AcDbCircle
 10
1585.229028
 20
812.181213
 30
0.0
 40
2.0
100
AcDbArc
 50
269.999299
 51
339.998727
  0
LINE
  5
5E
100
AcDbEntity
  8
001
  6
CONTINUOUS
 62
     7
100
AcDbLine
 10
1609.97876
 20
794.476135
 30
0.0
 11
1620.326416
 21
822.905823
 31
0.0
  0
ARC
  5
5F
100
AcDbEntity
  8
001
  6
CONTINUOUS
 62
     7
100
AcDbCircle
 10
1608.500004
 20
761.321908
 30
0.0
 40
27.0
100
AcDbArc
 50
122.999564
 51
168.615383
  0
LINE
  5
60
100
AcDbEntity
  8
001
  6
CONTINUOUS
 62
     7
100
AcDbLine
 10
1593.794922
 20
783.966125
 30
0.0
 11
1666.70166
 21
831.312561
 31
0.0
  0
ARC
  5
61
100
AcDbEntity
  8
001
  6
CONTINUOUS
 62
     7
100
AcDbCircle
 10
1677.594833
 20
814.539122
 30
0.0
 40
20.000002
100
AcDbArc
 50
90.001005
 51
123.000503
  0
ARC
  5
62
100
AcDbEntity
  8
001
  6
CONTINUOUS
 62
     7
100
AcDbCircle
 10
1541.5
 20
736.181213
 30
0.0
 40
3.0
100
AcDbArc
 50
90.0
 51
180.0
  0
LINE
  5
63
100
AcDbEntity
  8
001
  6
CONTINUOUS
 62
     7
100
AcDbLine
 10
1538.5
 20
725.181091
 30
0.0
 11
1538.5
 21
736.181213
 31
0.0
  0
ARC
  5
64
100
AcDbEntity
  8
001
  6
CONTINUOUS
 62
     7
100
AcDbCircle
 10
1541.5
 20
725.181091
 30
0.0
 40
3.0
100
AcDbArc
 50
180.0
 51
270.0
  0
ARC
  5
65
100
AcDbEntity
  8
001
  6
CONTINUOUS
 62
     7
100
AcDbCircle
 10
1677.5
 20
907.181213
 30
0.0
 40
4.0
100
AcDbArc
 50
0.0
 51
90.0
  0
LINE
  5
66
100
AcDbEntity
  8
001
  6
CONTINUOUS
 62
     7
100
AcDbLine
 10
1651.301025
 20
911.181213
 30
0.0
 11
1677.5
 21
911.181213
 31
0.0
  0
LINE
  5
67
100
AcDbEntity
  8
001
  6
CONTINUOUS
 62
     7
100
AcDbLine
 10
1681.5
 20
907.181213
 30
0.0
 11
1681.5
 21
899.181213
 31
0.0
  0
ARC
  5
68
100
AcDbEntity
  8
001
  6
CONTINUOUS
 62
     7
100
AcDbCircle
 10
1683.5
 20
899.181091
 30
0.0
 40
2.0
100
AcDbArc
 50
179.996503
 51
270.0
  0
ARC
  5
69
100
AcDbEntity
  8
001
  6
CONTINUOUS
 62
     7
100
AcDbCircle
 10
1651.300821
 20
907.181213
 30
0.0
 40
4.0
100
AcDbArc
 50
89.997074
 51
160.002449
  0
ARC
  5
6A
100
AcDbEntity
  8
001
  6
CONTINUOUS
 62
     7
100
AcDbCircle
 10
1661.821289
 20
907.181213
 30
0.0
 40
4.0
100
AcDbArc
 50
0.0
 51
90.0
  0
LINE
  5
6B
100
AcDbEntity
  8
001
  6
CONTINUOUS
 62
     7
100
AcDbLine
 10
1665.821289
 20
907.181213
 30
0.0
 11
1665.821289
 21
899.181213
 31
0.0
  0
ARC
  5
6C
100
AcDbEntity
  8
001
  6
CONTINUOUS
 62
     7
100
AcDbCircle
 10
1667.821289
 20
899.181091
 30
0.0
 40
2.0
100
AcDbArc
 50
179.996503
 51
270.0
  0
LINE
  5
6D
100
AcDbEntity
  8
001
  6
CONTINUOUS
 62
     7
100
AcDbLine
 10
1679.101807
 20
863.181091
 30
0.0
 11
1679.101807
 21
894.681091
 31
0.0
  0
LINE
  5
6E
100
AcDbEntity
  8
001
  6
CONTINUOUS
 62
     7
100
AcDbLine
 10
1680.5
 20
863.181091
 30
0.0
 11
1680.5
 21
837.039124
 31
0.0
  0
LINE
  5
6F
100
AcDbEntity
  8
001
  6
CONTINUOUS
 62
     7
100
AcDbLine
 10
1802.02124
 20
794.476135
 30
0.0
 11
1627.818848
 21
794.476135
 31
0.0
  0
LINE
  5
70
100
AcDbEntity
  8
001
  6
CONTINUOUS
 62
     7
100
AcDbLine
 10
1885.500244
 20
739.181213
 30
0.0
 11
1541.5
 21
739.181213
 31
0.0
  0
LINE
  5
71
100
AcDbEntity
  8
001
  6
CONTINUOUS
 62
     7
100
AcDbLine
 10
1541.5
 20
722.181091
 30
0.0
 11
1885.500244
 21
722.181091
 31
0.0
  0
LINE
  5
72
100
AcDbEntity
  8
001
  6
CONTINUOUS
 62
     7
100
AcDbLine
 10
1885.500244
 20
702.181213
 30
0.0
 11
1541.5
 21
702.181213
 31
0.0
  0
LINE
  5
73
100
AcDbEntity
  8
001
  6
CONTINUOUS
 62
     7
100
AcDbLine
 10
1839.0
 20
677.181091
 30
0.0
 11
1588.0
 21
677.181091
 31
0.0
  0
LINE
  5
74
100
AcDbEntity
  8
001
  6
CONTINUOUS
 62
     7
100
AcDbLine
 10
1749.405518
 20
834.539124
 30
0.0
 11
1677.594482
 21
834.539124
 31
0.0
  0
LINE
  5
75
100
AcDbEntity
  8
001
  6
CONTINUOUS
 62
     7
100
AcDbLine
 10
1759.178711
 20
897.181091
 30
0.0
 11
1667.821289
 21
897.181091
 31
0.0
  0
LINE
  5
76
100
AcDbEntity
  8
001
  6
CONTINUOUS
 62
     7
100
AcDbLine
 10
1696.5
 20
899.781189
 30
0.0
 11
1696.5
 21
897.181091
 31
0.0
  0
ARC
  5
77
100
AcDbEntity
  8
001
  6
CONTINUOUS
 62
     7
100
AcDbCircle
 10
1736.5
 20
905.181091
 30
0.0
 40
2.0
100
AcDbArc
 50
270.0
 51
0.003497
  0
ARC
  5
78
100
AcDbEntity
  8
001
  6
CONTINUOUS
 62
     7
100
AcDbCircle
 10
1690.5
 20
905.181091
 30
0.0
 40
2.0
100
AcDbArc
 50
179.996503
 51
270.0
  0
LINE
  5
79
100
AcDbEntity
  8
001
  6
CONTINUOUS
 62
     7
100
AcDbLine
 10
1690.587158
 20
863.181091
 30
0.0
 11
1690.587158
 21
834.539124
 31
0.0
  0
ARC
  5
7A
100
AcDbEntity
  8
001
  6
CONTINUOUS
 62
     7
100
AcDbCircle
 10
1022.847617
 20
1379.911928
 30
0.0
 40
88.0
100
AcDbArc
 50
280.224279
 51
352.415041
  0
ARC
  5
7B
100
AcDbEntity
  8
001
  6
CONTINUOUS
 62
     7
100
AcDbCircle
 10
382.499914
 20
1465.18103
 30
0.0
 40
734.0
100
AcDbArc
 50
352.415075
 51
7.584925
  0
ARC
  5
7C
100
AcDbEntity
  8
001
  6
CONTINUOUS
 62
     7
100
AcDbCircle
 10
1022.8476
 20
1550.450257
 30
0.0
 40
88.0
100
AcDbArc
 50
7.584877
 51
79.77571
  0
ARC
  5
7D
100
AcDbEntity
  8
001
  6
CONTINUOUS
 62
     7
100
AcDbCircle
 10
1003.499939
 20
1443.180997
 30
0.0
 40
197.0
100
AcDbArc
 50
79.775726
 51
100.224274
  0
ARC
  5
7E
100
AcDbEntity
  8
001
  6
CONTINUOUS
 62
     7
100
AcDbCircle
 10
984.152215
 20
1550.450246
 30
0.0
 40
88.0
100
AcDbArc
 50
100.224249
 51
172.415116
  0
ARC
  5
7F
100
AcDbEntity
  8
001
  6
CONTINUOUS
 62
     7
100
AcDbCircle
 10
1624.499964
 20
1465.18103
 30
0.0
 40
734.0
100
AcDbArc
 50
172.415075
 51
187.584925
  0
ARC
  5
80
100
AcDbEntity
  8
001
  6
CONTINUOUS
 62
     7
100
AcDbCircle
 10
984.152198
 20
1379.91194
 30
0.0
 40
88.0
100
AcDbArc
 50
187.584967
 51
259.775762
  0
ARC
  5
81
100
AcDbEntity
  8
001
  6
CONTINUOUS
 62
     7
100
AcDbCircle
 10
1003.499939
 20
1487.181064
 30
0.0
 40
197.0
100
AcDbArc
 50
259.775726
 51
280.224274
  0
ARC
  5
82
100
AcDbEntity
  8
001
  6
CONTINUOUS
 62
     7
100
AcDbCircle
 10
1624.499911
 20
1465.18103
 30
0.0
 40
694.384033
100
AcDbArc
 50
172.415074
 51
187.584926
  0
ARC
  5
83
100
AcDbEntity
  8
001
  6
CONTINUOUS
 62
     7
100
AcDbCircle
 10
984.152217
 20
1379.911983
 30
0.0
 40
48.384033
100
AcDbArc
 50
187.584914
 51
259.77572
  0
ARC
  5
84
100
AcDbEntity
  8
001
  6
CONTINUOUS
 62
     7
100
AcDbCircle
 10
984.1522
 20
1550.450075
 30
0.0
 40
48.384033
100
AcDbArc
 50
100.22426
 51
172.414936
  0
ARC
  5
85
100
AcDbEntity
  8
001
  6
CONTINUOUS
 62
     7
100
AcDbCircle
 10
382.499967
 20
1465.18103
 30
0.0
 40
694.384033
100
AcDbArc
 50
352.415074
 51
7.584926
  0
ARC
  5
86
100
AcDbEntity
  8
001
  6
CONTINUOUS
 62
     7
100
AcDbCircle
 10
1022.847677
 20
1550.450075
 30
0.0
 40
48.384033
100
AcDbArc
 50
7.585064
 51
79.77574
  0
ARC
  5
87
100
AcDbEntity
  8
001
  6
CONTINUOUS
 62
     7
100
AcDbCircle
 10
1022.847661
 20
1379.911983
 30
0.0
 40
48.384033
100
AcDbArc
 50
280.22428
 51
352.415086
  0
CIRCLE
  5
88
100
AcDbEntity
  8
001
  6
CONTINUOUS
 62
     7
100
AcDbCircle
 10
1096.484863
 20
1411.500122
 30
0.0
 40
12.0
  0
LINE
  5
89
100
AcDbEntity
  8
001
  6
CONTINUOUS
 62
     7
100
AcDbLine
 10
1084.484863
 20
1418.428345
 30
0.0
 11
1084.484863
 21
1404.571899
 31
0.0
  0
LINE
  5
8A
100
AcDbEntity
  8
001
  6
CONTINUOUS
 62
     7
100
AcDbLine
 10
1084.484863
 20
1404.571899
 30
0.0
 11
1096.484863
 21
1397.643677
 31
0.0
  0
LINE
  5
8B
100
AcDbEntity
  8
001
  6
CONTINUOUS
 62
     7
100
AcDbLine
 10
1096.484863
 20
1397.643677
 30
0.0
 11
1108.484863
 21
1404.571899
 31
0.0
  0
LINE
  5
8C
100
AcDbEntity
  8
001
  6
CONTINUOUS
 62
     7
100
AcDbLine
 10
1108.484863
 20
1404.571899
 30
0.0
 11
1108.484863
 21
1418.428345
 31
0.0
  0
LINE
  5
8D
100
AcDbEntity
  8
001
  6
CONTINUOUS
 62
     7
100
AcDbLine
 10
1096.484863
 20
1425.356567
 30
0.0
 11
1084.484863
 21
1418.428345
 31
0.0
  0
LINE
  5
8E
100
AcDbEntity
  8
001
  6
CONTINUOUS
 62
     7
100
AcDbLine
 10
1108.484863
 20
1418.428345
 30
0.0
 11
1096.484863
 21
1425.356567
 31
0.0
  0
CIRCLE
  5
8F
100
AcDbEntity
  8
001
  6
CONTINUOUS
 62
     7
100
AcDbCircle
 10
1096.484863
 20
1411.500122
 30
0.0
 40
8.0
  0
CIRCLE
  5
90
100
AcDbEntity
  8
001
  6
CONTINUOUS
 62
     7
100
AcDbCircle
 10
1096.484863
 20
1411.500122
 30
0.0
 40
15.0
  0
ARC
  5
91
100
AcDbEntity
  8
001
  6
CONTINUOUS
 62
     7
100
AcDbCircle
 10
1003.499939
 20
1487.18104
 30
0.0
 40
162.285522
100
AcDbArc
 50
259.775721
 51
280.224279
  0
ARC
  5
92
100
AcDbEntity
  8
001
  6
CONTINUOUS
 62
     7
100
AcDbCircle
 10
1022.847692
 20
1379.911919
 30
0.0
 40
53.285522
100
AcDbArc
 50
280.224215
 51
352.415157
  0
ARC
  5
93
100
AcDbEntity
  8
001
  6
CONTINUOUS
 62
     7
100
AcDbCircle
 10
382.500007
 20
1465.18103
 30
0.0
 40
699.285522
100
AcDbArc
 50
352.415074
 51
7.584926
  0
ARC
  5
94
100
AcDbEntity
  8
001
  6
CONTINUOUS
 62
     7
100
AcDbCircle
 10
1022.847708
 20
1550.450139
 30
0.0
 40
53.285522
100
AcDbArc
 50
7.584979
 51
79.775803
  0
ARC
  5
95
100
AcDbEntity
  8
001
  6
CONTINUOUS
 62
     7
100
AcDbCircle
 10
1003.499939
 20
1443.18102
 30
0.0
 40
162.285522
100
AcDbArc
 50
79.775721
 51
100.224279
  0
ARC
  5
96
100
AcDbEntity
  8
001
  6
CONTINUOUS
 62
     7
100
AcDbCircle
 10
984.152357
 20
1550.450173
 30
0.0
 40
53.285522
100
AcDbArc
 50
100.224402
 51
172.415058
  0
ARC
  5
97
100
AcDbEntity
  8
001
  6
CONTINUOUS
 62
     7
100
AcDbCircle
 10
1624.499993
 20
1465.18103
 30
0.0
 40
699.285522
100
AcDbArc
 50
172.415074
 51
187.584926
  0
ARC
  5
98
100
AcDbEntity
  8
001
  6
CONTINUOUS
 62
     7
100
AcDbCircle
 10
984.152374
 20
1379.911885
 30
0.0
 40
53.285522
100
AcDbArc
 50
187.584807
 51
259.77558
  0
CIRCLE
  5
99
100
AcDbEntity
  8
001
  6
CONTINUOUS
 62
     7
100
AcDbCircle
 10
1055.774292
 20
1318.139404
 30
0.0
 40
12.0
  0
LINE
  5
9A
100
AcDbEntity
  8
001
  6
CONTINUOUS
 62
     7
100
AcDbLine
 10
1043.774292
 20
1325.067627
 30
0.0
 11
1043.774292
 21
1311.211182
 31
0.0
  0
LINE
  5
9B
100
AcDbEntity
  8
001
  6
CONTINUOUS
 62
     7
100
AcDbLine
 10
1055.774292
 20
1331.99585
 30
0.0
 11
1043.774292
 21
1325.067627
 31
0.0
  0
CIRCLE
  5
9C
100
AcDbEntity
  8
001
  6
CONTINUOUS
 62
     7
100
AcDbCircle
 10
1055.774292
 20
1318.139404
 30
0.0
 40
8.0
  0
CIRCLE
  5
9D
100
AcDbEntity
  8
001
  6
CONTINUOUS
 62
     7
100
AcDbCircle
 10
1055.774292
 20
1318.139404
 30
0.0
 40
15.0
  0
LINE
  5
9E
100
AcDbEntity
  8
001
  6
CONTINUOUS
 62
     7
100
AcDbLine
 10
1043.774292
 20
1311.211182
 30
0.0
 11
1055.774292
 21
1304.282959
 31
0.0
  0
LINE
  5
9F
100
AcDbEntity
  8
001
  6
CONTINUOUS
 62
     7
100
AcDbLine
 10
1055.774292
 20
1304.282959
 30
0.0
 11
1067.774292
 21
1311.211182
 31
0.0
  0
LINE
  5
A0
100
AcDbEntity
  8
001
  6
CONTINUOUS
 62
     7
100
AcDbLine
 10
1067.774292
 20
1311.211182
 30
0.0
 11
1067.774292
 21
1325.067627
 31
0.0
  0
LINE
  5
A1
100
AcDbEntity
  8
001
  6
CONTINUOUS
 62
     7
100
AcDbLine
 10
1067.774292
 20
1325.067627
 30
0.0
 11
1055.774292
 21
1331.99585
 31
0.0
  0
CIRCLE
  5
A2
100
AcDbEntity
  8
001
  6
CONTINUOUS
 62
     7
100
AcDbCircle
 10
1055.774292
 20
1612.222534
 30
0.0
 40
12.0
  0
LINE
  5
A3
100
AcDbEntity
  8
001
  6
CONTINUOUS
 62
     7
100
AcDbLine
 10
1043.774292
 20
1605.294434
 30
0.0
 11
1043.774292
 21
1619.150757
 31
0.0
  0
CIRCLE
  5
A4
100
AcDbEntity
  8
001
  6
CONTINUOUS
 62
     7
100
AcDbCircle
 10
1055.774292
 20
1612.222534
 30
0.0
 40
8.0
  0
CIRCLE
  5
A5
100
AcDbEntity
  8
001
  6
CONTINUOUS
 62
     7
100
AcDbCircle
 10
1055.774292
 20
1612.222534
 30
0.0
 40
15.0
  0
LINE
  5
A6
100
AcDbEntity
  8
001
  6
CONTINUOUS
 62
     7
100
AcDbLine
 10
1043.774292
 20
1619.150757
 30
0.0
 11
1055.774292
 21
1626.078979
 31
0.0
  0
LINE
  5
A7
100
AcDbEntity
  8
001
  6
CONTINUOUS
 62
     7
100
AcDbLine
 10
1055.774292
 20
1626.078979
 30
0.0
 11
1067.774292
 21
1619.150757
 31
0.0
  0
LINE
  5
A8
100
AcDbEntity
  8
001
  6
CONTINUOUS
 62
     7
100
AcDbLine
 10
1067.774292
 20
1619.150757
 30
0.0
 11
1067.774292
 21
1605.294434
 31
0.0
  0
LINE
  5
A9
100
AcDbEntity
  8
001
  6
CONTINUOUS
 62
     7
100
AcDbLine
 10
1055.774292
 20
1598.366211
 30
0.0
 11
1043.774292
 21
1605.294434
 31
0.0
  0
LINE
  5
AA
100
AcDbEntity
  8
001
  6
CONTINUOUS
 62
     7
100
AcDbLine
 10
1067.774292
 20
1605.294434
 30
0.0
 11
1055.774292
 21
1598.366211
 31
0.0
  0
CIRCLE
  5
AB
100
AcDbEntity
  8
001
  6
CONTINUOUS
 62
     7
100
AcDbCircle
 10
1096.484863
 20
1518.861938
 30
0.0
 40
12.0
  0
LINE
  5
AC
100
AcDbEntity
  8
001
  6
CONTINUOUS
 62
     7
100
AcDbLine
 10
1084.484863
 20
1511.933716
 30
0.0
 11
1084.484863
 21
1525.790039
 31
0.0
  0
LINE
  5
AD
100
AcDbEntity
  8
001
  6
CONTINUOUS
 62
     7
100
AcDbLine
 10
1096.484863
 20
1505.005493
 30
0.0
 11
1084.484863
 21
1511.933716
 31
0.0
  0
CIRCLE
  5
AE
100
AcDbEntity
  8
001
  6
CONTINUOUS
 62
     7
100
AcDbCircle
 10
1096.484863
 20
1518.861938
 30
0.0
 40
8.0
  0
CIRCLE
  5
AF
100
AcDbEntity
  8
001
  6
CONTINUOUS
 62
     7
100
AcDbCircle
 10
1096.484863
 20
1518.861938
 30
0.0
 40
15.0
  0
LINE
  5
B0
100
AcDbEntity
  8
001
  6
CONTINUOUS
 62
     7
100
AcDbLine
 10
1084.484863
 20
1525.790039
 30
0.0
 11
1096.484863
 21
1532.718262
 31
0.0
  0
LINE
  5
B1
100
AcDbEntity
  8
001
  6
CONTINUOUS
 62
     7
100
AcDbLine
 10
1096.484863
 20
1532.718262
 30
0.0
 11
1108.484863
 21
1525.790039
 31
0.0
  0
LINE
  5
B2
100
AcDbEntity
  8
001
  6
CONTINUOUS
 62
     7
100
AcDbLine
 10
1108.484863
 20
1525.790039
 30
0.0
 11
1108.484863
 21
1511.933716
 31
0.0
  0
LINE
  5
B3
100
AcDbEntity
  8
001
  6
CONTINUOUS
 62
     7
100
AcDbLine
 10
1108.484863
 20
1511.933716
 30
0.0
 11
1096.484863
 21
1505.005493
 31
0.0
  0
CIRCLE
  5
B4
100
AcDbEntity
  8
001
  6
CONTINUOUS
 62
     7
100
AcDbCircle
 10
951.225586
 20
1318.139404
 30
0.0
 40
12.0
  0
LINE
  5
B5
100
AcDbEntity
  8
001
  6
CONTINUOUS
 62
     7
100
AcDbLine
 10
963.225586
 20
1325.067627
 30
0.0
 11
963.225586
 21
1311.211182
 31
0.0
  0
CIRCLE
  5
B6
100
AcDbEntity
  8
001
  6
CONTINUOUS
 62
     7
100
AcDbCircle
 10
951.225586
 20
1318.139404
 30
0.0
 40
8.0
  0
CIRCLE
  5
B7
100
AcDbEntity
  8
001
  6
CONTINUOUS
 62
     7
100
AcDbCircle
 10
951.225586
 20
1318.139404
 30
0.0
 40
15.0
  0
LINE
  5
B8
100
AcDbEntity
  8
001
  6
CONTINUOUS
 62
     7
100
AcDbLine
 10
963.225586
 20
1311.211182
 30
0.0
 11
951.225586
 21
1304.282959
 31
0.0
  0
LINE
  5
B9
100
AcDbEntity
  8
001
  6
CONTINUOUS
 62
     7
100
AcDbLine
 10
951.225586
 20
1304.282959
 30
0.0
 11
939.225586
 21
1311.211182
 31
0.0
  0
LINE
  5
BA
100
AcDbEntity
  8
001
  6
CONTINUOUS
 62
     7
100
AcDbLine
 10
939.225586
 20
1311.211182
 30
0.0
 11
939.225586
 21
1325.067627
 31
0.0
  0
LINE
  5
BB
100
AcDbEntity
  8
001
  6
CONTINUOUS
 62
     7
100
AcDbLine
 10
939.225586
 20
1325.067627
 30
0.0
 11
951.225586
 21
1331.99585
 31
0.0
  0
LINE
  5
BC
100
AcDbEntity
  8
001
  6
CONTINUOUS
 62
     7
100
AcDbLine
 10
951.225586
 20
1331.99585
 30
0.0
 11
963.225586
 21
1325.067627
 31
0.0
  0
CIRCLE
  5
BD
100
AcDbEntity
  8
001
  6
CONTINUOUS
 62
     7
100
AcDbCircle
 10
910.515137
 20
1411.500122
 30
0.0
 40
12.0
  0
LINE
  5
BE
100
AcDbEntity
  8
001
  6
CONTINUOUS
 62
     7
100
AcDbLine
 10
922.515137
 20
1418.428345
 30
0.0
 11
922.515137
 21
1404.571899
 31
0.0
  0
LINE
  5
BF
100
AcDbEntity
  8
001
  6
CONTINUOUS
 62
     7
100
AcDbLine
 10
922.515137
 20
1404.571899
 30
0.0
 11
910.515137
 21
1397.643677
 31
0.0
  0
LINE
  5
C0
100
AcDbEntity
  8
001
  6
CONTINUOUS
 62
     7
100
AcDbLine
 10
910.515137
 20
1425.356567
 30
0.0
 11
922.515137
 21
1418.428345
 31
0.0
  0
CIRCLE
  5
C1
100
AcDbEntity
  8
001
  6
CONTINUOUS
 62
     7
100
AcDbCircle
 10
910.515137
 20
1411.500122
 30
0.0
 40
8.0
  0
CIRCLE
  5
C2
100
AcDbEntity
  8
001
  6
CONTINUOUS
 62
     7
100
AcDbCircle
 10
910.515137
 20
1411.500122
 30
0.0
 40
15.0
  0
LINE
  5
C3
100
AcDbEntity
  8
001
  6
CONTINUOUS
 62
     7
100
AcDbLine
 10
910.515137
 20
1397.643677
 30
0.0
 11
898.515137
 21
1404.571899
 31
0.0
  0
LINE
  5
C4
100
AcDbEntity
  8
001
  6
CONTINUOUS
 62
     7
100
AcDbLine
 10
898.515137
 20
1404.571899
 30
0.0
 11
898.515137
 21
1418.428345
 31
0.0
  0
LINE
  5
C5
100
AcDbEntity
  8
001
  6
CONTINUOUS
 62
     7
100
AcDbLine
 10
898.515137
 20
1418.428345
 30
0.0
 11
910.515137
 21
1425.356567
 31
0.0
  0
CIRCLE
  5
C6
100
AcDbEntity
  8
001
  6
CONTINUOUS
 62
     7
100
AcDbCircle
 10
910.515137
 20
1518.861938
 30
0.0
 40
12.0
  0
CIRCLE
  5
C7
100
AcDbEntity
  8
001
  6
CONTINUOUS
 62
     7
100
AcDbCircle
 10
910.515137
 20
1518.861938
 30
0.0
 40
8.0
  0
CIRCLE
  5
C8
100
AcDbEntity
  8
001
  6
CONTINUOUS
 62
     7
100
AcDbCircle
 10
910.515137
 20
1518.861938
 30
0.0
 40
15.0
  0
LINE
  5
C9
100
AcDbEntity
  8
001
  6
CONTINUOUS
 62
     7
100
AcDbLine
 10
910.515137
 20
1532.718262
 30
0.0
 11
898.515137
 21
1525.790039
 31
0.0
  0
LINE
  5
CA
100
AcDbEntity
  8
001
  6
CONTINUOUS
 62
     7
100
AcDbLine
 10
898.515137
 20
1525.790039
 30
0.0
 11
898.515137
 21
1511.933716
 31
0.0
  0
LINE
  5
CB
100
AcDbEntity
  8
001
  6
CONTINUOUS
 62
     7
100
AcDbLine
 10
898.515137
 20
1511.933716
 30
0.0
 11
910.515137
 21
1505.005493
 31
0.0
  0
LINE
  5
CC
100
AcDbEntity
  8
001
  6
CONTINUOUS
 62
     7
100
AcDbLine
 10
922.515137
 20
1511.933716
 30
0.0
 11
922.515137
 21
1525.790039
 31
0.0
  0
LINE
  5
CD
100
AcDbEntity
  8
001
  6
CONTINUOUS
 62
     7
100
AcDbLine
 10
910.515137
 20
1505.005493
 30
0.0
 11
922.515137
 21
1511.933716
 31
0.0
  0
LINE
  5
CE
100
AcDbEntity
  8
001
  6
CONTINUOUS
 62
     7
100
AcDbLine
 10
922.515137
 20
1525.790039
 30
0.0
 11
910.515137
 21
1532.718262
 31
0.0
  0
CIRCLE
  5
CF
100
AcDbEntity
  8
001
  6
CONTINUOUS
 62
     7
100
AcDbCircle
 10
951.225586
 20
1612.222534
 30
0.0
 40
12.0
  0
CIRCLE
  5
D0
100
AcDbEntity
  8
001
  6
CONTINUOUS
 62
     7
100
AcDbCircle
 10
951.225586
 20
1612.222534
 30
0.0
 40
8.0
  0
CIRCLE
  5
D1
100
AcDbEntity
  8
001
  6
CONTINUOUS
 62
     7
100
AcDbCircle
 10
951.225586
 20
1612.222534
 30
0.0
 40
15.0
  0
LINE
  5
D2
100
AcDbEntity
  8
001
  6
CONTINUOUS
 62
     7
100
AcDbLine
 10
951.225586
 20
1626.078979
 30
0.0
 11
939.225586
 21
1619.150757
 31
0.0
  0
LINE
  5
D3
100
AcDbEntity
  8
001
  6
CONTINUOUS
 62
     7
100
AcDbLine
 10
939.225586
 20
1619.150757
 30
0.0
 11
939.225586
 21
1605.294434
 31
0.0
  0
LINE
  5
D4
100
AcDbEntity
  8
001
  6
CONTINUOUS
 62
     7
100
AcDbLine
 10
963.225586
 20
1619.150757
 30
0.0
 11
951.225586
 21
1626.078979
 31
0.0
  0
LINE
  5
D5
100
AcDbEntity
  8
001
  6
CONTINUOUS
 62
     7
100
AcDbLine
 10
963.225586
 20
1605.294434
 30
0.0
 11
963.225586
 21
1619.150757
 31
0.0
  0
LINE
  5
D6
100
AcDbEntity
  8
001
  6
CONTINUOUS
 62
     7
100
AcDbLine
 10
951.225586
 20
1598.366211
 30
0.0
 11
963.225586
 21
1605.294434
 31
0.0
  0
LINE
  5
D7
100
AcDbEntity
  8
001
  6
CONTINUOUS
 62
     7
100
AcDbLine
 10
939.225586
 20
1605.294434
 30
0.0
 11
951.225586
 21
1598.366211
 31
0.0
  0
ARC
  5
D8
100
AcDbEntity
  8
001
  6
CONTINUOUS
 62
     7
100
AcDbCircle
 10
1033.5
 20
1558.702271
 30
0.0
 40
10.0
100
AcDbArc
 50
0.0
 51
90.0
  0
ARC
  5
D9
100
AcDbEntity
  8
001
  6
CONTINUOUS
 62
     7
100
AcDbCircle
 10
973.5
 20
1558.702271
 30
0.0
 40
10.0
100
AcDbArc
 50
90.0
 51
180.0
  0
LINE
  5
DA
100
AcDbEntity
  8
001
  6
CONTINUOUS
 62
     7
100
AcDbLine
 10
995.407471
 20
1602.68103
 30
0.0
 11
1011.592529
 21
1602.68103
 31
0.0
  0
ARC
  5
DB
100
AcDbEntity
  8
001
  6
CONTINUOUS
 62
     7
100
AcDbCircle
 10
1011.592508
 20
1600.68103
 30
0.0
 40
2.0
100
AcDbArc
 50
7.741538
 51
89.999395
  0
ARC
  5
DC
100
AcDbEntity
  8
001
  6
CONTINUOUS
 62
     7
100
AcDbCircle
 10
995.407492
 20
1600.68103
 30
0.0
 40
2.0
100
AcDbArc
 50
90.000605
 51
172.258462
  0
LINE
  5
DD
100
AcDbEntity
  8
001
  6
CONTINUOUS
 62
     7
100
AcDbLine
 10
989.376709
 20
1568.702271
 30
0.0
 11
973.5
 21
1568.702271
 31
0.0
  0
LINE
  5
DE
100
AcDbEntity
  8
001
  6
CONTINUOUS
 62
     7
100
AcDbLine
 10
1033.5
 20
1568.702271
 30
0.0
 11
1017.623291
 21
1568.702271
 31
0.0
  0
LINE
  5
DF
100
AcDbEntity
  8
001
  6
CONTINUOUS
 62
     7
100
AcDbLine
 10
1013.574341
 20
1587.623657
 30
0.0
 11
993.425659
 21
1587.623657
 31
0.0
  0
LINE
  5
E0
100
AcDbEntity
  8
001
  6
CONTINUOUS
 62
     7
100
AcDbLine
 10
986.253479
 20
1548.187256
 30
0.0
 11
993.425659
 21
1600.950439
 31
0.0
  0
LINE
  5
E1
100
AcDbEntity
  8
001
  6
CONTINUOUS
 62
     7
100
AcDbLine
 10
1020.746399
 20
1548.187256
 30
0.0
 11
1013.574341
 21
1600.950439
 31
0.0
  0
ARC
  5
E2
100
AcDbEntity
  8
001
  6
CONTINUOUS
 62
     7
100
AcDbCircle
 10
1033.5
 20
1371.65979
 30
0.0
 40
10.0
100
AcDbArc
 50
270.0
 51
0.0
  0
LINE
  5
E3
100
AcDbEntity
  8
001
  6
CONTINUOUS
 62
     7
100
AcDbLine
 10
1033.5
 20
1361.65979
 30
0.0
 11
1017.623291
 21
1361.65979
 31
0.0
  0
LINE
  5
E4
100
AcDbEntity
  8
001
  6
CONTINUOUS
 62
     7
100
AcDbLine
 10
1020.746399
 20
1382.174805
 30
0.0
 11
1013.574341
 21
1329.411621
 31
0.0
  0
ARC
  5
E5
100
AcDbEntity
  8
001
  6
CONTINUOUS
 62
     7
100
AcDbCircle
 10
973.5
 20
1371.65979
 30
0.0
 40
10.0
100
AcDbArc
 50
180.0
 51
270.0
  0
LINE
  5
E6
100
AcDbEntity
  8
001
  6
CONTINUOUS
 62
     7
100
AcDbLine
 10
989.376709
 20
1361.65979
 30
0.0
 11
973.5
 21
1361.65979
 31
0.0
  0
LINE
  5
E7
100
AcDbEntity
  8
001
  6
CONTINUOUS
 62
     7
100
AcDbLine
 10
986.253479
 20
1382.174805
 30
0.0
 11
993.425659
 21
1329.411621
 31
0.0
  0
LINE
  5
E8
100
AcDbEntity
  8
001
  6
CONTINUOUS
 62
     7
100
AcDbLine
 10
1013.574341
 20
1342.738403
 30
0.0
 11
993.425659
 21
1342.738403
 31
0.0
  0
LINE
  5
E9
100
AcDbEntity
  8
001
  6
CONTINUOUS
 62
     7
100
AcDbLine
 10
995.407471
 20
1327.68103
 30
0.0
 11
1011.592529
 21
1327.68103
 31
0.0
  0
ARC
  5
EA
100
AcDbEntity
  8
001
  6
CONTINUOUS
 62
     7
100
AcDbCircle
 10
1011.592508
 20
1329.68103
 30
0.0
 40
2.0
100
AcDbArc
 50
270.000605
 51
352.258462
  0
ARC
  5
EB
100
AcDbEntity
  8
001
  6
CONTINUOUS
 62
     7
100
AcDbCircle
 10
995.407492
 20
1329.68103
 30
0.0
 40
2.0
100
AcDbArc
 50
187.741538
 51
269.999395
  0
LINE
  5
EC
100
AcDbEntity
  8
001
  6
CONTINUOUS
 62
     7
100
AcDbLine
 10
963.5
 20
1371.65979
 30
0.0
 11
963.5
 21
1393.026611
 31
0.0
  0
LINE
  5
ED
100
AcDbEntity
  8
001
  6
CONTINUOUS
 62
     7
100
AcDbLine
 10
1043.5
 20
1371.65979
 30
0.0
 11
1043.5
 21
1393.026611
 31
0.0
  0
LINE
  5
EE
100
AcDbEntity
  8
001
  6
CONTINUOUS
 62
     7
100
AcDbLine
 10
1043.5
 20
1537.335327
 30
0.0
 11
1043.5
 21
1558.702271
 31
0.0
  0
LINE
  5
EF
100
AcDbEntity
  8
001
  6
CONTINUOUS
 62
     7
100
AcDbLine
 10
963.5
 20
1537.335327
 30
0.0
 11
963.5
 21
1558.702271
 31
0.0
  0
ARC
  5
F0
100
AcDbEntity
  8
001
  6
CONTINUOUS
 62
     7
100
AcDbCircle
 10
981.299049
 20
1381.501287
 30
0.0
 40
5.0
100
AcDbArc
 50
7.741475
 51
40.693551
  0
ARC
  5
F1
100
AcDbEntity
  8
001
  6
CONTINUOUS
 62
     7
100
AcDbCircle
 10
1025.70084
 20
1381.501372
 30
0.0
 40
5.0
100
AcDbArc
 50
139.307723
 51
172.2595
  0
ARC
  5
F2
100
AcDbEntity
  8
001
  6
CONTINUOUS
 62
     7
100
AcDbCircle
 10
981.299049
 20
1548.860773
 30
0.0
 40
5.0
100
AcDbArc
 50
319.306449
 51
352.258525
  0
ARC
  5
F3
100
AcDbEntity
  8
001
  6
CONTINUOUS
 62
     7
100
AcDbCircle
 10
1025.70084
 20
1548.860689
 30
0.0
 40
5.0
100
AcDbArc
 50
187.7405
 51
220.692277
  0
ARC
  5
F4
100
AcDbEntity
  8
001
  6
CONTINUOUS
 62
     7
100
AcDbCircle
 10
964.0
 20
1396.188197
 30
0.0
 40
3.0
100
AcDbArc
 50
179.999326
 51
240.207071
  0
ARC
  5
F5
100
AcDbEntity
  8
001
  6
CONTINUOUS
 62
     7
100
AcDbCircle
 10
1043.0
 20
1396.188389
 30
0.0
 40
3.0
100
AcDbArc
 50
299.790242
 51
359.997008
  0
ARC
  5
F6
100
AcDbEntity
  8
001
  6
CONTINUOUS
 62
     7
100
AcDbCircle
 10
1003.500046
 20
1465.181046
 30
0.0
 40
82.5
100
AcDbArc
 50
240.207767
 51
299.792062
  0
ARC
  5
F7
100
AcDbEntity
  8
001
  6
CONTINUOUS
 62
     7
100
AcDbCircle
 10
1043.0
 20
1534.173671
 30
0.0
 40
3.0
100
AcDbArc
 50
0.000661
 51
60.209758
  0
ARC
  5
F8
100
AcDbEntity
  8
001
  6
CONTINUOUS
 62
     7
100
AcDbCircle
 10
964.0
 20
1534.173863
 30
0.0
 40
3.0
100
AcDbArc
 50
119.792929
 51
180.003005
  0
ARC
  5
F9
100
AcDbEntity
  8
001
  6
CONTINUOUS
 62
     7
100
AcDbCircle
 10
1003.500046
 20
1465.181014
 30
0.0
 40
82.5
100
AcDbArc
 50
60.207938
 51
119.792233
  0
LINE
  5
FA
100
AcDbEntity
  8
001
  6
CONTINUOUS
 62
     7
100
AcDbLine
 10
961.0
 20
1509.339844
 30
0.0
 11
961.0
 21
1534.173706
 31
0.0
  0
ARC
  5
FB
100
AcDbEntity
  8
001
  6
CONTINUOUS
 62
     7
100
AcDbCircle
 10
946.0
 20
1509.340005
 30
0.0
 40
15.0
100
AcDbArc
 50
322.476064
 51
0.0
  0
LINE
  5
FC
100
AcDbEntity
  8
001
  6
CONTINUOUS
 62
     7
100
AcDbLine
 10
961.0
 20
1396.188232
 30
0.0
 11
961.0
 21
1421.022217
 31
0.0
  0
ARC
  5
FD
100
AcDbEntity
  8
001
  6
CONTINUOUS
 62
     7
100
AcDbCircle
 10
946.0
 20
1421.022055
 30
0.0
 40
15.0
100
AcDbArc
 50
0.000617
 51
37.523936
  0
ARC
  5
FE
100
AcDbEntity
  8
001
  6
CONTINUOUS
 62
     7
100
AcDbCircle
 10
1003.499869
 20
1465.18103
 30
0.0
 40
57.5
100
AcDbArc
 50
142.476382
 51
217.523618
  0
LINE
  5
FF
100
AcDbEntity
  8
001
  6
CONTINUOUS
 62
     7
100
AcDbLine
 10
1046.0
 20
1396.188232
 30
0.0
 11
1046.0
 21
1421.022217
 31
0.0
  0
ARC
  5
100
100
AcDbEntity
  8
001
  6
CONTINUOUS
 62
     7
100
AcDbCircle
 10
1061.0
 20
1421.022336
 30
0.0
 40
15.0
100
AcDbArc
 50
142.47683
 51
180.000456
  0
LINE
  5
101
100
AcDbEntity
  8
001
  6
CONTINUOUS
 62
     7
100
AcDbLine
 10
1046.0
 20
1509.339844
 30
0.0
 11
1046.0
 21
1534.173706
 31
0.0
  0
ARC
  5
102
100
AcDbEntity
  8
001
  6
CONTINUOUS
 62
     7
100
AcDbCircle
 10
1061.0
 20
1509.339724
 30
0.0
 40
15.0
100
AcDbArc
 50
179.999544
 51
217.52317
  0
ARC
  5
103
100
AcDbEntity
  8
001
  6
CONTINUOUS
 62
     7
100
AcDbCircle
 10
1003.500009
 20
1465.18103
 30
0.0
 40
57.5
100
AcDbArc
 50
322.476382
 51
37.523618
  0
ARC
  5
104
100
AcDbEntity
  8
001
  6
CONTINUOUS
 62
     7
100
AcDbCircle
 10
1003.500412
 20
1465.180786
 30
0.0
 40
42.5
100
AcDbArc
 50
56.813567
 51
69.596176
  0
ARC
  5
105
100
AcDbEntity
  8
001
  6
CONTINUOUS
 62
     7
100
AcDbCircle
 10
1003.499749
 20
1465.180892
 30
0.0
 40
42.5
100
AcDbArc
 50
110.404231
 51
123.186692
  0
LINE
  5
106
100
AcDbEntity
  8
001
  6
CONTINUOUS
 62
     7
100
AcDbLine
 10
1032.759033
 20
1501.140991
 30
0.0
 11
1045.303467
 21
1511.921265
 31
0.0
  0
ARC
  5
107
100
AcDbEntity
  8
001
  6
CONTINUOUS
 62
     7
100
AcDbCircle
 10
1044.000014
 20
1513.438173
 30
0.0
 40
2.0
100
AcDbArc
 50
310.671905
 51
49.997919
  0
ARC
  5
108
100
AcDbEntity
  8
001
  6
CONTINUOUS
 62
     7
100
AcDbCircle
 10
1029.500248
 20
1504.933252
 30
0.0
 40
5.0
100
AcDbArc
 50
236.813637
 51
310.674207
  0
ARC
  5
109
100
AcDbEntity
  8
001
  6
CONTINUOUS
 62
     7
100
AcDbCircle
 10
962.999864
 20
1513.438173
 30
0.0
 40
2.0
100
AcDbArc
 50
130.002081
 51
229.328095
  0
LINE
  5
10A
100
AcDbEntity
  8
001
  6
CONTINUOUS
 62
     7
100
AcDbLine
 10
974.240845
 20
1501.140991
 30
0.0
 11
961.696411
 21
1511.921265
 31
0.0
  0
ARC
  5
10B
100
AcDbEntity
  8
001
  6
CONTINUOUS
 62
     7
100
AcDbCircle
 10
977.499602
 20
1504.933154
 30
0.0
 40
5.0
100
AcDbArc
 50
229.326215
 51
303.188417
  0
ARC
  5
10C
100
AcDbEntity
  8
001
  6
CONTINUOUS
 62
     7
100
AcDbCircle
 10
1003.500042
 20
1465.181025
 30
0.0
 40
65.0
100
AcDbArc
 50
49.994928
 51
130.005239
  0
ARC
  5
10D
100
AcDbEntity
  8
001
  6
CONTINUOUS
 62
     7
100
AcDbCircle
 10
1003.499749
 20
1465.181169
 30
0.0
 40
42.5
100
AcDbArc
 50
236.813308
 51
249.595769
  0
ARC
  5
10E
100
AcDbEntity
  8
001
  6
CONTINUOUS
 62
     7
100
AcDbCircle
 10
963.000008
 20
1416.923889
 30
0.0
 40
2.0
100
AcDbArc
 50
130.677334
 51
229.992543
  0
LINE
  5
10F
100
AcDbEntity
  8
001
  6
CONTINUOUS
 62
     7
100
AcDbLine
 10
974.240845
 20
1429.220947
 30
0.0
 11
961.696411
 21
1418.440674
 31
0.0
  0
ARC
  5
110
100
AcDbEntity
  8
001
  6
CONTINUOUS
 62
     7
100
AcDbCircle
 10
977.499602
 20
1425.428906
 30
0.0
 40
5.0
100
AcDbArc
 50
56.811583
 51
130.673785
  0
ARC
  5
111
100
AcDbEntity
  8
001
  6
CONTINUOUS
 62
     7
100
AcDbCircle
 10
1003.499969
 20
1465.181097
 30
0.0
 40
65.0
100
AcDbArc
 50
229.994844
 51
310.005156
  0
ARC
  5
112
100
AcDbEntity
  8
001
  6
CONTINUOUS
 62
     7
100
AcDbCircle
 10
1003.49998
 20
1465.180991
 30
0.0
 40
42.5
100
AcDbArc
 50
290.404446
 51
303.18713
  0
LINE
  5
113
100
AcDbEntity
  8
001
  6
CONTINUOUS
 62
     7
100
AcDbLine
 10
1032.759033
 20
1429.220947
 30
0.0
 11
1045.303467
 21
1418.440674
 31
0.0
  0
ARC
  5
114
100
AcDbEntity
  8
001
  6
CONTINUOUS
 62
     7
100
AcDbCircle
 10
1043.99987
 20
1416.923889
 30
0.0
 40
2.0
100
AcDbArc
 50
310.007457
 51
49.322666
  0
ARC
  5
115
100
AcDbEntity
  8
001
  6
CONTINUOUS
 62
     7
100
AcDbCircle
 10
1029.500248
 20
1425.42893
 30
0.0
 40
5.0
100
AcDbArc
 50
49.325793
 51
123.186363
  0
ARC
  5
116
100
AcDbEntity
  8
001
  6
CONTINUOUS
 62
     7
100
AcDbCircle
 10
1007.5
 20
1471.18103
 30
0.0
 40
3.0
100
AcDbArc
 50
0.0
 51
90.0
  0
LINE
  5
117
100
AcDbEntity
  8
001
  6
CONTINUOUS
 62
     7
100
AcDbLine
 10
1007.5
 20
1474.18103
 30
0.0
 11
999.5
 21
1474.18103
 31
0.0
  0
ARC
  5
118
100
AcDbEntity
  8
001
  6
CONTINUOUS
 62
     7
100
AcDbCircle
 10
999.5
 20
1471.18103
 30
0.0
 40
3.0
100
AcDbArc
 50
90.0
 51
180.0
  0
LINE
  5
119
100
AcDbEntity
  8
001
  6
CONTINUOUS
 62
     7
100
AcDbLine
 10
996.5
 20
1469.68103
 30
0.0
 11
996.5
 21
1471.18103
 31
0.0
  0
ARC
  5
11A
100
AcDbEntity
  8
001
  6
CONTINUOUS
 62
     7
100
AcDbCircle
 10
999.5
 20
1469.68103
 30
0.0
 40
3.0
100
AcDbArc
 50
180.0
 51
270.0
  0
ARC
  5
11B
100
AcDbEntity
  8
001
  6
CONTINUOUS
 62
     7
100
AcDbCircle
 10
1007.5
 20
1460.68103
 30
0.0
 40
3.0
100
AcDbArc
 50
0.0
 51
90.0
  0
LINE
  5
11C
100
AcDbEntity
  8
001
  6
CONTINUOUS
 62
     7
100
AcDbLine
 10
1010.5
 20
1459.18103
 30
0.0
 11
1010.5
 21
1460.68103
 31
0.0
  0
ARC
  5
11D
100
AcDbEntity
  8
001
  6
CONTINUOUS
 62
     7
100
AcDbCircle
 10
1007.5
 20
1459.18103
 30
0.0
 40
3.0
100
AcDbArc
 50
270.0
 51
0.0
  0
LINE
  5
11E
100
AcDbEntity
  8
001
  6
CONTINUOUS
 62
     7
100
AcDbLine
 10
1007.5
 20
1456.18103
 30
0.0
 11
999.5
 21
1456.18103
 31
0.0
  0
ARC
  5
11F
100
AcDbEntity
  8
001
  6
CONTINUOUS
 62
     7
100
AcDbCircle
 10
999.5
 20
1459.18103
 30
0.0
 40
3.0
100
AcDbArc
 50
180.0
 51
270.0
  0
ARC
  5
120
100
AcDbEntity
  8
001
  6
CONTINUOUS
 62
     7
100
AcDbCircle
 10
999.5
 20
1459.18103
 30
0.0
 40
6.0
100
AcDbArc
 50
180.0
 51
270.0
  0
LINE
  5
121
100
AcDbEntity
  8
001
  6
CONTINUOUS
 62
     7
100
AcDbLine
 10
1007.5
 20
1453.18103
 30
0.0
 11
999.5
 21
1453.18103
 31
0.0
  0
ARC
  5
122
100
AcDbEntity
  8
001
  6
CONTINUOUS
 62
     7
100
AcDbCircle
 10
1007.5
 20
1459.18103
 30
0.0
 40
6.0
100
AcDbArc
 50
270.0
 51
0.0
  0
LINE
  5
123
100
AcDbEntity
  8
001
  6
CONTINUOUS
 62
     7
100
AcDbLine
 10
1013.5
 20
1459.18103
 30
0.0
 11
1013.5
 21
1460.68103
 31
0.0
  0
ARC
  5
124
100
AcDbEntity
  8
001
  6
CONTINUOUS
 62
     7
100
AcDbCircle
 10
1007.5
 20
1460.68103
 30
0.0
 40
6.0
100
AcDbArc
 50
0.0
 51
90.0
  0
LINE
  5
125
100
AcDbEntity
  8
001
  6
CONTINUOUS
 62
     7
100
AcDbLine
 10
1007.5
 20
1466.68103
 30
0.0
 11
999.5
 21
1466.68103
 31
0.0
  0
LINE
  5
126
100
AcDbEntity
  8
001
  6
CONTINUOUS
 62
     7
100
AcDbLine
 10
1007.5
 20
1463.68103
 30
0.0
 11
999.5
 21
1463.68103
 31
0.0
  0
ARC
  5
127
100
AcDbEntity
  8
001
  6
CONTINUOUS
 62
     7
100
AcDbCircle
 10
999.5
 20
1469.68103
 30
0.0
 40
6.0
100
AcDbArc
 50
180.0
 51
270.0
  0
LINE
  5
128
100
AcDbEntity
  8
001
  6
CONTINUOUS
 62
     7
100
AcDbLine
 10
993.5
 20
1469.68103
 30
0.0
 11
993.5
 21
1471.18103
 31
0.0
  0
ARC
  5
129
100
AcDbEntity
  8
001
  6
CONTINUOUS
 62
     7
100
AcDbCircle
 10
999.5
 20
1471.18103
 30
0.0
 40
6.0
100
AcDbArc
 50
90.0
 51
180.0
  0
LINE
  5
12A
100
AcDbEntity
  8
001
  6
CONTINUOUS
 62
     7
100
AcDbLine
 10
1007.5
 20
1477.18103
 30
0.0
 11
999.5
 21
1477.18103
 31
0.0
  0
ARC
  5
12B
100
AcDbEntity
  8
001
  6
CONTINUOUS
 62
     7
100
AcDbCircle
 10
1007.5
 20
1471.18103
 30
0.0
 40
6.0
100
AcDbArc
 50
0.0
 51
90.0
  0
LINE
  5
12C
100
AcDbEntity
  8
001
  6
CONTINUOUS
 62
     7
100
AcDbLine
 10
1013.5
 20
1471.18103
 30
0.0
 11
1010.5
 21
1471.18103
 31
0.0
  0
LINE
  5
12D
100
AcDbEntity
  8
001
  6
CONTINUOUS
 62
     7
100
AcDbLine
 10
996.5
 20
1459.18103
 30
0.0
 11
993.5
 21
1459.18103
 31
0.0
  0
ARC
  5
12E
100
AcDbEntity
  8
001
  6
CONTINUOUS
 62
     7
100
AcDbCircle
 10
1850.149285
 20
748.758456
 30
0.0
 40
6.134002
100
AcDbArc
 50
55.617123
 51
115.61485
  0
ARC
  5
12F
100
AcDbEntity
  8
001
  6
CONTINUOUS
 62
     7
100
AcDbCircle
 10
1860.541565
 20
731.964294
 30
0.0
 40
22.928265
100
AcDbArc
 50
72.411884
 51
107.588116
  0
ARC
  5
130
100
AcDbEntity
  8
001
  6
CONTINUOUS
 62
     7
100
AcDbCircle
 10
1870.933845
 20
748.758456
 30
0.0
 40
6.134002
100
AcDbArc
 50
64.38515
 51
124.382877
  0
LINE
  5
131
100
AcDbEntity
  8
001
  6
CONTINUOUS
 62
     7
100
AcDbLine
 10
1849.041626
 20
755.181213
 30
0.0
 11
1846.685181
 21
753.82074
 31
0.0
  0
LINE
  5
132
100
AcDbEntity
  8
001
  6
CONTINUOUS
 62
     7
100
AcDbLine
 10
1872.041626
 20
755.181213
 30
0.0
 11
1874.397949
 21
753.82074
 31
0.0
  0
LINE
  5
133
100
AcDbEntity
  8
001
  6
CONTINUOUS
 62
     7
100
AcDbLine
 10
1849.041626
 20
755.181213
 30
0.0
 11
1872.041626
 21
755.181213
 31
0.0
  0
LINE
  5
134
100
AcDbEntity
  8
001
  6
CONTINUOUS
 62
     7
100
AcDbLine
 10
1846.685181
 20
753.82074
 30
0.0
 11
1846.685181
 21
742.181213
 31
0.0
  0
LINE
  5
135
100
AcDbEntity
  8
001
  6
CONTINUOUS
 62
     7
100
AcDbLine
 10
1853.613281
 20
753.82074
 30
0.0
 11
1853.613281
 21
742.181213
 31
0.0
  0
LINE
  5
136
100
AcDbEntity
  8
001
  6
CONTINUOUS
 62
     7
100
AcDbLine
 10
1867.469849
 20
753.82074
 30
0.0
 11
1867.469849
 21
742.181213
 31
0.0
  0
LINE
  5
137
100
AcDbEntity
  8
001
  6
CONTINUOUS
 62
     7
100
AcDbLine
 10
1874.397949
 20
753.82074
 30
0.0
 11
1874.397949
 21
742.181213
 31
0.0
  0
LINE
  5
138
100
AcDbEntity
  8
001
  6
CONTINUOUS
 62
     7
100
AcDbLine
 10
1852.541626
 20
762.181213
 30
0.0
 11
1868.541626
 21
762.181213
 31
0.0
  0
ARC
  5
139
100
AcDbEntity
  8
001
  6
CONTINUOUS
 62
     7
100
AcDbCircle
 10
1860.541565
 20
747.180924
 30
0.0
 40
17.000284
100
AcDbArc
 50
61.927791
 51
118.072209
  0
LINE
  5
13A
100
AcDbEntity
  8
001
  6
CONTINUOUS
 62
     7
100
AcDbLine
 10
1868.541626
 20
762.181213
 30
0.0
 11
1868.541626
 21
755.181213
 31
0.0
  0
LINE
  5
13B
100
AcDbEntity
  8
001
  6
CONTINUOUS
 62
     7
100
AcDbLine
 10
1852.541626
 20
762.181213
 30
0.0
 11
1852.541626
 21
755.181213
 31
0.0
  0
LINE
  5
13C
100
AcDbEntity
  8
001
  6
CONTINUOUS
 62
     7
100
AcDbLine
 10
1846.541626
 20
742.181213
 30
0.0
 11
1874.541626
 21
742.181213
 31
0.0
  0
LINE
  5
13D
100
AcDbEntity
  8
001
  6
CONTINUOUS
 62
     7
100
AcDbLine
 10
1874.541626
 20
739.181091
 30
0.0
 11
1874.541626
 21
742.181213
 31
0.0
  0
LINE
  5
13E
100
AcDbEntity
  8
001
  6
CONTINUOUS
 62
     7
100
AcDbLine
 10
1846.541626
 20
739.423279
 30
0.0
 11
1846.541626
 21
742.181213
 31
0.0
  0
LINE
  5
13F
100
AcDbEntity
  8
001
  6
CONTINUOUS
 62
     7
100
AcDbLine
 10
1846.541626
 20
699.181091
 30
0.0
 11
1874.541626
 21
699.181091
 31
0.0
  0
LINE
  5
140
100
AcDbEntity
  8
001
  6
CONTINUOUS
 62
     7
100
AcDbLine
 10
1874.541626
 20
702.181213
 30
0.0
 11
1874.541626
 21
699.181091
 31
0.0
  0
ARC
  5
141
100
AcDbEntity
  8
001
  6
CONTINUOUS
 62
     7
100
AcDbCircle
 10
1860.541565
 20
712.39801
 30
0.0
 40
22.928265
100
AcDbArc
 50
252.411884
 51
287.588116
  0
ARC
  5
142
100
AcDbEntity
  8
001
  6
CONTINUOUS
 62
     7
100
AcDbCircle
 10
1850.149285
 20
695.603848
 30
0.0
 40
6.134002
100
AcDbArc
 50
244.38515
 51
304.382877
  0
LINE
  5
143
100
AcDbEntity
  8
001
  6
CONTINUOUS
 62
     7
100
AcDbLine
 10
1849.041626
 20
689.181091
 30
0.0
 11
1846.685181
 21
690.541565
 31
0.0
  0
LINE
  5
144
100
AcDbEntity
  8
001
  6
CONTINUOUS
 62
     7
100
AcDbLine
 10
1872.041626
 20
689.181091
 30
0.0
 11
1849.041626
 21
689.181091
 31
0.0
  0
LINE
  5
145
100
AcDbEntity
  8
001
  6
CONTINUOUS
 62
     7
100
AcDbLine
 10
1867.469849
 20
690.541565
 30
0.0
 11
1867.469849
 21
699.181091
 31
0.0
  0
LINE
  5
146
100
AcDbEntity
  8
001
  6
CONTINUOUS
 62
     7
100
AcDbLine
 10
1853.613281
 20
690.541565
 30
0.0
 11
1853.613281
 21
699.181091
 31
0.0
  0
LINE
  5
147
100
AcDbEntity
  8
001
  6
CONTINUOUS
 62
     7
100
AcDbLine
 10
1846.685181
 20
690.541565
 30
0.0
 11
1846.685181
 21
699.181091
 31
0.0
  0
ARC
  5
148
100
AcDbEntity
  8
001
  6
CONTINUOUS
 62
     7
100
AcDbCircle
 10
1870.933845
 20
695.603848
 30
0.0
 40
6.134002
100
AcDbArc
 50
235.617123
 51
295.61485
  0
LINE
  5
149
100
AcDbEntity
  8
001
  6
CONTINUOUS
 62
     7
100
AcDbLine
 10
1872.041626
 20
689.181091
 30
0.0
 11
1874.397949
 21
690.541565
 31
0.0
  0
LINE
  5
14A
100
AcDbEntity
  8
001
  6
CONTINUOUS
 62
     7
100
AcDbLine
 10
1874.397949
 20
690.541565
 30
0.0
 11
1874.397949
 21
699.181091
 31
0.0
  0
ARC
  5
14B
100
AcDbEntity
  8
001
  6
CONTINUOUS
 62
     7
100
AcDbCircle
 10
1767.180908
 20
731.964275
 30
0.0
 40
22.928265
100
AcDbArc
 50
72.412044
 51
107.587956
  0
ARC
  5
14C
100
AcDbEntity
  8
001
  6
CONTINUOUS
 62
     7
100
AcDbCircle
 10
1777.573177
 20
748.758491
 30
0.0
 40
6.134002
100
AcDbArc
 50
64.384406
 51
124.383446
  0
LINE
  5
14D
100
AcDbEntity
  8
001
  6
CONTINUOUS
 62
     7
100
AcDbLine
 10
1778.680908
 20
755.181213
 30
0.0
 11
1781.037354
 21
753.82074
 31
0.0
  0
LINE
  5
14E
100
AcDbEntity
  8
001
  6
CONTINUOUS
 62
     7
100
AcDbLine
 10
1755.680908
 20
755.181213
 30
0.0
 11
1778.680908
 21
755.181213
 31
0.0
  0
LINE
  5
14F
100
AcDbEntity
  8
001
  6
CONTINUOUS
 62
     7
100
AcDbLine
 10
1774.109131
 20
753.82074
 30
0.0
 11
1774.109131
 21
742.181213
 31
0.0
  0
LINE
  5
150
100
AcDbEntity
  8
001
  6
CONTINUOUS
 62
     7
100
AcDbLine
 10
1781.037354
 20
753.82074
 30
0.0
 11
1781.037354
 21
742.181213
 31
0.0
  0
LINE
  5
151
100
AcDbEntity
  8
001
  6
CONTINUOUS
 62
     7
100
AcDbLine
 10
1759.180908
 20
762.181213
 30
0.0
 11
1775.180908
 21
762.181213
 31
0.0
  0
ARC
  5
152
100
AcDbEntity
  8
001
  6
CONTINUOUS
 62
     7
100
AcDbCircle
 10
1767.180908
 20
747.180891
 30
0.0
 40
17.000284
100
AcDbArc
 50
61.928024
 51
118.071976
  0
LINE
  5
153
100
AcDbEntity
  8
001
  6
CONTINUOUS
 62
     7
100
AcDbLine
 10
1775.180908
 20
762.181213
 30
0.0
 11
1775.180908
 21
755.181213
 31
0.0
  0
LINE
  5
154
100
AcDbEntity
  8
001
  6
CONTINUOUS
 62
     7
100
AcDbLine
 10
1753.180908
 20
742.181213
 30
0.0
 11
1781.180908
 21
742.181213
 31
0.0
  0
LINE
  5
155
100
AcDbEntity
  8
001
  6
CONTINUOUS
 62
     7
100
AcDbLine
 10
1781.180908
 20
739.181091
 30
0.0
 11
1781.180908
 21
742.181213
 31
0.0
  0
ARC
  5
156
100
AcDbEntity
  8
001
  6
CONTINUOUS
 62
     7
100
AcDbCircle
 10
1756.788639
 20
748.758491
 30
0.0
 40
6.134002
100
AcDbArc
 50
55.616554
 51
115.615594
  0
LINE
  5
157
100
AcDbEntity
  8
001
  6
CONTINUOUS
 62
     7
100
AcDbLine
 10
1755.680908
 20
755.181213
 30
0.0
 11
1753.324463
 21
753.82074
 31
0.0
  0
LINE
  5
158
100
AcDbEntity
  8
001
  6
CONTINUOUS
 62
     7
100
AcDbLine
 10
1753.324463
 20
753.82074
 30
0.0
 11
1753.324463
 21
742.181213
 31
0.0
  0
LINE
  5
159
100
AcDbEntity
  8
001
  6
CONTINUOUS
 62
     7
100
AcDbLine
 10
1760.252686
 20
753.82074
 30
0.0
 11
1760.252686
 21
742.181213
 31
0.0
  0
LINE
  5
15A
100
AcDbEntity
  8
001
  6
CONTINUOUS
 62
     7
100
AcDbLine
 10
1759.180908
 20
762.181213
 30
0.0
 11
1759.180908
 21
755.181213
 31
0.0
  0
LINE
  5
15B
100
AcDbEntity
  8
001
  6
CONTINUOUS
 62
     7
100
AcDbLine
 10
1753.180908
 20
739.423279
 30
0.0
 11
1753.180908
 21
742.181213
 31
0.0
  0
LINE
  5
15C
100
AcDbEntity
  8
001
  6
CONTINUOUS
 62
     7
100
AcDbLine
 10
1753.180908
 20
699.181091
 30
0.0
 11
1781.180908
 21
699.181091
 31
0.0
  0
LINE
  5
15D
100
AcDbEntity
  8
001
  6
CONTINUOUS
 62
     7
100
AcDbLine
 10
1781.180908
 20
702.181213
 30
0.0
 11
1781.180908
 21
699.181091
 31
0.0
  0
ARC
  5
15E
100
AcDbEntity
  8
001
  6
CONTINUOUS
 62
     7
100
AcDbCircle
 10
1767.180908
 20
712.39803
 30
0.0
 40
22.928265
100
AcDbArc
 50
252.412044
 51
287.587956
  0
ARC
  5
15F
100
AcDbEntity
  8
001
  6
CONTINUOUS
 62
     7
100
AcDbCircle
 10
1756.788639
 20
695.603814
 30
0.0
 40
6.134002
100
AcDbArc
 50
244.384406
 51
304.383446
  0
LINE
  5
160
100
AcDbEntity
  8
001
  6
CONTINUOUS
 62
     7
100
AcDbLine
 10
1755.680908
 20
689.181091
 30
0.0
 11
1753.324463
 21
690.541565
 31
0.0
  0
LINE
  5
161
100
AcDbEntity
  8
001
  6
CONTINUOUS
 62
     7
100
AcDbLine
 10
1778.680908
 20
689.181091
 30
0.0
 11
1755.680908
 21
689.181091
 31
0.0
  0
LINE
  5
162
100
AcDbEntity
  8
001
  6
CONTINUOUS
 62
     7
100
AcDbLine
 10
1774.109131
 20
690.541565
 30
0.0
 11
1774.109131
 21
699.181091
 31
0.0
  0
LINE
  5
163
100
AcDbEntity
  8
001
  6
CONTINUOUS
 62
     7
100
AcDbLine
 10
1760.252686
 20
690.541565
 30
0.0
 11
1760.252686
 21
699.181091
 31
0.0
  0
LINE
  5
164
100
AcDbEntity
  8
001
  6
CONTINUOUS
 62
     7
100
AcDbLine
 10
1753.324463
 20
690.541565
 30
0.0
 11
1753.324463
 21
699.181091
 31
0.0
  0
ARC
  5
165
100
AcDbEntity
  8
001
  6
CONTINUOUS
 62
     7
100
AcDbCircle
 10
1777.573177
 20
695.603814
 30
0.0
 40
6.134002
100
AcDbArc
 50
235.616554
 51
295.615594
  0
LINE
  5
166
100
AcDbEntity
  8
001
  6
CONTINUOUS
 62
     7
100
AcDbLine
 10
1778.680908
 20
689.181091
 30
0.0
 11
1781.037354
 21
690.541565
 31
0.0
  0
LINE
  5
167
100
AcDbEntity
  8
001
  6
CONTINUOUS
 62
     7
100
AcDbLine
 10
1781.037354
 20
690.541565
 30
0.0
 11
1781.037354
 21
699.181091
 31
0.0
  0
ARC
  5
168
100
AcDbEntity
  8
001
  6
CONTINUOUS
 62
     7
100
AcDbCircle
 10
1659.819092
 20
731.964275
 30
0.0
 40
22.928265
100
AcDbArc
 50
72.412044
 51
107.587956
  0
ARC
  5
169
100
AcDbEntity
  8
001
  6
CONTINUOUS
 62
     7
100
AcDbCircle
 10
1670.211361
 20
748.758491
 30
0.0
 40
6.134002
100
AcDbArc
 50
64.384406
 51
124.383446
  0
LINE
  5
16A
100
AcDbEntity
  8
001
  6
CONTINUOUS
 62
     7
100
AcDbLine
 10
1671.319092
 20
755.181213
 30
0.0
 11
1673.675537
 21
753.82074
 31
0.0
  0
LINE
  5
16B
100
AcDbEntity
  8
001
  6
CONTINUOUS
 62
     7
100
AcDbLine
 10
1648.319092
 20
755.181213
 30
0.0
 11
1671.319092
 21
755.181213
 31
0.0
  0
LINE
  5
16C
100
AcDbEntity
  8
001
  6
CONTINUOUS
 62
     7
100
AcDbLine
 10
1666.747314
 20
753.82074
 30
0.0
 11
1666.747314
 21
742.181213
 31
0.0
  0
LINE
  5
16D
100
AcDbEntity
  8
001
  6
CONTINUOUS
 62
     7
100
AcDbLine
 10
1673.675537
 20
753.82074
 30
0.0
 11
1673.675537
 21
742.181213
 31
0.0
  0
LINE
  5
16E
100
AcDbEntity
  8
001
  6
CONTINUOUS
 62
     7
100
AcDbLine
 10
1651.819092
 20
762.181213
 30
0.0
 11
1667.819092
 21
762.181213
 31
0.0
  0
ARC
  5
16F
100
AcDbEntity
  8
001
  6
CONTINUOUS
 62
     7
100
AcDbCircle
 10
1659.819092
 20
747.180891
 30
0.0
 40
17.000284
100
AcDbArc
 50
61.928024
 51
118.071976
  0
LINE
  5
170
100
AcDbEntity
  8
001
  6
CONTINUOUS
 62
     7
100
AcDbLine
 10
1667.819092
 20
762.181213
 30
0.0
 11
1667.819092
 21
755.181213
 31
0.0
  0
LINE
  5
171
100
AcDbEntity
  8
001
  6
CONTINUOUS
 62
     7
100
AcDbLine
 10
1645.819092
 20
742.181213
 30
0.0
 11
1673.819092
 21
742.181213
 31
0.0
  0
LINE
  5
172
100
AcDbEntity
  8
001
  6
CONTINUOUS
 62
     7
100
AcDbLine
 10
1673.819092
 20
739.181091
 30
0.0
 11
1673.819092
 21
742.181213
 31
0.0
  0
ARC
  5
173
100
AcDbEntity
  8
001
  6
CONTINUOUS
 62
     7
100
AcDbCircle
 10
1649.426823
 20
748.758491
 30
0.0
 40
6.134002
100
AcDbArc
 50
55.616554
 51
115.615594
  0
LINE
  5
174
100
AcDbEntity
  8
001
  6
CONTINUOUS
 62
     7
100
AcDbLine
 10
1648.319092
 20
755.181213
 30
0.0
 11
1645.962646
 21
753.82074
 31
0.0
  0
LINE
  5
175
100
AcDbEntity
  8
001
  6
CONTINUOUS
 62
     7
100
AcDbLine
 10
1645.962646
 20
753.82074
 30
0.0
 11
1645.962646
 21
742.181213
 31
0.0
  0
LINE
  5
176
100
AcDbEntity
  8
001
  6
CONTINUOUS
 62
     7
100
AcDbLine
 10
1652.890869
 20
753.82074
 30
0.0
 11
1652.890869
 21
742.181213
 31
0.0
  0
LINE
  5
177
100
AcDbEntity
  8
001
  6
CONTINUOUS
 62
     7
100
AcDbLine
 10
1651.819092
 20
762.181213
 30
0.0
 11
1651.819092
 21
755.181213
 31
0.0
  0
LINE
  5
178
100
AcDbEntity
  8
001
  6
CONTINUOUS
 62
     7
100
AcDbLine
 10
1645.819092
 20
739.423279
 30
0.0
 11
1645.819092
 21
742.181213
 31
0.0
  0
LINE
  5
179
100
AcDbEntity
  8
001
  6
CONTINUOUS
 62
     7
100
AcDbLine
 10
1645.819092
 20
699.181091
 30
0.0
 11
1673.819092
 21
699.181091
 31
0.0
  0
LINE
  5
17A
100
AcDbEntity
  8
001
  6
CONTINUOUS
 62
     7
100
AcDbLine
 10
1673.819092
 20
702.181213
 30
0.0
 11
1673.819092
 21
699.181091
 31
0.0
  0
ARC
  5
17B
100
AcDbEntity
  8
001
  6
CONTINUOUS
 62
     7
100
AcDbCircle
 10
1659.819092
 20
712.39803
 30
0.0
 40
22.928265
100
AcDbArc
 50
252.412044
 51
287.587956
  0
ARC
  5
17C
100
AcDbEntity
  8
001
  6
CONTINUOUS
 62
     7
100
AcDbCircle
 10
1649.426823
 20
695.603814
 30
0.0
 40
6.134002
100
AcDbArc
 50
244.384406
 51
304.383446
  0
LINE
  5
17D
100
AcDbEntity
  8
001
  6
CONTINUOUS
 62
     7
100
AcDbLine
 10
1648.319092
 20
689.181091
 30
0.0
 11
1645.962646
 21
690.541565
 31
0.0
  0
LINE
  5
17E
100
AcDbEntity
  8
001
  6
CONTINUOUS
 62
     7
100
AcDbLine
 10
1671.319092
 20
689.181091
 30
0.0
 11
1648.319092
 21
689.181091
 31
0.0
  0
LINE
  5
17F
100
AcDbEntity
  8
001
  6
CONTINUOUS
 62
     7
100
AcDbLine
 10
1666.747314
 20
690.541565
 30
0.0
 11
1666.747314
 21
699.181091
 31
0.0
  0
LINE
  5
180
100
AcDbEntity
  8
001
  6
CONTINUOUS
 62
     7
100
AcDbLine
 10
1652.890869
 20
690.541565
 30
0.0
 11
1652.890869
 21
699.181091
 31
0.0
  0
LINE
  5
181
100
AcDbEntity
  8
001
  6
CONTINUOUS
 62
     7
100
AcDbLine
 10
1645.962646
 20
690.541565
 30
0.0
 11
1645.962646
 21
699.181091
 31
0.0
  0
ARC
  5
182
100
AcDbEntity
  8
001
  6
CONTINUOUS
 62
     7
100
AcDbCircle
 10
1670.211361
 20
695.603814
 30
0.0
 40
6.134002
100
AcDbArc
 50
235.616554
 51
295.615594
  0
LINE
  5
183
100
AcDbEntity
  8
001
  6
CONTINUOUS
 62
     7
100
AcDbLine
 10
1671.319092
 20
689.181091
 30
0.0
 11
1673.675537
 21
690.541565
 31
0.0
  0
LINE
  5
184
100
AcDbEntity
  8
001
  6
CONTINUOUS
 62
     7
100
AcDbLine
 10
1673.675537
 20
690.541565
 30
0.0
 11
1673.675537
 21
699.181091
 31
0.0
  0
ARC
  5
185
100
AcDbEntity
  8
001
  6
CONTINUOUS
 62
     7
100
AcDbCircle
 10
1566.458435
 20
731.964294
 30
0.0
 40
22.928265
100
AcDbArc
 50
72.411884
 51
107.588116
  0
ARC
  5
186
100
AcDbEntity
  8
001
  6
CONTINUOUS
 62
     7
100
AcDbCircle
 10
1576.850715
 20
748.758456
 30
0.0
 40
6.134002
100
AcDbArc
 50
64.38515
 51
124.382877
  0
LINE
  5
187
100
AcDbEntity
  8
001
  6
CONTINUOUS
 62
     7
100
AcDbLine
 10
1577.958374
 20
755.181213
 30
0.0
 11
1580.314941
 21
753.82074
 31
0.0
  0
LINE
  5
188
100
AcDbEntity
  8
001
  6
CONTINUOUS
 62
     7
100
AcDbLine
 10
1554.958374
 20
755.181213
 30
0.0
 11
1577.958374
 21
755.181213
 31
0.0
  0
LINE
  5
189
100
AcDbEntity
  8
001
  6
CONTINUOUS
 62
     7
100
AcDbLine
 10
1573.386719
 20
753.82074
 30
0.0
 11
1573.386719
 21
742.181213
 31
0.0
  0
LINE
  5
18A
100
AcDbEntity
  8
001
  6
CONTINUOUS
 62
     7
100
AcDbLine
 10
1580.314941
 20
753.82074
 30
0.0
 11
1580.314941
 21
742.181213
 31
0.0
  0
LINE
  5
18B
100
AcDbEntity
  8
001
  6
CONTINUOUS
 62
     7
100
AcDbLine
 10
1558.458374
 20
762.181213
 30
0.0
 11
1574.458374
 21
762.181213
 31
0.0
  0
ARC
  5
18C
100
AcDbEntity
  8
001
  6
CONTINUOUS
 62
     7
100
AcDbCircle
 10
1566.458435
 20
747.180924
 30
0.0
 40
17.000284
100
AcDbArc
 50
61.927791
 51
118.072209
  0
LINE
  5
18D
100
AcDbEntity
  8
001
  6
CONTINUOUS
 62
     7
100
AcDbLine
 10
1574.458374
 20
762.181213
 30
0.0
 11
1574.458374
 21
755.181213
 31
0.0
  0
LINE
  5
18E
100
AcDbEntity
  8
001
  6
CONTINUOUS
 62
     7
100
AcDbLine
 10
1552.458374
 20
742.181213
 30
0.0
 11
1580.458374
 21
742.181213
 31
0.0
  0
LINE
  5
18F
100
AcDbEntity
  8
001
  6
CONTINUOUS
 62
     7
100
AcDbLine
 10
1580.458374
 20
739.181091
 30
0.0
 11
1580.458374
 21
742.181213
 31
0.0
  0
ARC
  5
190
100
AcDbEntity
  8
001
  6
CONTINUOUS
 62
     7
100
AcDbCircle
 10
1556.066155
 20
748.758456
 30
0.0
 40
6.134002
100
AcDbArc
 50
55.617123
 51
115.61485
  0
LINE
  5
191
100
AcDbEntity
  8
001
  6
CONTINUOUS
 62
     7
100
AcDbLine
 10
1554.958374
 20
755.181213
 30
0.0
 11
1552.602051
 21
753.82074
 31
0.0
  0
LINE
  5
192
100
AcDbEntity
  8
001
  6
CONTINUOUS
 62
     7
100
AcDbLine
 10
1552.602051
 20
753.82074
 30
0.0
 11
1552.602051
 21
742.181213
 31
0.0
  0
LINE
  5
193
100
AcDbEntity
  8
001
  6
CONTINUOUS
 62
     7
100
AcDbLine
 10
1559.530273
 20
753.82074
 30
0.0
 11
1559.530273
 21
742.181213
 31
0.0
  0
LINE
  5
194
100
AcDbEntity
  8
001
  6
CONTINUOUS
 62
     7
100
AcDbLine
 10
1558.458374
 20
762.181213
 30
0.0
 11
1558.458374
 21
755.181213
 31
0.0
  0
LINE
  5
195
100
AcDbEntity
  8
001
  6
CONTINUOUS
 62
     7
100
AcDbLine
 10
1552.458374
 20
739.423279
 30
0.0
 11
1552.458374
 21
742.181213
 31
0.0
  0
LINE
  5
196
100
AcDbEntity
  8
001
  6
CONTINUOUS
 62
     7
100
AcDbLine
 10
1552.458374
 20
699.181091
 30
0.0
 11
1580.458374
 21
699.181091
 31
0.0
  0
LINE
  5
197
100
AcDbEntity
  8
001
  6
CONTINUOUS
 62
     7
100
AcDbLine
 10
1580.458374
 20
702.181213
 30
0.0
 11
1580.458374
 21
699.181091
 31
0.0
  0
ARC
  5
198
100
AcDbEntity
  8
001
  6
CONTINUOUS
 62
     7
100
AcDbCircle
 10
1566.458435
 20
712.39801
 30
0.0
 40
22.928265
100
AcDbArc
 50
252.411884
 51
287.588116
  0
ARC
  5
199
100
AcDbEntity
  8
001
  6
CONTINUOUS
 62
     7
100
AcDbCircle
 10
1556.066155
 20
695.603848
 30
0.0
 40
6.134002
100
AcDbArc
 50
244.38515
 51
304.382877
  0
LINE
  5
19A
100
AcDbEntity
  8
001
  6
CONTINUOUS
 62
     7
100
AcDbLine
 10
1554.958374
 20
689.181091
 30
0.0
 11
1552.602051
 21
690.541565
 31
0.0
  0
LINE
  5
19B
100
AcDbEntity
  8
001
  6
CONTINUOUS
 62
     7
100
AcDbLine
 10
1577.958374
 20
689.181091
 30
0.0
 11
1554.958374
 21
689.181091
 31
0.0
  0
LINE
  5
19C
100
AcDbEntity
  8
001
  6
CONTINUOUS
 62
     7
100
AcDbLine
 10
1573.386719
 20
690.541565
 30
0.0
 11
1573.386719
 21
699.181091
 31
0.0
  0
LINE
  5
19D
100
AcDbEntity
  8
001
  6
CONTINUOUS
 62
     7
100
AcDbLine
 10
1559.530273
 20
690.541565
 30
0.0
 11
1559.530273
 21
699.181091
 31
0.0
  0
LINE
  5
19E
100
AcDbEntity
  8
001
  6
CONTINUOUS
 62
     7
100
AcDbLine
 10
1552.602051
 20
690.541565
 30
0.0
 11
1552.602051
 21
699.181091
 31
0.0
  0
ARC
  5
19F
100
AcDbEntity
  8
001
  6
CONTINUOUS
 62
     7
100
AcDbCircle
 10
1576.850715
 20
695.603848
 30
0.0
 40
6.134002
100
AcDbArc
 50
235.617123
 51
295.61485
  0
LINE
  5
1A0
100
AcDbEntity
  8
001
  6
CONTINUOUS
 62
     7
100
AcDbLine
 10
1577.958374
 20
689.181091
 30
0.0
 11
1580.314941
 21
690.541565
 31
0.0
  0
LINE
  5
1A1
100
AcDbEntity
  8
001
  6
CONTINUOUS
 62
     7
100
AcDbLine
 10
1580.314941
 20
690.541565
 30
0.0
 11
1580.314941
 21
699.181091
 31
0.0
  0
LINE
  5
1A2
100
AcDbEntity
  8
001
  6
CONTINUOUS
 62
     7
100
AcDbLine
 10
1846.541626
 20
702.181213
 30
0.0
 11
1846.541626
 21
699.181091
 31
0.0
  0
LINE
  5
1A3
100
AcDbEntity
  8
001
  6
CONTINUOUS
 62
     7
100
AcDbLine
 10
1753.180908
 20
702.181213
 30
0.0
 11
1753.180908
 21
699.181091
 31
0.0
  0
LINE
  5
1A4
100
AcDbEntity
  8
001
  6
CONTINUOUS
 62
     7
100
AcDbLine
 10
1645.819092
 20
702.181213
 30
0.0
 11
1645.819092
 21
699.181091
 31
0.0
  0
LINE
  5
1A5
100
AcDbEntity
  8
001
  6
CONTINUOUS
 62
     7
100
AcDbLine
 10
1552.458374
 20
702.181213
 30
0.0
 11
1552.458374
 21
699.181091
 31
0.0
  0
LINE
  5
1A6
100
AcDbEntity
  8
001
  6
CONTINUOUS
 62
     7
100
AcDbLine
 10
1850.339966
 20
689.181091
 30
0.0
 11
1846.5
 21
677.181091
 31
0.0
  0
LINE
  5
1A7
100
AcDbEntity
  8
001
  6
CONTINUOUS
 62
     7
100
AcDbLine
 10
1576.660034
 20
689.181091
 30
0.0
 11
1580.5
 21
677.181091
 31
0.0
  0
LINE
  5
1A8
100
AcDbEntity
  8
001
  6
CONTINUOUS
 62
     7
100
AcDbLine
 10
1579.538086
 20
754.269165
 30
0.0
 11
1582.03125
 21
766.65155
 31
0.0
  0
LINE
  5
1A9
100
AcDbEntity
  8
001
  6
CONTINUOUS
 62
     7
100
AcDbLine
 10
1847.462036
 20
754.269287
 30
0.0
 11
1844.96875
 21
766.65155
 31
0.0
  0
LINE
  5
1AA
100
AcDbEntity
  8
001
  6
CONTINUOUS
 62
     7
100
AcDbLine
 10
1838.167725
 20
763.181213
 30
0.0
 11
1772.925415
 21
763.181213
 31
0.0
  0
LINE
  5
1AB
100
AcDbEntity
  8
001
  6
CONTINUOUS
 62
     7
100
AcDbLine
 10
1761.436401
 20
763.181213
 30
0.0
 11
1665.563599
 21
763.181213
 31
0.0
  0
LINE
  5
1AC
100
AcDbEntity
  8
001
  6
CONTINUOUS
 62
     7
100
AcDbLine
 10
1654.074585
 20
763.181213
 30
0.0
 11
1588.832275
 21
763.181213
 31
0.0
  0
LINE
  5
1AD
100
AcDbEntity
  8
001
  6
CONTINUOUS
 62
     7
100
AcDbLine
 10
1116.5
 20
719.181152
 30
0.0
 11
1116.5
 21
705.181091
 31
0.0
  0
ARC
  5
1AE
100
AcDbEntity
  8
001
  6
CONTINUOUS
 62
     7
100
AcDbCircle
 10
1113.5
 20
705.181152
 30
0.0
 40
3.0
100
AcDbArc
 50
270.0
 51
359.998834
  0
ARC
  5
1AF
100
AcDbEntity
  8
001
  6
CONTINUOUS
 62
     7
100
AcDbCircle
 10
1113.5
 20
719.181091
 30
0.0
 40
3.0
100
AcDbArc
 50
0.001166
 51
90.0
  0
ARC
  5
1B0
100
AcDbEntity
  8
001
  6
CONTINUOUS
 62
     7
100
AcDbCircle
 10
964.281006
 20
401.813599
 30
0.0
 40
5.0
100
AcDbArc
 50
270.0
 51
0.000699
  0
LINE
  5
1B1
100
AcDbEntity
  8
001
  6
CONTINUOUS
 62
     7
100
AcDbLine
 10
932.500244
 20
618.244507
 30
0.0
 11
969.281006
 21
452.336548
 31
0.0
  0
LINE
  5
1B2
100
AcDbEntity
  8
001
  6
CONTINUOUS
 62
     7
100
AcDbLine
 10
1080.720215
 20
696.619385
 30
0.0
 11
1074.500244
 21
677.181091
 31
0.0
  0
LINE
  5
1B3
100
AcDbEntity
  8
001
  6
CONTINUOUS
 62
     7
100
AcDbLine
 10
1074.500244
 20
677.181091
 30
0.0
 11
1074.500244
 21
618.244507
 31
0.0
  0
LINE
  5
1B4
100
AcDbEntity
  8
001
  6
CONTINUOUS
 62
     7
100
AcDbLine
 10
1064.439941
 20
817.70752
 30
0.0
 11
1073.5
 21
791.350769
 31
0.0
  0
LINE
  5
1B5
100
AcDbEntity
  8
001
  6
CONTINUOUS
 62
     7
100
AcDbLine
 10
1073.5
 20
791.350769
 30
0.0
 11
1073.5
 21
763.181213
 31
0.0
  0
LINE
  5
1B6
100
AcDbEntity
  8
001
  6
CONTINUOUS
 62
     7
100
AcDbLine
 10
1073.5
 20
763.181213
 30
0.0
 11
1076.841797
 21
747.141663
 31
0.0
  0
ARC
  5
1B7
100
AcDbEntity
  8
001
  6
CONTINUOUS
 62
     7
100
AcDbCircle
 10
1113.5
 20
736.181213
 30
0.0
 40
3.0
100
AcDbArc
 50
359.998834
 51
90.0
  0
LINE
  5
1B8
100
AcDbEntity
  8
001
  6
CONTINUOUS
 62
     7
100
AcDbLine
 10
1116.5
 20
725.181091
 30
0.0
 11
1116.5
 21
736.181152
 31
0.0
  0
ARC
  5
1B9
100
AcDbEntity
  8
001
  6
CONTINUOUS
 62
     7
100
AcDbCircle
 10
1113.5
 20
725.181091
 30
0.0
 40
3.0
100
AcDbArc
 50
270.0
 51
0.0
  0
ARC
  5
1BA
100
AcDbEntity
  8
001
  6
CONTINUOUS
 62
     7
100
AcDbCircle
 10
1063.500245
 20
834.538928
 30
0.0
 40
10.000001
100
AcDbArc
 50
179.998881
 51
235.899614
  0
ARC
  5
1BB
100
AcDbEntity
  8
001
  6
CONTINUOUS
 62
     7
100
AcDbCircle
 10
1048.363291
 20
812.181093
 30
0.0
 40
17.000002
100
AcDbArc
 50
18.970656
 51
55.901451
  0
ARC
  5
1BC
100
AcDbEntity
  8
001
  6
CONTINUOUS
 62
     7
100
AcDbCircle
 10
995.407484
 20
812.181213
 30
0.0
 40
2.0
100
AcDbArc
 50
182.714732
 51
269.999606
  0
LINE
  5
1BD
100
AcDbEntity
  8
001
  6
CONTINUOUS
 62
     7
100
AcDbLine
 10
986.716064
 20
858.903198
 30
0.0
 11
991.603516
 21
850.181091
 31
0.0
  0
ARC
  5
1BE
100
AcDbEntity
  8
001
  6
CONTINUOUS
 62
     7
100
AcDbCircle
 10
984.535032
 20
857.681274
 30
0.0
 40
2.5
100
AcDbArc
 50
29.259738
 51
89.997154
  0
ARC
  5
1BF
100
AcDbEntity
  8
001
  6
CONTINUOUS
 62
     7
100
AcDbCircle
 10
1042.000244
 20
907.181152
 30
0.0
 40
4.0
100
AcDbArc
 50
0.000874
 51
90.0
  0
LINE
  5
1C0
100
AcDbEntity
  8
001
  6
CONTINUOUS
 62
     7
100
AcDbLine
 10
1061.000244
 20
893.181152
 30
0.0
 11
1061.000244
 21
863.181152
 31
0.0
  0
ARC
  5
1C1
100
AcDbEntity
  8
001
  6
CONTINUOUS
 62
     7
100
AcDbCircle
 10
1057.000244
 20
893.181091
 30
0.0
 40
4.0
100
AcDbArc
 50
0.000874
 51
90.0
  0
LINE
  5
1C2
100
AcDbEntity
  8
001
  6
CONTINUOUS
 62
     7
100
AcDbLine
 10
992.376709
 20
834.006592
 30
0.0
 11
992.291748
 21
834.74585
 31
0.0
  0
LINE
  5
1C3
100
AcDbEntity
  8
001
  6
CONTINUOUS
 62
     7
100
AcDbLine
 10
992.291748
 20
834.74585
 30
0.0
 11
992.108093
 21
835.469482
 31
0.0
  0
LINE
  5
1C4
100
AcDbEntity
  8
001
  6
CONTINUOUS
 62
     7
100
AcDbLine
 10
992.108093
 20
835.469482
 30
0.0
 11
991.828552
 21
836.166077
 31
0.0
  0
LINE
  5
1C5
100
AcDbEntity
  8
001
  6
CONTINUOUS
 62
     7
100
AcDbLine
 10
991.828552
 20
836.166077
 30
0.0
 11
991.457642
 21
836.824768
 31
0.0
  0
LINE
  5
1C6
100
AcDbEntity
  8
001
  6
CONTINUOUS
 62
     7
100
AcDbLine
 10
991.457642
 20
836.824768
 30
0.0
 11
991.001099
 21
837.435181
 31
0.0
  0
LINE
  5
1C7
100
AcDbEntity
  8
001
  6
CONTINUOUS
 62
     7
100
AcDbLine
 10
991.001099
 20
837.435181
 30
0.0
 11
990.466064
 21
837.987732
 31
0.0
  0
LINE
  5
1C8
100
AcDbEntity
  8
001
  6
CONTINUOUS
 62
     7
100
AcDbLine
 10
990.466064
 20
837.987732
 30
0.0
 11
989.860901
 21
838.473816
 31
0.0
  0
LINE
  5
1C9
100
AcDbEntity
  8
001
  6
CONTINUOUS
 62
     7
100
AcDbLine
 10
989.860901
 20
838.473816
 30
0.0
 11
989.19519
 21
838.885681
 31
0.0
  0
LINE
  5
1CA
100
AcDbEntity
  8
001
  6
CONTINUOUS
 62
     7
100
AcDbLine
 10
989.19519
 20
838.885681
 30
0.0
 11
988.479309
 21
839.21698
 31
0.0
  0
LINE
  5
1CB
100
AcDbEntity
  8
001
  6
CONTINUOUS
 62
     7
100
AcDbLine
 10
988.479309
 20
839.21698
 30
0.0
 11
987.724487
 21
839.462463
 31
0.0
  0
LINE
  5
1CC
100
AcDbEntity
  8
001
  6
CONTINUOUS
 62
     7
100
AcDbLine
 10
987.724487
 20
839.462463
 30
0.0
 11
986.942566
 21
839.618286
 31
0.0
  0
LINE
  5
1CD
100
AcDbEntity
  8
001
  6
CONTINUOUS
 62
     7
100
AcDbLine
 10
986.942566
 20
839.618286
 30
0.0
 11
986.145813
 21
839.681946
 31
0.0
  0
LINE
  5
1CE
100
AcDbEntity
  8
001
  6
CONTINUOUS
 62
     7
100
AcDbLine
 10
986.145813
 20
839.681946
 30
0.0
 11
985.704102
 21
839.674744
 31
0.0
  0
LINE
  5
1CF
100
AcDbEntity
  8
001
  6
CONTINUOUS
 62
     7
100
AcDbLine
 10
991.60376
 20
850.181091
 30
0.0
 11
993.409668
 21
812.086487
 31
0.0
  0
ARC
  5
1D0
100
AcDbEntity
  8
001
  6
CONTINUOUS
 62
     7
100
AcDbCircle
 10
975.281006
 20
446.445984
 30
0.0
 40
6.0
100
AcDbArc
 50
90.0
 51
179.999417
  0
LINE
  5
1D1
100
AcDbEntity
  8
001
  6
CONTINUOUS
 62
     7
100
AcDbLine
 10
969.281006
 20
446.446045
 30
0.0
 11
969.281006
 21
401.81366
 31
0.0
  0
LINE
  5
1D2
100
AcDbEntity
  8
001
  6
CONTINUOUS
 62
     7
100
AcDbLine
 10
1003.5
 20
452.445984
 30
0.0
 11
975.281006
 21
452.445984
 31
0.0
  0
ARC
  5
1D3
100
AcDbEntity
  8
001
  6
CONTINUOUS
 62
     7
100
AcDbCircle
 10
985.704102
 20
837.174744
 30
0.0
 40
2.5
100
AcDbArc
 50
90.0
 51
180.0
  0
LINE
  5
1D4
100
AcDbEntity
  8
001
  6
CONTINUOUS
 62
     7
100
AcDbLine
 10
986.0
 20
857.681274
 30
0.0
 11
986.0
 21
842.174744
 31
0.0
  0
LINE
  5
1D5
100
AcDbEntity
  8
001
  6
CONTINUOUS
 62
     7
100
AcDbLine
 10
965.000244
 20
911.181152
 30
0.0
 11
1042.000244
 21
911.181152
 31
0.0
  0
LINE
  5
1D6
100
AcDbEntity
  8
001
  6
CONTINUOUS
 62
     7
100
AcDbLine
 10
1046.0
 20
897.181091
 30
0.0
 11
1057.0
 21
897.181091
 31
0.0
  0
ARC
  5
1D7
100
AcDbEntity
  8
001
  6
CONTINUOUS
 62
     7
100
AcDbCircle
 10
1011.592516
 20
812.181213
 30
0.0
 40
2.0
100
AcDbArc
 50
270.000394
 51
357.285268
  0
LINE
  5
1D8
100
AcDbEntity
  8
001
  6
CONTINUOUS
 62
     7
100
AcDbLine
 10
1014.623535
 20
834.006592
 30
0.0
 11
1014.708496
 21
834.74585
 31
0.0
  0
LINE
  5
1D9
100
AcDbEntity
  8
001
  6
CONTINUOUS
 62
     7
100
AcDbLine
 10
1014.708496
 20
834.74585
 30
0.0
 11
1014.892151
 21
835.469421
 31
0.0
  0
LINE
  5
1DA
100
AcDbEntity
  8
001
  6
CONTINUOUS
 62
     7
100
AcDbLine
 10
1014.892151
 20
835.469421
 30
0.0
 11
1015.171631
 21
836.166016
 31
0.0
  0
LINE
  5
1DB
100
AcDbEntity
  8
001
  6
CONTINUOUS
 62
     7
100
AcDbLine
 10
1015.171631
 20
836.166016
 30
0.0
 11
1015.542542
 21
836.824646
 31
0.0
  0
LINE
  5
1DC
100
AcDbEntity
  8
001
  6
CONTINUOUS
 62
     7
100
AcDbLine
 10
1015.542542
 20
836.824646
 30
0.0
 11
1015.999146
 21
837.435059
 31
0.0
  0
LINE
  5
1DD
100
AcDbEntity
  8
001
  6
CONTINUOUS
 62
     7
100
AcDbLine
 10
1015.999146
 20
837.435059
 30
0.0
 11
1016.534119
 21
837.98761
 31
0.0
  0
LINE
  5
1DE
100
AcDbEntity
  8
001
  6
CONTINUOUS
 62
     7
100
AcDbLine
 10
1016.534119
 20
837.98761
 30
0.0
 11
1017.139221
 21
838.473633
 31
0.0
  0
LINE
  5
1DF
100
AcDbEntity
  8
001
  6
CONTINUOUS
 62
     7
100
AcDbLine
 10
1017.139221
 20
838.473633
 30
0.0
 11
1017.804932
 21
838.885498
 31
0.0
  0
LINE
  5
1E0
100
AcDbEntity
  8
001
  6
CONTINUOUS
 62
     7
100
AcDbLine
 10
1017.804932
 20
838.885498
 30
0.0
 11
1018.520813
 21
839.216797
 31
0.0
  0
LINE
  5
1E1
100
AcDbEntity
  8
001
  6
CONTINUOUS
 62
     7
100
AcDbLine
 10
1018.520813
 20
839.216797
 30
0.0
 11
1019.275574
 21
839.462219
 31
0.0
  0
LINE
  5
1E2
100
AcDbEntity
  8
001
  6
CONTINUOUS
 62
     7
100
AcDbLine
 10
1019.275574
 20
839.462219
 30
0.0
 11
1020.057495
 21
839.618042
 31
0.0
  0
LINE
  5
1E3
100
AcDbEntity
  8
001
  6
CONTINUOUS
 62
     7
100
AcDbLine
 10
1020.057495
 20
839.618042
 30
0.0
 11
1020.854187
 21
839.681702
 31
0.0
  0
LINE
  5
1E4
100
AcDbEntity
  8
001
  6
CONTINUOUS
 62
     7
100
AcDbLine
 10
1020.854187
 20
839.681702
 30
0.0
 11
1021.296143
 21
839.674744
 31
0.0
  0
LINE
  5
1E5
100
AcDbEntity
  8
001
  6
CONTINUOUS
 62
     7
100
AcDbLine
 10
1015.396484
 20
850.181091
 30
0.0
 11
1013.590332
 21
812.086487
 31
0.0
  0
ARC
  5
1E6
100
AcDbEntity
  8
001
  6
CONTINUOUS
 62
     7
100
AcDbCircle
 10
1021.296143
 20
837.174744
 30
0.0
 40
2.5
100
AcDbArc
 50
0.0
 51
90.0
  0
LINE
  5
1E7
100
AcDbEntity
  8
001
  6
CONTINUOUS
 62
     7
100
AcDbLine
 10
1021.0
 20
857.681274
 30
0.0
 11
1021.0
 21
842.174744
 31
0.0
  0
LINE
  5
1E8
100
AcDbEntity
  8
001
  6
CONTINUOUS
 62
     7
100
AcDbLine
 10
1020.283936
 20
858.903198
 30
0.0
 11
1015.396484
 21
850.181091
 31
0.0
  0
ARC
  5
1E9
100
AcDbEntity
  8
001
  6
CONTINUOUS
 62
     7
100
AcDbCircle
 10
1022.464968
 20
857.681274
 30
0.0
 40
2.5
100
AcDbArc
 50
90.002846
 51
150.740262
  0
LINE
  5
1EA
100
AcDbEntity
  8
001
  6
CONTINUOUS
 62
     7
100
AcDbLine
 10
1043.5
 20
863.181152
 30
0.0
 11
1043.5
 21
799.476074
 31
0.0
  0
LINE
  5
1EB
100
AcDbEntity
  8
001
  6
CONTINUOUS
 62
     7
100
AcDbLine
 10
1053.5
 20
834.539124
 30
0.0
 11
1053.5
 21
863.181152
 31
0.0
  0
ARC
  5
1EC
100
AcDbEntity
  8
001
  6
CONTINUOUS
 62
     7
100
AcDbCircle
 10
1048.5
 20
799.476074
 30
0.0
 40
5.0
100
AcDbArc
 50
180.0
 51
270.0
  0
LINE
  5
1ED
100
AcDbEntity
  8
001
  6
CONTINUOUS
 62
     7
100
AcDbLine
 10
946.0
 20
863.181152
 30
0.0
 11
1061.000244
 21
863.181152
 31
0.0
  0
LINE
  5
1EE
100
AcDbEntity
  8
001
  6
CONTINUOUS
 62
     7
100
AcDbLine
 10
1046.000244
 20
907.181213
 30
0.0
 11
1046.000244
 21
863.181152
 31
0.0
  0
LINE
  5
1EF
100
AcDbEntity
  8
001
  6
CONTINUOUS
 62
     7
100
AcDbLine
 10
988.5
 20
860.181274
 30
0.0
 11
1018.968018
 21
860.181274
 31
0.0
  0
LINE
  5
1F0
100
AcDbEntity
  8
001
  6
CONTINUOUS
 62
     7
100
AcDbLine
 10
994.10376
 20
850.181091
 30
0.0
 11
1013.007568
 21
850.181091
 31
0.0
  0
LINE
  5
1F1
100
AcDbEntity
  8
001
  6
CONTINUOUS
 62
     7
100
AcDbLine
 10
995.407471
 20
810.181213
 30
0.0
 11
1011.592529
 21
810.181213
 31
0.0
  0
LINE
  5
1F2
100
AcDbEntity
  8
001
  6
CONTINUOUS
 62
     7
100
AcDbLine
 10
968.5
 20
794.476074
 30
0.0
 11
1039.197266
 21
794.476074
 31
0.0
  0
LINE
  5
1F3
100
AcDbEntity
  8
001
  6
CONTINUOUS
 62
     7
100
AcDbLine
 10
893.5
 20
739.181213
 30
0.0
 11
1113.5
 21
739.181213
 31
0.0
  0
LINE
  5
1F4
100
AcDbEntity
  8
001
  6
CONTINUOUS
 62
     7
100
AcDbLine
 10
1113.5
 20
722.181091
 30
0.0
 11
893.5
 21
722.181091
 31
0.0
  0
LINE
  5
1F5
100
AcDbEntity
  8
001
  6
CONTINUOUS
 62
     7
100
AcDbLine
 10
893.5
 20
702.181152
 30
0.0
 11
1113.5
 21
702.181152
 31
0.0
  0
LINE
  5
1F6
100
AcDbEntity
  8
001
  6
CONTINUOUS
 62
     7
100
AcDbLine
 10
940.000244
 20
677.181091
 30
0.0
 11
1068.412354
 21
677.181091
 31
0.0
  0
ARC
  5
1F7
100
AcDbEntity
  8
001
  6
CONTINUOUS
 62
     7
100
AcDbCircle
 10
1042.719238
 20
401.813599
 30
0.0
 40
5.0
100
AcDbArc
 50
179.999301
 51
270.0
  0
ARC
  5
1F8
100
AcDbEntity
  8
001
  6
CONTINUOUS
 62
     7
100
AcDbCircle
 10
1031.719238
 20
446.445984
 30
0.0
 40
6.0
100
AcDbArc
 50
0.000583
 51
90.0
  0
LINE
  5
1F9
100
AcDbEntity
  8
001
  6
CONTINUOUS
 62
     7
100
AcDbLine
 10
1037.719238
 20
446.446045
 30
0.0
 11
1037.719238
 21
401.81366
 31
0.0
  0
LINE
  5
1FA
100
AcDbEntity
  8
001
  6
CONTINUOUS
 62
     7
100
AcDbLine
 10
1003.5
 20
452.445984
 30
0.0
 11
1031.719238
 21
452.445984
 31
0.0
  0
LINE
  5
1FB
100
AcDbEntity
  8
001
  6
CONTINUOUS
 62
     7
100
AcDbLine
 10
1074.5
 20
618.244507
 30
0.0
 11
1037.719238
 21
452.336548
 31
0.0
  0
LINE
  5
1FC
100
AcDbEntity
  8
001
  6
CONTINUOUS
 62
     7
100
AcDbLine
 10
890.5
 20
719.181152
 30
0.0
 11
890.5
 21
705.181091
 31
0.0
  0
ARC
  5
1FD
100
AcDbEntity
  8
001
  6
CONTINUOUS
 62
     7
100
AcDbCircle
 10
893.5
 20
705.181152
 30
0.0
 40
3.0
100
AcDbArc
 50
180.001166
 51
270.0
  0
ARC
  5
1FE
100
AcDbEntity
  8
001
  6
CONTINUOUS
 62
     7
100
AcDbCircle
 10
893.5
 20
719.181091
 30
0.0
 40
3.0
100
AcDbArc
 50
90.0
 51
179.998834
  0
LINE
  5
1FF
100
AcDbEntity
  8
001
  6
CONTINUOUS
 62
     7
100
AcDbLine
 10
926.279785
 20
696.619385
 30
0.0
 11
932.500244
 21
677.181091
 31
0.0
  0
LINE
  5
200
100
AcDbEntity
  8
001
  6
CONTINUOUS
 62
     7
100
AcDbLine
 10
932.500244
 20
677.181091
 30
0.0
 11
932.500244
 21
618.244507
 31
0.0
  0
LINE
  5
201
100
AcDbEntity
  8
001
  6
CONTINUOUS
 62
     7
100
AcDbLine
 10
953.5
 20
834.539124
 30
0.0
 11
953.5
 21
863.181152
 31
0.0
  0
ARC
  5
202
100
AcDbEntity
  8
001
  6
CONTINUOUS
 62
     7
100
AcDbCircle
 10
943.499999
 20
834.539093
 30
0.0
 40
10.000001
100
AcDbArc
 50
304.098697
 51
0.000172
  0
ARC
  5
203
100
AcDbEntity
  8
001
  6
CONTINUOUS
 62
     7
100
AcDbCircle
 10
958.637106
 20
812.181362
 30
0.0
 40
17.000002
100
AcDbArc
 50
124.100168
 51
161.030304
  0
LINE
  5
204
100
AcDbEntity
  8
001
  6
CONTINUOUS
 62
     7
100
AcDbLine
 10
933.5
 20
791.350769
 30
0.0
 11
933.5
 21
763.181213
 31
0.0
  0
LINE
  5
205
100
AcDbEntity
  8
001
  6
CONTINUOUS
 62
     7
100
AcDbLine
 10
933.5
 20
763.181213
 30
0.0
 11
930.158447
 21
747.141663
 31
0.0
  0
ARC
  5
206
100
AcDbEntity
  8
001
  6
CONTINUOUS
 62
     7
100
AcDbCircle
 10
893.5
 20
736.181213
 30
0.0
 40
3.0
100
AcDbArc
 50
90.0
 51
180.001166
  0
LINE
  5
207
100
AcDbEntity
  8
001
  6
CONTINUOUS
 62
     7
100
AcDbLine
 10
890.5
 20
725.181091
 30
0.0
 11
890.5
 21
736.181152
 31
0.0
  0
ARC
  5
208
100
AcDbEntity
  8
001
  6
CONTINUOUS
 62
     7
100
AcDbCircle
 10
893.5
 20
725.181091
 30
0.0
 40
3.0
100
AcDbArc
 50
180.0
 51
270.0
  0
LINE
  5
209
100
AcDbEntity
  8
001
  6
CONTINUOUS
 62
     7
100
AcDbLine
 10
963.5
 20
863.181152
 30
0.0
 11
963.5
 21
799.476074
 31
0.0
  0
ARC
  5
20A
100
AcDbEntity
  8
001
  6
CONTINUOUS
 62
     7
100
AcDbCircle
 10
958.5
 20
799.476074
 30
0.0
 40
5.0
100
AcDbArc
 50
270.0
 51
0.0
  0
LINE
  5
20B
100
AcDbEntity
  8
001
  6
CONTINUOUS
 62
     7
100
AcDbLine
 10
961.0
 20
863.181152
 30
0.0
 11
961.0
 21
907.181213
 31
0.0
  0
ARC
  5
20C
100
AcDbEntity
  8
001
  6
CONTINUOUS
 62
     7
100
AcDbCircle
 10
965.0
 20
907.181152
 30
0.0
 40
4.0
100
AcDbArc
 50
89.996503
 51
179.999126
  0
LINE
  5
20D
100
AcDbEntity
  8
001
  6
CONTINUOUS
 62
     7
100
AcDbLine
 10
961.0
 20
897.181091
 30
0.0
 11
950.000244
 21
897.181091
 31
0.0
  0
LINE
  5
20E
100
AcDbEntity
  8
001
  6
CONTINUOUS
 62
     7
100
AcDbLine
 10
946.0
 20
893.181152
 30
0.0
 11
946.0
 21
863.181152
 31
0.0
  0
ARC
  5
20F
100
AcDbEntity
  8
001
  6
CONTINUOUS
 62
     7
100
AcDbCircle
 10
950.0
 20
893.181091
 30
0.0
 40
4.0
100
AcDbArc
 50
89.996503
 51
179.999126
  0
LINE
  5
210
100
AcDbEntity
  8
001
  6
CONTINUOUS
 62
     7
100
AcDbLine
 10
942.560303
 20
817.70752
 30
0.0
 11
933.5
 21
791.350769
 31
0.0
  0
LINE
  5
211
100
AcDbEntity
  8
001
  6
CONTINUOUS
 62
     7
100
AcDbLine
 10
1110.484863
 20
742.181213
 30
0.0
 11
1082.484863
 21
742.181213
 31
0.0
  0
LINE
  5
212
100
AcDbEntity
  8
001
  6
CONTINUOUS
 62
     7
100
AcDbLine
 10
1104.484863
 20
762.181213
 30
0.0
 11
1088.484863
 21
762.181213
 31
0.0
  0
ARC
  5
213
100
AcDbEntity
  8
001
  6
CONTINUOUS
 62
     7
100
AcDbCircle
 10
1096.484863
 20
747.180891
 30
0.0
 40
17.000284
100
AcDbArc
 50
61.928024
 51
118.071976
  0
LINE
  5
214
100
AcDbEntity
  8
001
  6
CONTINUOUS
 62
     7
100
AcDbLine
 10
1104.484863
 20
762.181213
 30
0.0
 11
1104.484863
 21
755.181213
 31
0.0
  0
LINE
  5
215
100
AcDbEntity
  8
001
  6
CONTINUOUS
 62
     7
100
AcDbLine
 10
1088.484863
 20
762.181213
 30
0.0
 11
1088.484863
 21
755.181213
 31
0.0
  0
LINE
  5
216
100
AcDbEntity
  8
001
  6
CONTINUOUS
 62
     7
100
AcDbLine
 10
1110.484863
 20
739.181213
 30
0.0
 11
1110.484863
 21
742.181213
 31
0.0
  0
LINE
  5
217
100
AcDbEntity
  8
001
  6
CONTINUOUS
 62
     7
100
AcDbLine
 10
1082.484863
 20
739.411011
 30
0.0
 11
1082.484863
 21
742.181213
 31
0.0
  0
ARC
  5
218
100
AcDbEntity
  8
001
  6
CONTINUOUS
 62
     7
100
AcDbCircle
 10
1102.484863
 20
737.562344
 30
0.0
 40
17.330189
100
AcDbArc
 50
69.743917
 51
110.256083
  0
ARC
  5
219
100
AcDbEntity
  8
001
  6
CONTINUOUS
 62
     7
100
AcDbCircle
 10
1090.484863
 20
737.562344
 30
0.0
 40
17.330189
100
AcDbArc
 50
69.743917
 51
110.256083
  0
LINE
  5
21A
100
AcDbEntity
  8
001
  6
CONTINUOUS
 62
     7
100
AcDbLine
 10
1108.484863
 20
754.892517
 30
0.0
 11
1107.984863
 21
755.181213
 31
0.0
  0
LINE
  5
21B
100
AcDbEntity
  8
001
  6
CONTINUOUS
 62
     7
100
AcDbLine
 10
1084.484863
 20
754.892517
 30
0.0
 11
1084.984863
 21
755.181213
 31
0.0
  0
LINE
  5
21C
100
AcDbEntity
  8
001
  6
CONTINUOUS
 62
     7
100
AcDbLine
 10
1107.984863
 20
755.181213
 30
0.0
 11
1084.984863
 21
755.181213
 31
0.0
  0
LINE
  5
21D
100
AcDbEntity
  8
001
  6
CONTINUOUS
 62
     7
100
AcDbLine
 10
1084.484863
 20
754.892517
 30
0.0
 11
1084.484863
 21
742.181213
 31
0.0
  0
LINE
  5
21E
100
AcDbEntity
  8
001
  6
CONTINUOUS
 62
     7
100
AcDbLine
 10
1096.484863
 20
753.82074
 30
0.0
 11
1096.484863
 21
742.181213
 31
0.0
  0
LINE
  5
21F
100
AcDbEntity
  8
001
  6
CONTINUOUS
 62
     7
100
AcDbLine
 10
1108.484863
 20
754.892517
 30
0.0
 11
1108.484863
 21
742.181213
 31
0.0
  0
LINE
  5
220
100
AcDbEntity
  8
001
  6
CONTINUOUS
 62
     7
100
AcDbLine
 10
1110.484863
 20
699.181091
 30
0.0
 11
1082.484863
 21
699.181091
 31
0.0
  0
LINE
  5
221
100
AcDbEntity
  8
001
  6
CONTINUOUS
 62
     7
100
AcDbLine
 10
1110.485107
 20
702.181213
 30
0.0
 11
1110.485107
 21
699.181091
 31
0.0
  0
ARC
  5
222
100
AcDbEntity
  8
001
  6
CONTINUOUS
 62
     7
100
AcDbCircle
 10
1090.484863
 20
706.799961
 30
0.0
 40
17.330189
100
AcDbArc
 50
249.743917
 51
290.256083
  0
ARC
  5
223
100
AcDbEntity
  8
001
  6
CONTINUOUS
 62
     7
100
AcDbCircle
 10
1102.484863
 20
706.799961
 30
0.0
 40
17.330189
100
AcDbArc
 50
249.743917
 51
290.256083
  0
LINE
  5
224
100
AcDbEntity
  8
001
  6
CONTINUOUS
 62
     7
100
AcDbLine
 10
1084.484863
 20
689.469788
 30
0.0
 11
1084.984863
 21
689.181091
 31
0.0
  0
LINE
  5
225
100
AcDbEntity
  8
001
  6
CONTINUOUS
 62
     7
100
AcDbLine
 10
1108.484863
 20
689.469788
 30
0.0
 11
1107.984863
 21
689.181091
 31
0.0
  0
LINE
  5
226
100
AcDbEntity
  8
001
  6
CONTINUOUS
 62
     7
100
AcDbLine
 10
1084.984863
 20
689.181091
 30
0.0
 11
1107.984863
 21
689.181091
 31
0.0
  0
LINE
  5
227
100
AcDbEntity
  8
001
  6
CONTINUOUS
 62
     7
100
AcDbLine
 10
1108.484863
 20
689.469788
 30
0.0
 11
1108.484863
 21
699.181091
 31
0.0
  0
LINE
  5
228
100
AcDbEntity
  8
001
  6
CONTINUOUS
 62
     7
100
AcDbLine
 10
1096.484863
 20
690.541565
 30
0.0
 11
1096.484863
 21
699.181091
 31
0.0
  0
LINE
  5
229
100
AcDbEntity
  8
001
  6
CONTINUOUS
 62
     7
100
AcDbLine
 10
1084.484863
 20
689.469788
 30
0.0
 11
1084.484863
 21
699.181091
 31
0.0
  0
LINE
  5
22A
100
AcDbEntity
  8
001
  6
CONTINUOUS
 62
     7
100
AcDbLine
 10
1082.484863
 20
702.181152
 30
0.0
 11
1082.484863
 21
699.181091
 31
0.0
  0
LINE
  5
22B
100
AcDbEntity
  8
001
  6
CONTINUOUS
 62
     7
100
AcDbLine
 10
1069.774292
 20
699.181091
 30
0.0
 11
1041.774292
 21
699.181091
 31
0.0
  0
LINE
  5
22C
100
AcDbEntity
  8
001
  6
CONTINUOUS
 62
     7
100
AcDbLine
 10
1069.774536
 20
702.181213
 30
0.0
 11
1069.774536
 21
699.181091
 31
0.0
  0
ARC
  5
22D
100
AcDbEntity
  8
001
  6
CONTINUOUS
 62
     7
100
AcDbCircle
 10
1049.774292
 20
706.799961
 30
0.0
 40
17.330189
100
AcDbArc
 50
249.743917
 51
290.256083
  0
ARC
  5
22E
100
AcDbEntity
  8
001
  6
CONTINUOUS
 62
     7
100
AcDbCircle
 10
1061.774292
 20
706.799961
 30
0.0
 40
17.330189
100
AcDbArc
 50
249.743917
 51
290.256083
  0
LINE
  5
22F
100
AcDbEntity
  8
001
  6
CONTINUOUS
 62
     7
100
AcDbLine
 10
1067.774292
 20
689.469788
 30
0.0
 11
1067.274292
 21
689.181091
 31
0.0
  0
LINE
  5
230
100
AcDbEntity
  8
001
  6
CONTINUOUS
 62
     7
100
AcDbLine
 10
1044.274292
 20
689.181091
 30
0.0
 11
1067.274292
 21
689.181091
 31
0.0
  0
LINE
  5
231
100
AcDbEntity
  8
001
  6
CONTINUOUS
 62
     7
100
AcDbLine
 10
1067.774292
 20
689.469788
 30
0.0
 11
1067.774292
 21
699.181091
 31
0.0
  0
LINE
  5
232
100
AcDbEntity
  8
001
  6
CONTINUOUS
 62
     7
100
AcDbLine
 10
1055.774292
 20
690.541565
 30
0.0
 11
1055.774292
 21
699.181091
 31
0.0
  0
LINE
  5
233
100
AcDbEntity
  8
001
  6
CONTINUOUS
 62
     7
100
AcDbLine
 10
1043.774292
 20
689.469788
 30
0.0
 11
1044.274292
 21
689.181091
 31
0.0
  0
LINE
  5
234
100
AcDbEntity
  8
001
  6
CONTINUOUS
 62
     7
100
AcDbLine
 10
1043.774292
 20
689.469788
 30
0.0
 11
1043.774292
 21
699.181091
 31
0.0
  0
LINE
  5
235
100
AcDbEntity
  8
001
  6
CONTINUOUS
 62
     7
100
AcDbLine
 10
1041.774292
 20
702.181152
 30
0.0
 11
1041.774292
 21
699.181091
 31
0.0
  0
LINE
  5
236
100
AcDbEntity
  8
001
  6
CONTINUOUS
 62
     7
100
AcDbLine
 10
1069.774292
 20
742.181213
 30
0.0
 11
1041.774292
 21
742.181213
 31
0.0
  0
LINE
  5
237
100
AcDbEntity
  8
001
  6
CONTINUOUS
 62
     7
100
AcDbLine
 10
1063.774292
 20
762.181213
 30
0.0
 11
1047.774292
 21
762.181213
 31
0.0
  0
ARC
  5
238
100
AcDbEntity
  8
001
  6
CONTINUOUS
 62
     7
100
AcDbCircle
 10
1055.774292
 20
747.180891
 30
0.0
 40
17.000284
100
AcDbArc
 50
61.928024
 51
118.071976
  0
LINE
  5
239
100
AcDbEntity
  8
001
  6
CONTINUOUS
 62
     7
100
AcDbLine
 10
1063.774292
 20
762.181213
 30
0.0
 11
1063.774292
 21
755.181213
 31
0.0
  0
LINE
  5
23A
100
AcDbEntity
  8
001
  6
CONTINUOUS
 62
     7
100
AcDbLine
 10
1047.774292
 20
762.181213
 30
0.0
 11
1047.774292
 21
755.181213
 31
0.0
  0
LINE
  5
23B
100
AcDbEntity
  8
001
  6
CONTINUOUS
 62
     7
100
AcDbLine
 10
1069.774292
 20
739.181213
 30
0.0
 11
1069.774292
 21
742.181213
 31
0.0
  0
LINE
  5
23C
100
AcDbEntity
  8
001
  6
CONTINUOUS
 62
     7
100
AcDbLine
 10
1041.774292
 20
739.411011
 30
0.0
 11
1041.774292
 21
742.181213
 31
0.0
  0
ARC
  5
23D
100
AcDbEntity
  8
001
  6
CONTINUOUS
 62
     7
100
AcDbCircle
 10
1061.774292
 20
737.562344
 30
0.0
 40
17.330189
100
AcDbArc
 50
69.743917
 51
110.256083
  0
ARC
  5
23E
100
AcDbEntity
  8
001
  6
CONTINUOUS
 62
     7
100
AcDbCircle
 10
1049.774292
 20
737.562344
 30
0.0
 40
17.330189
100
AcDbArc
 50
69.743917
 51
110.256083
  0
LINE
  5
23F
100
AcDbEntity
  8
001
  6
CONTINUOUS
 62
     7
100
AcDbLine
 10
1067.774292
 20
754.892517
 30
0.0
 11
1067.274292
 21
755.181213
 31
0.0
  0
LINE
  5
240
100
AcDbEntity
  8
001
  6
CONTINUOUS
 62
     7
100
AcDbLine
 10
1043.774292
 20
754.892517
 30
0.0
 11
1044.274292
 21
755.181213
 31
0.0
  0
LINE
  5
241
100
AcDbEntity
  8
001
  6
CONTINUOUS
 62
     7
100
AcDbLine
 10
1067.274292
 20
755.181213
 30
0.0
 11
1044.274292
 21
755.181213
 31
0.0
  0
LINE
  5
242
100
AcDbEntity
  8
001
  6
CONTINUOUS
 62
     7
100
AcDbLine
 10
1043.774292
 20
754.892517
 30
0.0
 11
1043.774292
 21
742.181213
 31
0.0
  0
LINE
  5
243
100
AcDbEntity
  8
001
  6
CONTINUOUS
 62
     7
100
AcDbLine
 10
1055.774292
 20
753.82074
 30
0.0
 11
1055.774292
 21
742.181213
 31
0.0
  0
LINE
  5
244
100
AcDbEntity
  8
001
  6
CONTINUOUS
 62
     7
100
AcDbLine
 10
1067.774292
 20
754.892517
 30
0.0
 11
1067.774292
 21
742.181213
 31
0.0
  0
LINE
  5
245
100
AcDbEntity
  8
001
  6
CONTINUOUS
 62
     7
100
AcDbLine
 10
965.225586
 20
699.181091
 30
0.0
 11
937.225586
 21
699.181091
 31
0.0
  0
LINE
  5
246
100
AcDbEntity
  8
001
  6
CONTINUOUS
 62
     7
100
AcDbLine
 10
965.22583
 20
702.181213
 30
0.0
 11
965.22583
 21
699.181091
 31
0.0
  0
ARC
  5
247
100
AcDbEntity
  8
001
  6
CONTINUOUS
 62
     7
100
AcDbCircle
 10
945.225586
 20
706.799961
 30
0.0
 40
17.330189
100
AcDbArc
 50
249.743917
 51
290.256083
  0
ARC
  5
248
100
AcDbEntity
  8
001
  6
CONTINUOUS
 62
     7
100
AcDbCircle
 10
957.225586
 20
706.799961
 30
0.0
 40
17.330189
100
AcDbArc
 50
249.743917
 51
290.256083
  0
LINE
  5
249
100
AcDbEntity
  8
001
  6
CONTINUOUS
 62
     7
100
AcDbLine
 10
963.225586
 20
689.469788
 30
0.0
 11
962.725586
 21
689.181091
 31
0.0
  0
LINE
  5
24A
100
AcDbEntity
  8
001
  6
CONTINUOUS
 62
     7
100
AcDbLine
 10
939.725586
 20
689.181091
 30
0.0
 11
962.725586
 21
689.181091
 31
0.0
  0
LINE
  5
24B
100
AcDbEntity
  8
001
  6
CONTINUOUS
 62
     7
100
AcDbLine
 10
963.225586
 20
689.469788
 30
0.0
 11
963.225586
 21
699.181091
 31
0.0
  0
LINE
  5
24C
100
AcDbEntity
  8
001
  6
CONTINUOUS
 62
     7
100
AcDbLine
 10
951.225586
 20
690.541565
 30
0.0
 11
951.225586
 21
699.181091
 31
0.0
  0
LINE
  5
24D
100
AcDbEntity
  8
001
  6
CONTINUOUS
 62
     7
100
AcDbLine
 10
939.225586
 20
689.469788
 30
0.0
 11
939.725586
 21
689.181091
 31
0.0
  0
LINE
  5
24E
100
AcDbEntity
  8
001
  6
CONTINUOUS
 62
     7
100
AcDbLine
 10
939.225586
 20
689.469788
 30
0.0
 11
939.225586
 21
699.181091
 31
0.0
  0
LINE
  5
24F
100
AcDbEntity
  8
001
  6
CONTINUOUS
 62
     7
100
AcDbLine
 10
937.225586
 20
702.181152
 30
0.0
 11
937.225586
 21
699.181091
 31
0.0
  0
LINE
  5
250
100
AcDbEntity
  8
001
  6
CONTINUOUS
 62
     7
100
AcDbLine
 10
965.225586
 20
742.181213
 30
0.0
 11
937.225586
 21
742.181213
 31
0.0
  0
LINE
  5
251
100
AcDbEntity
  8
001
  6
CONTINUOUS
 62
     7
100
AcDbLine
 10
959.225586
 20
762.181213
 30
0.0
 11
943.225586
 21
762.181213
 31
0.0
  0
ARC
  5
252
100
AcDbEntity
  8
001
  6
CONTINUOUS
 62
     7
100
AcDbCircle
 10
951.225586
 20
747.180891
 30
0.0
 40
17.000284
100
AcDbArc
 50
61.928024
 51
118.071976
  0
LINE
  5
253
100
AcDbEntity
  8
001
  6
CONTINUOUS
 62
     7
100
AcDbLine
 10
959.225586
 20
762.181213
 30
0.0
 11
959.225586
 21
755.181213
 31
0.0
  0
LINE
  5
254
100
AcDbEntity
  8
001
  6
CONTINUOUS
 62
     7
100
AcDbLine
 10
943.225586
 20
762.181213
 30
0.0
 11
943.225586
 21
755.181213
 31
0.0
  0
LINE
  5
255
100
AcDbEntity
  8
001
  6
CONTINUOUS
 62
     7
100
AcDbLine
 10
965.225586
 20
739.181213
 30
0.0
 11
965.225586
 21
742.181213
 31
0.0
  0
LINE
  5
256
100
AcDbEntity
  8
001
  6
CONTINUOUS
 62
     7
100
AcDbLine
 10
937.225586
 20
739.411011
 30
0.0
 11
937.225586
 21
742.181213
 31
0.0
  0
ARC
  5
257
100
AcDbEntity
  8
001
  6
CONTINUOUS
 62
     7
100
AcDbCircle
 10
957.225586
 20
737.562344
 30
0.0
 40
17.330189
100
AcDbArc
 50
69.743917
 51
110.256083
  0
ARC
  5
258
100
AcDbEntity
  8
001
  6
CONTINUOUS
 62
     7
100
AcDbCircle
 10
945.225586
 20
737.562344
 30
0.0
 40
17.330189
100
AcDbArc
 50
69.743917
 51
110.256083
  0
LINE
  5
259
100
AcDbEntity
  8
001
  6
CONTINUOUS
 62
     7
100
AcDbLine
 10
963.225586
 20
754.892517
 30
0.0
 11
962.725586
 21
755.181213
 31
0.0
  0
LINE
  5
25A
100
AcDbEntity
  8
001
  6
CONTINUOUS
 62
     7
100
AcDbLine
 10
939.225586
 20
754.892517
 30
0.0
 11
939.725586
 21
755.181213
 31
0.0
  0
LINE
  5
25B
100
AcDbEntity
  8
001
  6
CONTINUOUS
 62
     7
100
AcDbLine
 10
962.725586
 20
755.181213
 30
0.0
 11
939.725586
 21
755.181213
 31
0.0
  0
LINE
  5
25C
100
AcDbEntity
  8
001
  6
CONTINUOUS
 62
     7
100
AcDbLine
 10
939.225586
 20
754.892517
 30
0.0
 11
939.225586
 21
742.181213
 31
0.0
  0
LINE
  5
25D
100
AcDbEntity
  8
001
  6
CONTINUOUS
 62
     7
100
AcDbLine
 10
951.225586
 20
753.82074
 30
0.0
 11
951.225586
 21
742.181213
 31
0.0
  0
LINE
  5
25E
100
AcDbEntity
  8
001
  6
CONTINUOUS
 62
     7
100
AcDbLine
 10
963.225586
 20
754.892517
 30
0.0
 11
963.225586
 21
742.181213
 31
0.0
  0
LINE
  5
25F
100
AcDbEntity
  8
001
  6
CONTINUOUS
 62
     7
100
AcDbLine
 10
924.515137
 20
699.181091
 30
0.0
 11
896.515137
 21
699.181091
 31
0.0
  0
LINE
  5
260
100
AcDbEntity
  8
001
  6
CONTINUOUS
 62
     7
100
AcDbLine
 10
924.515381
 20
702.181213
 30
0.0
 11
924.515381
 21
699.181091
 31
0.0
  0
ARC
  5
261
100
AcDbEntity
  8
001
  6
CONTINUOUS
 62
     7
100
AcDbCircle
 10
904.515137
 20
706.799961
 30
0.0
 40
17.330189
100
AcDbArc
 50
249.743917
 51
290.256083
  0
ARC
  5
262
100
AcDbEntity
  8
001
  6
CONTINUOUS
 62
     7
100
AcDbCircle
 10
916.515137
 20
706.799961
 30
0.0
 40
17.330189
100
AcDbArc
 50
249.743917
 51
290.256083
  0
LINE
  5
263
100
AcDbEntity
  8
001
  6
CONTINUOUS
 62
     7
100
AcDbLine
 10
922.515137
 20
689.469788
 30
0.0
 11
922.015137
 21
689.181091
 31
0.0
  0
LINE
  5
264
100
AcDbEntity
  8
001
  6
CONTINUOUS
 62
     7
100
AcDbLine
 10
899.015137
 20
689.181091
 30
0.0
 11
922.015137
 21
689.181091
 31
0.0
  0
LINE
  5
265
100
AcDbEntity
  8
001
  6
CONTINUOUS
 62
     7
100
AcDbLine
 10
922.515137
 20
689.469788
 30
0.0
 11
922.515137
 21
699.181091
 31
0.0
  0
LINE
  5
266
100
AcDbEntity
  8
001
  6
CONTINUOUS
 62
     7
100
AcDbLine
 10
910.515137
 20
690.541565
 30
0.0
 11
910.515137
 21
699.181091
 31
0.0
  0
LINE
  5
267
100
AcDbEntity
  8
001
  6
CONTINUOUS
 62
     7
100
AcDbLine
 10
898.515137
 20
689.469788
 30
0.0
 11
899.015137
 21
689.181091
 31
0.0
  0
LINE
  5
268
100
AcDbEntity
  8
001
  6
CONTINUOUS
 62
     7
100
AcDbLine
 10
898.515137
 20
689.469788
 30
0.0
 11
898.515137
 21
699.181091
 31
0.0
  0
LINE
  5
269
100
AcDbEntity
  8
001
  6
CONTINUOUS
 62
     7
100
AcDbLine
 10
896.515137
 20
702.181152
 30
0.0
 11
896.515137
 21
699.181091
 31
0.0
  0
LINE
  5
26A
100
AcDbEntity
  8
001
  6
CONTINUOUS
 62
     7
100
AcDbLine
 10
924.515137
 20
742.181213
 30
0.0
 11
896.515137
 21
742.181213
 31
0.0
  0
LINE
  5
26B
100
AcDbEntity
  8
001
  6
CONTINUOUS
 62
     7
100
AcDbLine
 10
918.515137
 20
762.181213
 30
0.0
 11
902.515137
 21
762.181213
 31
0.0
  0
ARC
  5
26C
100
AcDbEntity
  8
001
  6
CONTINUOUS
 62
     7
100
AcDbCircle
 10
910.515137
 20
747.180891
 30
0.0
 40
17.000284
100
AcDbArc
 50
61.928024
 51
118.071976
  0
LINE
  5
26D
100
AcDbEntity
  8
001
  6
CONTINUOUS
 62
     7
100
AcDbLine
 10
918.515137
 20
762.181213
 30
0.0
 11
918.515137
 21
755.181213
 31
0.0
  0
LINE
  5
26E
100
AcDbEntity
  8
001
  6
CONTINUOUS
 62
     7
100
AcDbLine
 10
902.515137
 20
762.181213
 30
0.0
 11
902.515137
 21
755.181213
 31
0.0
  0
LINE
  5
26F
100
AcDbEntity
  8
001
  6
CONTINUOUS
 62
     7
100
AcDbLine
 10
924.515137
 20
739.181213
 30
0.0
 11
924.515137
 21
742.181213
 31
0.0
  0
LINE
  5
270
100
AcDbEntity
  8
001
  6
CONTINUOUS
 62
     7
100
AcDbLine
 10
896.515137
 20
739.411011
 30
0.0
 11
896.515137
 21
742.181213
 31
0.0
  0
ARC
  5
271
100
AcDbEntity
  8
001
  6
CONTINUOUS
 62
     7
100
AcDbCircle
 10
916.515137
 20
737.562344
 30
0.0
 40
17.330189
100
AcDbArc
 50
69.743917
 51
110.256083
  0
ARC
  5
272
100
AcDbEntity
  8
001
  6
CONTINUOUS
 62
     7
100
AcDbCircle
 10
904.515137
 20
737.562344
 30
0.0
 40
17.330189
100
AcDbArc
 50
69.743917
 51
110.256083
  0
LINE
  5
273
100
AcDbEntity
  8
001
  6
CONTINUOUS
 62
     7
100
AcDbLine
 10
922.515137
 20
754.892517
 30
0.0
 11
922.015137
 21
755.181213
 31
0.0
  0
LINE
  5
274
100
AcDbEntity
  8
001
  6
CONTINUOUS
 62
     7
100
AcDbLine
 10
898.515137
 20
754.892517
 30
0.0
 11
899.015137
 21
755.181213
 31
0.0
  0
LINE
  5
275
100
AcDbEntity
  8
001
  6
CONTINUOUS
 62
     7
100
AcDbLine
 10
922.015137
 20
755.181213
 30
0.0
 11
899.015137
 21
755.181213
 31
0.0
  0
LINE
  5
276
100
AcDbEntity
  8
001
  6
CONTINUOUS
 62
     7
100
AcDbLine
 10
898.515137
 20
754.892517
 30
0.0
 11
898.515137
 21
742.181213
 31
0.0
  0
LINE
  5
277
100
AcDbEntity
  8
001
  6
CONTINUOUS
 62
     7
100
AcDbLine
 10
910.515137
 20
753.82074
 30
0.0
 11
910.515137
 21
742.181213
 31
0.0
  0
LINE
  5
278
100
AcDbEntity
  8
001
  6
CONTINUOUS
 62
     7
100
AcDbLine
 10
922.515137
 20
754.892517
 30
0.0
 11
922.515137
 21
742.181213
 31
0.0
  0
ARC
  5
279
100
AcDbEntity
  8
001
  6
CONTINUOUS
 62
     7
100
AcDbCircle
 10
918.660397
 20
694.181161
 30
0.0
 40
8.000001
100
AcDbArc
 50
17.744807
 51
42.956362
  0
ARC
  5
27A
100
AcDbEntity
  8
001
  6
CONTINUOUS
 62
     7
100
AcDbCircle
 10
920.368649
 20
749.181237
 30
0.0
 40
10.000001
100
AcDbArc
 50
294.497199
 51
348.231525
  0
LINE
  5
27B
100
AcDbEntity
  8
001
  6
CONTINUOUS
 62
     7
100
AcDbLine
 10
941.0
 20
763.181213
 30
0.0
 11
945.481079
 21
763.181213
 31
0.0
  0
LINE
  5
27C
100
AcDbEntity
  8
001
  6
CONTINUOUS
 62
     7
100
AcDbLine
 10
956.970093
 20
763.181213
 30
0.0
 11
1050.029785
 21
763.181213
 31
0.0
  0
LINE
  5
27D
100
AcDbEntity
  8
001
  6
CONTINUOUS
 62
     7
100
AcDbLine
 10
1061.518799
 20
763.181213
 30
0.0
 11
1066.290039
 21
763.181213
 31
0.0
  0
ARC
  5
27E
100
AcDbEntity
  8
001
  6
CONTINUOUS
 62
     7
100
AcDbCircle
 10
1088.339594
 20
694.181133
 30
0.0
 40
8.000001
100
AcDbArc
 50
137.040979
 51
162.254986
  0
ARC
  5
27F
100
AcDbEntity
  8
001
  6
CONTINUOUS
 62
     7
100
AcDbCircle
 10
1086.631593
 20
749.181249
 30
0.0
 40
10.000001
100
AcDbArc
 50
191.768545
 51
245.50128
  0
CIRCLE
  5
280
100
AcDbEntity
  8
001
  6
CONTINUOUS
 62
     7
100
AcDbCircle
 10
1003.5
 20
917.181213
 30
0.0
 40
5.0
  0
LINE
  5
281
100
AcDbEntity
  8
001
  6
CONTINUOUS
 62
     7
100
AcDbLine
 10
1003.5
 20
914.294434
 30
0.0
 11
1006.0
 21
915.737854
 31
0.0
  0
LINE
  5
282
100
AcDbEntity
  8
001
  6
CONTINUOUS
 62
     7
100
AcDbLine
 10
1001.0
 20
915.737854
 30
0.0
 11
1003.5
 21
914.294434
 31
0.0
  0
LINE
  5
283
100
AcDbEntity
  8
001
  6
CONTINUOUS
 62
     7
100
AcDbLine
 10
1001.0
 20
918.624573
 30
0.0
 11
1001.0
 21
915.737854
 31
0.0
  0
LINE
  5
284
100
AcDbEntity
  8
001
  6
CONTINUOUS
 62
     7
100
AcDbLine
 10
1003.5
 20
920.067993
 30
0.0
 11
1001.0
 21
918.624573
 31
0.0
  0
LINE
  5
285
100
AcDbEntity
  8
001
  6
CONTINUOUS
 62
     7
100
AcDbLine
 10
1006.0
 20
915.737854
 30
0.0
 11
1006.0
 21
918.624573
 31
0.0
  0
LINE
  5
286
100
AcDbEntity
  8
001
  6
CONTINUOUS
 62
     7
100
AcDbLine
 10
1006.0
 20
918.624573
 30
0.0
 11
1003.5
 21
920.067993
 31
0.0
  0
ARC
  5
287
100
AcDbEntity
  8
001
  6
CONTINUOUS
 62
     7
100
AcDbCircle
 10
1003.499878
 20
1443.181084
 30
0.0
 40
157.384033
100
AcDbArc
 50
79.775688
 51
86.294449
  0
ARC
  5
288
100
AcDbEntity
  8
001
  6
CONTINUOUS
 62
     7
100
AcDbCircle
 10
1003.499932
 20
1443.181071
 30
0.0
 40
157.384033
100
AcDbArc
 50
93.705481
 51
100.224287
  0
ARC
  5
289
100
AcDbEntity
  8
001
  6
CONTINUOUS
 62
     7
100
AcDbCircle
 10
1003.499932
 20
1487.180989
 30
0.0
 40
157.384033
100
AcDbArc
 50
259.775713
 51
266.294519
  0
ARC
  5
28A
100
AcDbEntity
  8
001
  6
CONTINUOUS
 62
     7
100
AcDbCircle
 10
1003.499878
 20
1487.180977
 30
0.0
 40
157.384033
100
AcDbArc
 50
273.705551
 51
280.224312
  0
LINE
  5
28B
100
AcDbEntity
  8
001
  6
CONTINUOUS
 62
     7
100
AcDbLine
 10
1631.481567
 20
860.192688
 30
0.0
 11
1591.057373
 21
850.794617
 31
0.0
  0
ARC
  5
28C
100
AcDbEntity
  8
001
  6
CONTINUOUS
 62
     7
100
AcDbCircle
 10
1592.18959
 20
845.924495
 30
0.0
 40
5.0
100
AcDbArc
 50
103.087769
 51
159.997184
  0
LINE
  5
28D
100
AcDbEntity
  8
001
  6
CONTINUOUS
 62
     7
100
AcDbLine
 10
1576.301514
 20
816.891296
 30
0.0
 11
1587.491211
 21
847.634827
 31
0.0
  0
LINE
  5
28E
100
AcDbEntity
  8
001
  6
CONTINUOUS
 62
     7
100
AcDbLine
 10
1620.326416
 20
822.905823
 30
0.0
 11
1634.985352
 21
863.181091
 31
0.0
  0
LINE
  5
28F
100
AcDbEntity
  8
001
  6
CONTINUOUS
 62
     7
100
AcDbLine
 10
1644.064941
 20
863.181091
 30
0.0
 11
1609.97876
 21
794.476135
 31
0.0
  0
LINE
  5
290
100
AcDbEntity
  8
001
  6
CONTINUOUS
 62
     7
100
AcDbLine
 10
1631.030029
 20
863.181091
 30
0.0
 11
1647.541992
 21
908.549133
 31
0.0
  0
LINE
  5
291
100
AcDbEntity
  8
001
  6
CONTINUOUS
 62
     7
100
AcDbLine
 10
1631.030029
 20
863.181091
 30
0.0
 11
1795.969971
 21
863.181091
 31
0.0
  0
ARC
  5
292
100
AcDbEntity
  8
001
  6
CONTINUOUS
 62
     7
100
AcDbCircle
 10
1630.349417
 20
865.062825
 30
0.0
 40
5.0
100
AcDbArc
 50
283.086985
 51
337.892424
  0
ARC
  5
293
100
AcDbEntity
  8
001
  6
CONTINUOUS
 62
     7
100
AcDbCircle
 10
1606.997549
 20
826.213733
 30
0.0
 40
13.656459
100
AcDbArc
 50
339.924042
 51
160.076534
  0
LINE
  5
294
100
AcDbEntity
  8
001
  6
CONTINUOUS
 62
     7
100
AcDbLine
 10
1795.518433
 20
860.192688
 30
0.0
 11
1835.942627
 21
850.794617
 31
0.0
  0
ARC
  5
295
100
AcDbEntity
  8
001
  6
CONTINUOUS
 62
     7
100
AcDbCircle
 10
1834.81041
 20
845.924495
 30
0.0
 40
5.0
100
AcDbArc
 50
20.002816
 51
76.912231
  0
LINE
  5
296
100
AcDbEntity
  8
001
  6
CONTINUOUS
 62
     7
100
AcDbLine
 10
1850.698486
 20
816.891296
 30
0.0
 11
1839.508789
 21
847.634827
 31
0.0
  0
LINE
  5
297
100
AcDbEntity
  8
001
  6
CONTINUOUS
 62
     7
100
AcDbLine
 10
1832.627197
 20
831.456482
 30
0.0
 11
1839.891602
 21
811.497131
 31
0.0
  0
LINE
  5
298
100
AcDbEntity
  8
001
  6
CONTINUOUS
 62
     7
100
AcDbLine
 10
1817.02124
 20
794.476135
 30
0.0
 11
1806.673584
 21
822.905823
 31
0.0
  0
LINE
  5
299
100
AcDbEntity
  8
001
  6
CONTINUOUS
 62
     7
100
AcDbLine
 10
1806.673584
 20
822.905823
 30
0.0
 11
1792.014648
 21
863.181091
 31
0.0
  0
LINE
  5
29A
100
AcDbEntity
  8
001
  6
CONTINUOUS
 62
     7
100
AcDbLine
 10
1833.205322
 20
783.966125
 30
0.0
 11
1760.29834
 21
831.312561
 31
0.0
  0
LINE
  5
29B
100
AcDbEntity
  8
001
  6
CONTINUOUS
 62
     7
100
AcDbLine
 10
1782.935059
 20
863.181091
 30
0.0
 11
1817.02124
 21
794.476135
 31
0.0
  0
LINE
  5
29C
100
AcDbEntity
  8
001
  6
CONTINUOUS
 62
     7
100
AcDbLine
 10
1795.969971
 20
863.181091
 30
0.0
 11
1779.458008
 21
908.549133
 31
0.0
  0
ARC
  5
29D
100
AcDbEntity
  8
001
  6
CONTINUOUS
 62
     7
100
AcDbCircle
 10
1796.650583
 20
865.062825
 30
0.0
 40
5.0
100
AcDbArc
 50
202.107576
 51
256.913015
  0
ARC
  5
29E
100
AcDbEntity
  8
001
  6
CONTINUOUS
 62
     7
100
AcDbCircle
 10
1820.008667
 20
826.196686
 30
0.0
 40
13.656457
100
AcDbArc
 50
19.999832
 51
199.999832
  0
LINE
  5
29F
100
AcDbEntity
  8
001
  6
CONTINUOUS
 62
     7
100
AcDbLine
 10
1713.5
 20
990.181091
 30
0.0
 11
1696.75
 21
990.181091
 31
0.0
  0
LINE
  5
2A0
100
AcDbEntity
  8
001
  6
CONTINUOUS
 62
     7
100
AcDbLine
 10
1696.75
 20
942.181274
 30
0.0
 11
1696.75
 21
990.181091
 31
0.0
  0
ARC
  5
2A2
100
AcDbEntity
  8
001
  6
CONTINUOUS
 62
     7
100
AcDbCircle
 10
1698.75
 20
942.181274
 30
0.0
 40
2.0
100
AcDbArc
 50
180.0
 51
270.0
  0
LINE
  5
2A4
100
AcDbEntity
  8
001
  6
CONTINUOUS
 62
     7
100
AcDbLine
 10
1020.25
 20
990.181091
 30
0.0
 11
1003.5
 21
990.181091
 31
0.0
  0
LINE
  5
2A5
100
AcDbEntity
  8
001
  6
CONTINUOUS
 62
     7
100
AcDbLine
 10
1020.25
 20
942.181274
 30
0.0
 11
1020.25
 21
990.181091
 31
0.0
  0
ARC
  5
2A6
100
AcDbEntity
  8
001
  6
CONTINUOUS
 62
     7
100
AcDbCircle
 10
1018.25
 20
942.181274
 30
0.0
 40
2.0
100
AcDbArc
 50
270.0
 51
0.0
  0
LINE
  5
2A9
100
AcDbEntity
  8
001
  6
CONTINUOUS
 62
     7
100
AcDbLine
 10
1224.5
 20
641.181091
 30
0.0
 11
1238.5
 21
641.181091
 31
0.0
  0
ARC
  5
2AA
100
AcDbEntity
  8
001
  6
CONTINUOUS
 62
     7
100
AcDbCircle
 10
1224.5
 20
634.181091
 30
0.0
 40
7.0
100
AcDbArc
 50
90.0
 51
180.0
  0
LINE
  5
2AB
100
AcDbEntity
  8
001
  6
CONTINUOUS
 62
     7
100
AcDbLine
 10
1212.935791
 20
610.901978
 30
0.0
 11
1156.234009
 21
605.941223
 31
0.0
  0
ARC
  5
2AC
100
AcDbEntity
  8
001
  6
CONTINUOUS
 62
     7
100
AcDbCircle
 10
1212.5
 20
615.88295
 30
0.0
 40
5.0
100
AcDbArc
 50
275.000142
 51
0.0
  0
ARC
  5
2AD
100
AcDbEntity
  8
001
  6
CONTINUOUS
 62
     7
100
AcDbCircle
 10
1158.50001
 20
580.040157
 30
0.0
 40
26.0
100
AcDbArc
 50
94.999894
 51
136.680513
  0
LINE
  5
2AE
100
AcDbEntity
  8
001
  6
CONTINUOUS
 62
     7
100
AcDbLine
 10
1078.964722
 20
582.181091
 30
0.0
 11
1103.206909
 21
582.181091
 31
0.0
  0
ARC
  5
2AF
100
AcDbEntity
  8
001
  6
CONTINUOUS
 62
     7
100
AcDbCircle
 10
1103.206946
 20
632.181091
 30
0.0
 40
50.0
100
AcDbArc
 50
269.999958
 51
316.680622
  0
ARC
  5
2B0
100
AcDbEntity
  8
001
  6
CONTINUOUS
 62
     7
100
AcDbCircle
 10
1078.964749
 20
592.181091
 30
0.0
 40
10.0
100
AcDbArc
 50
167.500167
 51
269.999846
  0
CIRCLE
  5
2B1
100
AcDbEntity
  8
001
  6
CONTINUOUS
 62
     7
100
AcDbCircle
 10
1713.5
 20
472.181091
 30
0.0
 40
100.0
  0
CIRCLE
  5
2B2
100
AcDbEntity
  8
001
  6
CONTINUOUS
 62
     7
100
AcDbCircle
 10
1713.5
 20
472.181091
 30
0.0
 40
111.75
  0
CIRCLE
  5
2B3
100
AcDbEntity
  8
001
  6
CONTINUOUS
 62
     7
100
AcDbCircle
 10
1713.5
 20
472.181091
 30
0.0
 40
115.409576
  0
CIRCLE
  5
2B4
100
AcDbEntity
  8
001
  6
CONTINUOUS
 62
     7
100
AcDbCircle
 10
1713.5
 20
472.181091
 30
0.0
 40
127.0
  0
LINE
  5
2B5
100
AcDbEntity
  8
001
  6
CONTINUOUS
 62
     7
100
AcDbLine
 10
1224.5
 20
303.181091
 30
0.0
 11
1238.5
 21
303.181091
 31
0.0
  0
ARC
  5
2B6
100
AcDbEntity
  8
001
  6
CONTINUOUS
 62
     7
100
AcDbCircle
 10
1224.5
 20
310.181091
 30
0.0
 40
7.0
100
AcDbArc
 50
180.0
 51
270.0
  0
LINE
  5
2B7
100
AcDbEntity
  8
001
  6
CONTINUOUS
 62
     7
100
AcDbLine
 10
1212.935791
 20
333.460205
 30
0.0
 11
1156.234009
 21
338.420959
 31
0.0
  0
ARC
  5
2B8
100
AcDbEntity
  8
001
  6
CONTINUOUS
 62
     7
100
AcDbCircle
 10
1212.5
 20
328.479233
 30
0.0
 40
5.0
100
AcDbArc
 50
0.0
 51
84.999858
  0
ARC
  5
2B9
100
AcDbEntity
  8
001
  6
CONTINUOUS
 62
     7
100
AcDbCircle
 10
1158.500042
 20
364.322023
 30
0.0
 40
26.0
100
AcDbArc
 50
223.319386
 51
265.000036
  0
ARC
  5
2BA
100
AcDbEntity
  8
001
  6
CONTINUOUS
 62
     7
100
AcDbCircle
 10
1103.206975
 20
312.181091
 30
0.0
 40
50.0
100
AcDbArc
 50
43.319426
 51
90.000075
  0
LINE
  5
2BB
100
AcDbEntity
  8
001
  6
CONTINUOUS
 62
     7
100
AcDbLine
 10
1238.5
 20
303.181091
 30
0.0
 11
1238.5
 21
641.181091
 31
0.0
  0
LINE
  5
2BC
100
AcDbEntity
  8
001
  6
CONTINUOUS
 62
     7
100
AcDbLine
 10
1217.5
 20
634.181091
 30
0.0
 11
1217.5
 21
310.181091
 31
0.0
  0
LINE
  5
2BD
100
AcDbEntity
  8
001
  6
CONTINUOUS
 62
     7
100
AcDbLine
 10
1145.155273
 20
588.86731
 30
0.0
 11
1145.155273
 21
355.494873
 31
0.0
  0
ARC
  5
2BE
100
AcDbEntity
  8
001
  6
CONTINUOUS
 62
     7
100
AcDbCircle
 10
928.035557
 20
592.181091
 30
0.0
 40
10.0
100
AcDbArc
 50
269.999805
 51
12.499833
  0
CIRCLE
  5
2BF
100
AcDbEntity
  8
001
  6
CONTINUOUS
 62
     7
100
AcDbCircle
 10
1640.5
 20
598.620789
 30
0.0
 40
11.5
  0
CIRCLE
  5
2C0
100
AcDbEntity
  8
001
  6
CONTINUOUS
 62
     7
100
AcDbCircle
 10
1786.5
 20
598.620789
 30
0.0
 40
11.5
  0
CIRCLE
  5
2C1
100
AcDbEntity
  8
001
  6
CONTINUOUS
 62
     7
100
AcDbCircle
 10
1859.5
 20
472.181091
 30
0.0
 40
11.5
  0
CIRCLE
  5
2C2
100
AcDbEntity
  8
001
  6
CONTINUOUS
 62
     7
100
AcDbCircle
 10
1786.5
 20
345.741394
 30
0.0
 40
11.5
  0
CIRCLE
  5
2C3
100
AcDbEntity
  8
001
  6
CONTINUOUS
 62
     7
100
AcDbCircle
 10
1640.5
 20
345.741394
 30
0.0
 40
11.5
  0
CIRCLE
  5
2C4
100
AcDbEntity
  8
001
  6
CONTINUOUS
 62
     7
100
AcDbCircle
 10
1567.5
 20
472.181091
 30
0.0
 40
11.5
  0
LINE
  5
2C5
100
AcDbEntity
  8
001
  6
CONTINUOUS
 62
     7
100
AcDbLine
 10
1224.5
 20
1296.18103
 30
0.0
 11
1238.5
 21
1296.18103
 31
0.0
  0
ARC
  5
2C6
100
AcDbEntity
  8
001
  6
CONTINUOUS
 62
     7
100
AcDbCircle
 10
1224.5
 20
1303.18103
 30
0.0
 40
7.0
100
AcDbArc
 50
180.0
 51
270.0
  0
LINE
  5
2C7
100
AcDbEntity
  8
001
  6
CONTINUOUS
 62
     7
100
AcDbLine
 10
1212.935791
 20
1326.460083
 30
0.0
 11
1156.234009
 21
1331.420898
 31
0.0
  0
ARC
  5
2C8
100
AcDbEntity
  8
001
  6
CONTINUOUS
 62
     7
100
AcDbCircle
 10
1212.5
 20
1321.479111
 30
0.0
 40
5.0
100
AcDbArc
 50
0.000176
 51
84.999858
  0
ARC
  5
2C9
100
AcDbEntity
  8
001
  6
CONTINUOUS
 62
     7
100
AcDbCircle
 10
1158.50001
 20
1357.321965
 30
0.0
 40
26.0
100
AcDbArc
 50
223.319487
 51
265.000106
  0
ARC
  5
2CA
100
AcDbEntity
  8
001
  6
CONTINUOUS
 62
     7
100
AcDbCircle
 10
1103.206917
 20
1305.181061
 30
0.0
 40
50.0
100
AcDbArc
 50
43.31933
 51
85.358536
  0
LINE
  5
2CB
100
AcDbEntity
  8
001
  6
CONTINUOUS
 62
     7
100
AcDbLine
 10
1238.5
 20
1634.18103
 30
0.0
 11
1238.5
 21
1296.18103
 31
0.0
  0
LINE
  5
2CC
100
AcDbEntity
  8
001
  6
CONTINUOUS
 62
     7
100
AcDbLine
 10
1217.5
 20
1303.18103
 30
0.0
 11
1217.5
 21
1627.18103
 31
0.0
  0
LINE
  5
2CD
100
AcDbEntity
  8
001
  6
CONTINUOUS
 62
     7
100
AcDbLine
 10
1145.155273
 20
1348.494873
 30
0.0
 11
1145.155273
 21
1581.867188
 31
0.0
  0
LINE
  5
2CE
100
AcDbEntity
  8
001
  6
CONTINUOUS
 62
     7
100
AcDbLine
 10
1224.5
 20
1634.18103
 30
0.0
 11
1238.5
 21
1634.18103
 31
0.0
  0
ARC
  5
2CF
100
AcDbEntity
  8
001
  6
CONTINUOUS
 62
     7
100
AcDbCircle
 10
1224.5
 20
1627.18103
 30
0.0
 40
7.0
100
AcDbArc
 50
90.0
 51
180.0
  0
LINE
  5
2D0
100
AcDbEntity
  8
001
  6
CONTINUOUS
 62
     7
100
AcDbLine
 10
1212.935791
 20
1603.901978
 30
0.0
 11
1156.234009
 21
1598.941162
 31
0.0
  0
ARC
  5
2D1
100
AcDbEntity
  8
001
  6
CONTINUOUS
 62
     7
100
AcDbCircle
 10
1212.5
 20
1608.88295
 30
0.0
 40
5.0
100
AcDbArc
 50
275.000142
 51
0.0
  0
ARC
  5
2D2
100
AcDbEntity
  8
001
  6
CONTINUOUS
 62
     7
100
AcDbCircle
 10
1158.50001
 20
1573.040096
 30
0.0
 40
26.0
100
AcDbArc
 50
94.999894
 51
136.680513
  0
ARC
  5
2D3
100
AcDbEntity
  8
001
  6
CONTINUOUS
 62
     7
100
AcDbCircle
 10
1103.206917
 20
1625.181
 30
0.0
 40
50.0
100
AcDbArc
 50
274.641464
 51
316.68067
  0
LINE
  5
2D4
100
AcDbEntity
  8
001
  6
CONTINUOUS
 62
     7
100
AcDbLine
 10
1801.5
 20
303.181091
 30
0.0
 11
1625.5
 21
303.181091
 31
0.0
  0
LINE
  5
2D5
100
AcDbEntity
  8
001
  6
CONTINUOUS
 62
     7
100
AcDbLine
 10
895.5
 20
303.181091
 30
0.0
 11
906.5
 21
303.181091
 31
0.0
  0
LINE
  5
2D6
100
AcDbEntity
  8
001
  6
CONTINUOUS
 62
     7
100
AcDbLine
 10
1623.5
 20
305.181091
 30
0.0
 11
1623.5
 21
328.038788
 31
0.0
  0
LINE
  5
2D7
100
AcDbEntity
  8
001
  6
CONTINUOUS
 62
     7
100
AcDbLine
 10
1803.5
 20
328.038788
 30
0.0
 11
1803.5
 21
305.181091
 31
0.0
  0
ARC
  5
2D8
100
AcDbEntity
  8
001
  6
CONTINUOUS
 62
     7
100
AcDbCircle
 10
1621.5
 20
328.038813
 30
0.0
 40
2.0
100
AcDbArc
 50
0.0
 51
57.450714
  0
ARC
  5
2D9
100
AcDbEntity
  8
001
  6
CONTINUOUS
 62
     7
100
AcDbCircle
 10
1713.5
 20
472.181103
 30
0.0
 40
169.0
100
AcDbArc
 50
302.548378
 51
237.451622
  0
ARC
  5
2DA
100
AcDbEntity
  8
001
  6
CONTINUOUS
 62
     7
100
AcDbCircle
 10
1625.5
 20
305.181091
 30
0.0
 40
2.0
100
AcDbArc
 50
180.0
 51
270.0
  0
ARC
  5
2DB
100
AcDbEntity
  8
001
  6
CONTINUOUS
 62
     7
100
AcDbCircle
 10
1801.5
 20
305.181091
 30
0.0
 40
2.0
100
AcDbArc
 50
270.0
 51
0.0
  0
ARC
  5
2DC
100
AcDbEntity
  8
001
  6
CONTINUOUS
 62
     7
100
AcDbCircle
 10
1805.5
 20
328.038813
 30
0.0
 40
2.0
100
AcDbArc
 50
122.549286
 51
180.000707
  0
LINE
  5
2DD
100
AcDbEntity
  8
001
  6
CONTINUOUS
 62
     7
100
AcDbLine
 10
893.5
 20
405.935547
 30
0.0
 11
893.5
 21
305.181091
 31
0.0
  0
LINE
  5
2DE
100
AcDbEntity
  8
001
  6
CONTINUOUS
 62
     7
100
AcDbLine
 10
908.5
 20
405.935547
 30
0.0
 11
908.5
 21
305.181091
 31
0.0
  0
ARC
  5
2DF
100
AcDbEntity
  8
001
  6
CONTINUOUS
 62
     7
100
AcDbCircle
 10
906.5
 20
305.181091
 30
0.0
 40
2.0
100
AcDbArc
 50
270.0
 51
0.0
  0
ARC
  5
2E0
100
AcDbEntity
  8
001
  6
CONTINUOUS
 62
     7
100
AcDbCircle
 10
895.5
 20
305.181091
 30
0.0
 40
2.0
100
AcDbArc
 50
180.0
 51
270.0
  0
LINE
  5
2E1
100
AcDbEntity
  8
001
  6
CONTINUOUS
 62
     7
100
AcDbLine
 10
911.5
 20
362.181091
 30
0.0
 11
1103.206909
 21
362.181091
 31
0.0
  0
ARC
  5
2E2
100
AcDbEntity
  8
001
  6
CONTINUOUS
 62
     7
100
AcDbCircle
 10
911.5
 20
359.181091
 30
0.0
 40
3.0
100
AcDbArc
 50
90.0
 51
180.0
  0
ARC
  5
2E3
100
AcDbEntity
  8
001
  6
CONTINUOUS
 62
     7
100
AcDbCircle
 10
890.5
 20
359.181091
 30
0.0
 40
3.0
100
AcDbArc
 50
0.0
 51
90.0
  0
ARC
  5
2E4
100
AcDbEntity
  8
001
  6
CONTINUOUS
 62
     7
100
AcDbCircle
 10
911.5
 20
405.935547
 30
0.0
 40
3.0
100
AcDbArc
 50
90.0
 51
180.0
  0
LINE
  5
2E5
100
AcDbEntity
  8
001
  6
CONTINUOUS
 62
     7
100
AcDbLine
 10
908.5
 20
408.935547
 30
0.0
 11
893.5
 21
408.935547
 31
0.0
  0
ARC
  5
2E6
100
AcDbEntity
  8
001
  6
CONTINUOUS
 62
     7
100
AcDbCircle
 10
890.5
 20
405.935547
 30
0.0
 40
3.0
100
AcDbArc
 50
0.0
 51
90.0
  0
LINE
  5
2E7
100
AcDbEntity
  8
001
  6
CONTINUOUS
 62
     7
100
AcDbLine
 10
1235.5
 20
329.13913
 30
0.0
 11
1220.5
 21
329.13913
 31
0.0
  0
LINE
  5
2E8
100
AcDbEntity
  8
001
  6
CONTINUOUS
 62
     3
100
AcDbLine
 10
1956.0
 20
96.0
 30
0.0
 11
2430.0
 21
96.0
 31
0.0
  0
LINE
  5
2E9
100
AcDbEntity
  8
001
  6
CONTINUOUS
 62
     2
100
AcDbLine
 10
2430.0
 20
60.0
 30
0.0
 11
1956.0
 21
60.0
 31
0.0
  0
LINE
  5
2EA
100
AcDbEntity
  8
001
  6
CONTINUOUS
 62
     2
100
AcDbLine
 10
2430.0
 20
213.0
 30
0.0
 11
2430.0
 21
60.0
 31
0.0
  0
LINE
  5
2EB
100
AcDbEntity
  8
001
  6
CONTINUOUS
 62
     2
100
AcDbLine
 10
1956.0
 20
213.0
 30
0.0
 11
2430.0
 21
213.0
 31
0.0
  0
LINE
  5
2EC
100
AcDbEntity
  8
001
  6
CONTINUOUS
 62
     2
100
AcDbLine
 10
1956.0
 20
213.0
 30
0.0
 11
1956.0
 21
60.0
 31
0.0
  0
LINE
  5
2ED
100
AcDbEntity
  8
001
  6
CONTINUOUS
 62
     7
100
AcDbLine
 10
458.5
 20
582.181091
 30
0.0
 11
928.035522
 21
582.181091
 31
0.0
  0
LINE
  5
2EE
100
AcDbEntity
  8
001
  6
CONTINUOUS
 62
     7
100
AcDbLine
 10
458.5
 20
362.181091
 30
0.0
 11
890.5
 21
362.181091
 31
0.0
  0
LINE
  5
2EF
100
AcDbEntity
  8
001
  6
CONTINUOUS
 62
     7
100
AcDbLine
 10
458.5
 20
1575.18103
 30
0.0
 11
899.698792
 21
1575.18103
 31
0.0
  0
LINE
  5
2F0
100
AcDbEntity
  8
001
  6
CONTINUOUS
 62
     7
100
AcDbLine
 10
458.5
 20
1355.18103
 30
0.0
 11
899.698792
 21
1355.18103
 31
0.0
  0
LINE
  5
2F1
100
AcDbEntity
  8
001
  6
CONTINUOUS
 62
     7
100
AcDbLine
 10
458.5
 20
362.181091
 30
0.0
 11
458.5
 21
582.181091
 31
0.0
  0
LINE
  5
2F2
100
AcDbEntity
  8
001
  6
CONTINUOUS
 62
     7
100
AcDbLine
 10
458.5
 20
1355.18103
 30
0.0
 11
458.5
 21
1575.18103
 31
0.0
  0
LINE
  5
2F3
100
AcDbEntity
  8
001
  6
DASHDOT
 62
     1
100
AcDbLine
 10
1899.5
 20
472.181091
 30
0.0
 11
1527.5
 21
472.181091
 31
0.0
  0
LINE
  5
2F4
100
AcDbEntity
  8
001
  6
DASHDOT
 62
     1
100
AcDbLine
 10
1704.495605
 20
917.181213
 30
0.0
 11
1686.0
 21
917.181213
 31
0.0
  0
LINE
  5
2F5
100
AcDbEntity
  8
001
  6
DASHDOT
 62
     1
100
AcDbLine
 10
1003.5
 20
1271.849121
 30
0.0
 11
1003.5
 21
1658.936035
 31
0.0
  0
LINE
  5
2F6
100
AcDbEntity
  8
001
  6
DASHDOT
 62
     1
100
AcDbLine
 10
1114.434204
 20
1410.150635
 30
0.0
 11
1076.541138
 21
1412.999634
 31
0.0
  0
LINE
  5
2F7
100
AcDbEntity
  8
001
  6
DASHDOT
 62
     1
100
AcDbLine
 10
1114.434204
 20
1520.211426
 30
0.0
 11
1076.541138
 21
1517.362427
 31
0.0
  0
LINE
  5
2F8
100
AcDbEntity
  8
001
  6
DASHDOT
 62
     1
100
AcDbLine
 10
892.565796
 20
1520.211426
 30
0.0
 11
930.458862
 21
1517.362427
 31
0.0
  0
ARC
  5
2F9
100
AcDbEntity
  8
001
  6
DASHDOT
 62
     1
100
AcDbCircle
 10
1022.84765
 20
1379.911971
 30
0.0
 40
70.0
100
AcDbArc
 50
281.632634
 51
314.485383
  0
LINE
  5
2FA
100
AcDbEntity
  8
001
  6
DASHDOT
 62
     1
100
AcDbLine
 10
1064.241089
 20
1302.255127
 30
0.0
 11
1046.366699
 21
1335.788696
 31
0.0
  0
LINE
  5
2FB
100
AcDbEntity
  8
001
  6
DASHDOT
 62
     1
100
AcDbLine
 10
942.758789
 20
1302.255127
 30
0.0
 11
960.633179
 21
1335.788696
 31
0.0
  0
ARC
  5
2FC
100
AcDbEntity
  8
001
  6
DASHDOT
 62
     1
100
AcDbCircle
 10
984.152353
 20
1379.911848
 30
0.0
 40
70.0
100
AcDbArc
 50
225.514474
 51
258.367364
  0
ARC
  5
2FD
100
AcDbEntity
  8
001
  6
DASHDOT
 62
     1
100
AcDbCircle
 10
1624.499911
 20
1465.181458
 30
0.0
 40
716.0
100
AcDbArc
 50
182.699237
 51
185.900214
  0
ARC
  5
2FE
100
AcDbEntity
  8
001
  6
DASHDOT
 62
     1
100
AcDbCircle
 10
1624.499911
 20
1465.180602
 30
0.0
 40
716.0
100
AcDbArc
 50
174.099786
 51
177.300763
  0
LINE
  5
2FF
100
AcDbEntity
  8
001
  6
DASHDOT
 62
     1
100
AcDbLine
 10
942.758789
 20
1628.106934
 30
0.0
 11
960.633179
 21
1594.573364
 31
0.0
  0
ARC
  5
300
100
AcDbEntity
  8
001
  6
DASHDOT
 62
     1
100
AcDbCircle
 10
984.152353
 20
1550.450212
 30
0.0
 40
70.0
100
AcDbArc
 50
101.632636
 51
134.485526
  0
LINE
  5
301
100
AcDbEntity
  8
001
  6
DASHDOT
 62
     1
100
AcDbLine
 10
1064.241089
 20
1628.106934
 30
0.0
 11
1046.366699
 21
1594.573364
 31
0.0
  0
ARC
  5
302
100
AcDbEntity
  8
001
  6
DASHDOT
 62
     1
100
AcDbCircle
 10
1022.84765
 20
1550.45009
 30
0.0
 40
70.0
100
AcDbArc
 50
45.514617
 51
78.367366
  0
ARC
  5
303
100
AcDbEntity
  8
001
  6
DASHDOT
 62
     1
100
AcDbCircle
 10
382.499967
 20
1465.180602
 30
0.0
 40
716.0
100
AcDbArc
 50
2.699237
 51
5.900214
  0
ARC
  5
304
100
AcDbEntity
  8
001
  6
DASHDOT
 62
     1
100
AcDbCircle
 10
382.499967
 20
1465.181458
 30
0.0
 40
716.0
100
AcDbArc
 50
354.099786
 51
357.300763
  0
LINE
  5
305
100
AcDbEntity
  8
001
  6
DASHDOT
 62
     1
100
AcDbLine
 10
1860.541626
 20
769.181091
 30
0.0
 11
1860.541626
 21
684.181091
 31
0.0
  0
LINE
  5
306
100
AcDbEntity
  8
001
  6
DASHDOT
 62
     1
100
AcDbLine
 10
1767.180908
 20
769.181091
 30
0.0
 11
1767.180908
 21
684.181091
 31
0.0
  0
LINE
  5
307
100
AcDbEntity
  8
001
  6
DASHDOT
 62
     1
100
AcDbLine
 10
1659.819092
 20
769.181091
 30
0.0
 11
1659.819092
 21
684.181091
 31
0.0
  0
LINE
  5
308
100
AcDbEntity
  8
001
  6
DASHDOT
 62
     1
100
AcDbLine
 10
1566.458374
 20
769.181091
 30
0.0
 11
1566.458374
 21
684.181091
 31
0.0
  0
LINE
  5
309
100
AcDbEntity
  8
001
  6
DASHDOT
 62
     1
100
AcDbLine
 10
1096.484863
 20
770.697266
 30
0.0
 11
1096.484863
 21
683.776123
 31
0.0
  0
LINE
  5
30A
100
AcDbEntity
  8
001
  6
DASHDOT
 62
     1
100
AcDbLine
 10
1055.774292
 20
770.697266
 30
0.0
 11
1055.774292
 21
683.776123
 31
0.0
  0
LINE
  5
30B
100
AcDbEntity
  8
001
  6
DASHDOT
 62
     1
100
AcDbLine
 10
951.225586
 20
770.697266
 30
0.0
 11
951.225586
 21
683.776123
 31
0.0
  0
LINE
  5
30C
100
AcDbEntity
  8
001
  6
DASHDOT
 62
     1
100
AcDbLine
 10
910.515137
 20
770.697266
 30
0.0
 11
910.515137
 21
683.776123
 31
0.0
  0
LINE
  5
30D
100
AcDbEntity
  8
001
  6
DASHDOT
 62
     1
100
AcDbLine
 10
994.865234
 20
917.181213
 30
0.0
 11
1011.583496
 21
917.181213
 31
0.0
  0
LINE
  5
30E
100
AcDbEntity
  8
001
  6
DASHDOT
 62
     1
100
AcDbLine
 10
1713.5
 20
1009.018372
 30
0.0
 11
1713.5
 21
276.063965
 31
0.0
  0
LINE
  5
30F
100
AcDbEntity
  8
001
  6
DASHDOT
 62
     1
100
AcDbLine
 10
1003.5
 20
1009.018372
 30
0.0
 11
1003.5
 21
341.851746
 31
0.0
  0
LINE
  5
310
100
AcDbEntity
  8
001
  6
DASHDOT
 62
     1
100
AcDbLine
 10
892.565796
 20
1410.150635
 30
0.0
 11
930.458862
 21
1412.999634
 31
0.0
  0
LINE
  5
311
100
AcDbEntity
  8
001
  6
DASHDOT
 62
     1
100
AcDbLine
 10
1268.5
 20
472.181091
 30
0.0
 11
428.5
 21
472.181091
 31
0.0
  0
LINE
  5
312
100
AcDbEntity
  8
001
  6
DASHDOT
 62
     1
100
AcDbLine
 10
1253.5
 20
618.181091
 30
0.0
 11
1202.5
 21
618.181091
 31
0.0
  0
CIRCLE
  5
313
100
AcDbEntity
  8
001
  6
DASHDOT
 62
     1
100
AcDbCircle
 10
1713.5
 20
472.181091
 30
0.0
 40
146.0
  0
LINE
  5
314
100
AcDbEntity
  8
001
  6
DASHDOT
 62
     1
100
AcDbLine
 10
1253.5
 20
326.181091
 30
0.0
 11
1202.5
 21
326.181091
 31
0.0
  0
LINE
  5
315
100
AcDbEntity
  8
001
  6
DASHDOT
 62
     1
100
AcDbLine
 10
1650.0
 20
582.166321
 30
0.0
 11
1631.0
 21
615.075256
 31
0.0
  0
LINE
  5
316
100
AcDbEntity
  8
001
  6
DASHDOT
 62
     1
100
AcDbLine
 10
1777.0
 20
582.166321
 30
0.0
 11
1796.0
 21
615.075256
 31
0.0
  0
LINE
  5
317
100
AcDbEntity
  8
001
  6
DASHDOT
 62
     1
100
AcDbLine
 10
1777.0
 20
362.195862
 30
0.0
 11
1796.0
 21
329.286896
 31
0.0
  0
LINE
  5
318
100
AcDbEntity
  8
001
  6
DASHDOT
 62
     1
100
AcDbLine
 10
1650.0
 20
362.195862
 30
0.0
 11
1631.0
 21
329.286896
 31
0.0
  0
LINE
  5
319
100
AcDbEntity
  8
001
  6
DASHDOT
 62
     1
100
AcDbLine
 10
1268.5
 20
1465.18103
 30
0.0
 11
428.5
 21
1465.18103
 31
0.0
  0
LINE
  5
31A
100
AcDbEntity
  8
001
  6
DASHDOT
 62
     1
100
AcDbLine
 10
1253.5
 20
1319.18103
 30
0.0
 11
1202.5
 21
1319.18103
 31
0.0
  0
LINE
  5
31B
100
AcDbEntity
  8
001
  6
DASHDOT
 62
     1
100
AcDbLine
 10
1253.5
 20
1611.18103
 30
0.0
 11
1202.5
 21
1611.18103
 31
0.0
  0
CIRCLE
  5
31C
100
AcDbEntity
  8
001
  6
CONTINUOUS
 62
     1
100
AcDbCircle
 10
1055.774292
 20
1612.222534
 30
0.0
 40
6.92
  0
CIRCLE
  5
31D
100
AcDbEntity
  8
001
  6
CONTINUOUS
 62
     1
100
AcDbCircle
 10
1096.484863
 20
1518.861938
 30
0.0
 40
6.92
  0
CIRCLE
  5
31E
100
AcDbEntity
  8
001
  6
CONTINUOUS
 62
     1
100
AcDbCircle
 10
951.225586
 20
1612.222534
 30
0.0
 40
6.92
  0
CIRCLE
  5
31F
100
AcDbEntity
  8
001
  6
CONTINUOUS
 62
     1
100
AcDbCircle
 10
910.515137
 20
1518.861938
 30
0.0
 40
6.92
  0
CIRCLE
  5
320
100
AcDbEntity
  8
001
  6
CONTINUOUS
 62
     1
100
AcDbCircle
 10
910.515137
 20
1411.500122
 30
0.0
 40
6.92
  0
CIRCLE
  5
321
100
AcDbEntity
  8
001
  6
CONTINUOUS
 62
     1
100
AcDbCircle
 10
1096.484863
 20
1411.500122
 30
0.0
 40
6.92
  0
CIRCLE
  5
322
100
AcDbEntity
  8
001
  6
CONTINUOUS
 62
     1
100
AcDbCircle
 10
1055.774292
 20
1318.139404
 30
0.0
 40
6.92
  0
CIRCLE
  5
323
100
AcDbEntity
  8
001
  6
CONTINUOUS
 62
     1
100
AcDbCircle
 10
951.225586
 20
1318.139404
 30
0.0
 40
6.92
  0
LINE
  5
324
100
AcDbEntity
  8
001
  6
CONTINUOUS
 62
     1
100
AcDbLine
 10
1003.5
 20
965.181213
 30
0.0
 11
1019.776123
 21
940.888611
 31
0.0
  0
LINE
  5
325
100
AcDbEntity
  8
001
  6
CONTINUOUS
 62
     1
100
AcDbLine
 10
1003.5
 20
965.181213
 30
0.0
 11
1020.25
 21
990.181091
 31
0.0
  0
CIRCLE
  5
326
100
AcDbEntity
  8
001
  6
CONTINUOUS
 62
     1
100
AcDbCircle
 10
1003.5
 20
917.181213
 30
0.0
 40
4.19
  0
LINE
  5
327
100
AcDbEntity
  8
001
  6
CONTINUOUS
 62
     1
100
AcDbLine
 10
903.595215
 20
762.708923
 30
0.0
 11
903.595215
 21
755.181213
 31
0.0
  0
LINE
  5
328
100
AcDbEntity
  8
001
  6
CONTINUOUS
 62
     1
100
AcDbLine
 10
917.435303
 20
762.708923
 30
0.0
 11
917.435303
 21
755.181213
 31
0.0
  0
LINE
  5
329
100
AcDbEntity
  8
001
  6
CONTINUOUS
 62
     1
100
AcDbLine
 10
944.305664
 20
762.708923
 30
0.0
 11
944.305664
 21
755.181213
 31
0.0
  0
LINE
  5
32A
100
AcDbEntity
  8
001
  6
CONTINUOUS
 62
     1
100
AcDbLine
 10
958.145752
 20
762.708923
 30
0.0
 11
958.145752
 21
755.181213
 31
0.0
  0
LINE
  5
32B
100
AcDbEntity
  8
001
  6
CONTINUOUS
 62
     1
100
AcDbLine
 10
1048.85437
 20
762.708923
 30
0.0
 11
1048.85437
 21
755.181213
 31
0.0
  0
LINE
  5
32C
100
AcDbEntity
  8
001
  6
CONTINUOUS
 62
     1
100
AcDbLine
 10
1062.694458
 20
762.708923
 30
0.0
 11
1062.694458
 21
755.181213
 31
0.0
  0
LINE
  5
32D
100
AcDbEntity
  8
001
  6
CONTINUOUS
 62
     1
100
AcDbLine
 10
1089.564941
 20
762.708923
 30
0.0
 11
1089.564941
 21
755.181213
 31
0.0
  0
LINE
  5
32E
100
AcDbEntity
  8
001
  6
CONTINUOUS
 62
     1
100
AcDbLine
 10
1103.405029
 20
762.708923
 30
0.0
 11
1103.405029
 21
755.181213
 31
0.0
  0
LINE
  5
32F
100
AcDbEntity
  8
001
  6
CONTINUOUS
 62
     1
100
AcDbLine
 10
1559.538452
 20
762.708923
 30
0.0
 11
1559.538452
 21
755.181213
 31
0.0
  0
LINE
  5
330
100
AcDbEntity
  8
001
  6
CONTINUOUS
 62
     1
100
AcDbLine
 10
1573.378418
 20
762.708923
 30
0.0
 11
1573.378418
 21
755.181213
 31
0.0
  0
LINE
  5
331
100
AcDbEntity
  8
001
  6
CONTINUOUS
 62
     1
100
AcDbLine
 10
1652.89917
 20
762.708923
 30
0.0
 11
1652.89917
 21
755.181213
 31
0.0
  0
LINE
  5
332
100
AcDbEntity
  8
001
  6
CONTINUOUS
 62
     1
100
AcDbLine
 10
1666.739014
 20
762.708923
 30
0.0
 11
1666.739014
 21
755.181213
 31
0.0
  0
LINE
  5
333
100
AcDbEntity
  8
001
  6
CONTINUOUS
 62
     1
100
AcDbLine
 10
1760.260986
 20
762.708923
 30
0.0
 11
1760.260986
 21
755.181213
 31
0.0
  0
LINE
  5
334
100
AcDbEntity
  8
001
  6
CONTINUOUS
 62
     1
100
AcDbLine
 10
1774.10083
 20
762.708923
 30
0.0
 11
1774.10083
 21
755.181213
 31
0.0
  0
LINE
  5
335
100
AcDbEntity
  8
001
  6
CONTINUOUS
 62
     1
100
AcDbLine
 10
1853.621582
 20
762.708923
 30
0.0
 11
1853.621582
 21
755.181213
 31
0.0
  0
LINE
  5
336
100
AcDbEntity
  8
001
  6
CONTINUOUS
 62
     1
100
AcDbLine
 10
1867.461548
 20
762.708923
 30
0.0
 11
1867.461548
 21
755.181213
 31
0.0
  0
LINE
  5
337
100
AcDbEntity
  8
001
  6
CONTINUOUS
 62
     1
100
AcDbLine
 10
1696.75
 20
990.181091
 30
0.0
 11
1713.5
 21
965.181213
 31
0.0
  0
LINE
  5
338
100
AcDbEntity
  8
001
  6
CONTINUOUS
 62
     1
100
AcDbLine
 10
1697.223877
 20
940.888611
 30
0.0
 11
1713.5
 21
965.181213
 31
0.0
  0
TEXT
  5
339
100
AcDbEntity
  8
001
 62
     3
100
AcDbText
 10
1968.0
 20
174.0
 30
0.0
 40
27.0
  1
ＪＷＷＡ　Ｂ　１２０準拠　%%c２００
 41
0.670045
 72
     5
 11
2325.0
 21
174.0
 31
0.0
100
AcDbText
  0
TEXT
  5
33A
100
AcDbEntity
  8
001
 62
     3
100
AcDbText
 10
1968.0
 20
138.0
 30
0.0
 40
30.0
  1
浅層埋設対応型　ソフトシール仕切弁
 41
0.675497
 72
     5
 11
2376.0
 21
138.0
 31
0.0
100
AcDbText
  0
TEXT
  5
33B
100
AcDbEntity
  8
001
 62
     3
100
AcDbText
 10
1968.0
 20
108.0
 30
0.0
 40
24.0
  1
Ｋ形受挿し
 41
0.78125
 72
     5
 11
2073.0
 21
108.0
 31
0.0
100
AcDbText
  0
LINE
  5
33E
100
AcDbEntity
  8
001
  6
CONTINUOUS
 62
     7
100
AcDbLine
 10
1028.5
 20
938.181091
 30
0.0
 11
1028.5
 21
911.181152
 31
0.0
  0
LINE
  5
33F
100
AcDbEntity
  8
001
  6
CONTINUOUS
 62
     7
100
AcDbLine
 10
978.5
 20
938.181091
 30
0.0
 11
978.5
 21
911.181152
 31
0.0
  0
LINE
  5
340
100
AcDbEntity
  8
001
  6
CONTINUOUS
 62
     7
100
AcDbLine
 10
1022.544978
 20
939.181091
 30
0.0
 11
1020.25
 21
990.181091
 31
0.0
  0
LINE
  5
342
100
AcDbEntity
  8
001
  6
CONTINUOUS
 62
     7
100
AcDbLine
 10
1738.5
 20
938.181091
 30
0.0
 11
1738.5
 21
905.181213
 31
0.0
  0
LINE
  5
343
100
AcDbEntity
  8
001
  6
CONTINUOUS
 62
     7
100
AcDbLine
 10
1688.5
 20
938.181091
 30
0.0
 11
1688.5
 21
905.181213
 31
0.0
  0
LINE
  5
344
100
AcDbEntity
  8
001
  6
CONTINUOUS
 62
     7
100
AcDbLine
 10
1694.454957
 20
939.181091
 30
0.0
 11
1696.75
 21
990.181091
 31
0.0
  0
CIRCLE
  5
348
100
AcDbEntity
  8
001
  6
CONTINUOUS
 62
     7
100
AcDbCircle
 10
1003.499878
 20
1465.180908
 30
0.0
 40
40.0
  0
ARC
  5
349
100
AcDbEntity
  8
001
  6
CONTINUOUS
 62
     7
100
AcDbCircle
 10
1003.499853
 20
1465.181043
 30
0.0
 40
35.0
100
AcDbArc
 50
315.000155
 51
59.584197
  0
LINE
  5
34A
100
AcDbEntity
  8
001
  6
CONTINUOUS
 62
     7
100
AcDbLine
 10
1017.734985
 20
1489.329102
 30
0.0
 11
1013.852661
 21
1503.817993
 31
0.0
  0
LINE
  5
34B
100
AcDbEntity
  8
001
  6
CONTINUOUS
 62
     7
100
AcDbLine
 10
1017.734985
 20
1489.329102
 30
0.0
 11
1021.21936
 21
1495.364258
 31
0.0
  0
ARC
  5
34C
100
AcDbEntity
  8
001
  6
CONTINUOUS
 62
     7
100
AcDbCircle
 10
1003.500031
 20
1465.181021
 30
0.0
 40
35.0
100
AcDbArc
 50
105.000136
 51
209.584353
  0
LINE
  5
34D
100
AcDbEntity
  8
001
  6
CONTINUOUS
 62
     7
100
AcDbLine
 10
994.441284
 20
1498.988403
 30
0.0
 11
993.147217
 21
1503.817993
 31
0.0
  0
LINE
  5
34E
100
AcDbEntity
  8
001
  6
CONTINUOUS
 62
     7
100
AcDbLine
 10
979.0979
 20
1451.38562
 30
0.0
 11
975.215698
 21
1436.896729
 31
0.0
  0
LINE
  5
34F
100
AcDbEntity
  8
001
  6
CONTINUOUS
 62
     7
100
AcDbLine
 10
979.0979
 20
1451.38562
 30
0.0
 11
973.062988
 21
1447.901245
 31
0.0
  0
LINE
  5
350
100
AcDbEntity
  8
001
  6
CONTINUOUS
 62
     7
100
AcDbLine
 10
1028.248657
 20
1440.432251
 30
0.0
 11
1031.78418
 21
1436.896729
 31
0.0
  0
ARC
  5
351
100
AcDbEntity
  8
001
  6
CONTINUOUS
 62
     7
100
AcDbCircle
 10
1003.5
 20
1438.68103
 30
0.0
 40
4.5
100
AcDbArc
 50
0.0
 51
180.0
  0
ARC
  5
352
100
AcDbEntity
  8
001
  6
CONTINUOUS
 62
     7
100
AcDbCircle
 10
1003.5
 20
1438.68103
 30
0.0
 40
2.5
100
AcDbArc
 50
0.0
 51
180.0
  0
ARC
  5
353
100
AcDbEntity
  8
001
  6
CONTINUOUS
 62
     7
100
AcDbCircle
 10
1003.5
 20
1432.68103
 30
0.0
 40
4.5
100
AcDbArc
 50
180.0
 51
0.0
  0
LINE
  5
354
100
AcDbEntity
  8
001
  6
CONTINUOUS
 62
     7
100
AcDbLine
 10
999.0
 20
1432.68103
 30
0.0
 11
999.0
 21
1438.68103
 31
0.0
  0
LINE
  5
355
100
AcDbEntity
  8
001
  6
CONTINUOUS
 62
     7
100
AcDbLine
 10
1008.0
 20
1432.68103
 30
0.0
 11
1008.0
 21
1438.68103
 31
0.0
  0
LINE
  5
356
100
AcDbEntity
  8
001
  6
CONTINUOUS
 62
     7
100
AcDbLine
 10
1001.0
 20
1438.68103
 30
0.0
 11
1001.0
 21
1432.68103
 31
0.0
  0
ARC
  5
357
100
AcDbEntity
  8
001
  6
CONTINUOUS
 62
     7
100
AcDbCircle
 10
1003.5
 20
1432.68103
 30
0.0
 40
2.5
100
AcDbArc
 50
180.0
 51
0.0
  0
LINE
  5
358
100
AcDbEntity
  8
001
  6
CONTINUOUS
 62
     7
100
AcDbLine
 10
1006.0
 20
1432.68103
 30
0.0
 11
1006.0
 21
1438.68103
 31
0.0
  0
LINE
  5
359
100
AcDbEntity
  8
001
  6
CONTINUOUS
 62
     7
100
AcDbLine
 10
1022.5
 20
1448.43103
 30
0.0
 11
1022.5
 21
1481.93103
 31
0.0
  0
LINE
  5
35A
100
AcDbEntity
  8
001
  6
CONTINUOUS
 62
     7
100
AcDbLine
 10
1020.25
 20
1446.18103
 30
0.0
 11
1020.25
 21
1484.18103
 31
0.0
  0
LINE
  5
35B
100
AcDbEntity
  8
001
  6
CONTINUOUS
 62
     7
100
AcDbLine
 10
986.75
 20
1484.18103
 30
0.0
 11
1020.25
 21
1484.18103
 31
0.0
  0
LINE
  5
35C
100
AcDbEntity
  8
001
  6
CONTINUOUS
 62
     7
100
AcDbLine
 10
984.5
 20
1481.93103
 30
0.0
 11
1022.5
 21
1481.93103
 31
0.0
  0
LINE
  5
35D
100
AcDbEntity
  8
001
  6
CONTINUOUS
 62
     7
100
AcDbLine
 10
984.5
 20
1448.43103
 30
0.0
 11
984.5
 21
1481.93103
 31
0.0
  0
LINE
  5
35E
100
AcDbEntity
  8
001
  6
CONTINUOUS
 62
     7
100
AcDbLine
 10
986.75
 20
1446.18103
 30
0.0
 11
986.75
 21
1484.18103
 31
0.0
  0
LINE
  5
35F
100
AcDbEntity
  8
001
  6
CONTINUOUS
 62
     7
100
AcDbLine
 10
986.75
 20
1446.18103
 30
0.0
 11
1020.25
 21
1446.18103
 31
0.0
  0
LINE
  5
360
100
AcDbEntity
  8
001
  6
CONTINUOUS
 62
     7
100
AcDbLine
 10
984.5
 20
1448.43103
 30
0.0
 11
1022.5
 21
1448.43103
 31
0.0
  0
LINE
  5
361
100
AcDbEntity
  8
001
  6
CONTINUOUS
 62
     7
100
AcDbLine
 10
984.5
 20
1448.43103
 30
0.0
 11
986.75
 21
1446.18103
 31
0.0
  0
LINE
  5
362
100
AcDbEntity
  8
001
  6
CONTINUOUS
 62
     7
100
AcDbLine
 10
1020.25
 20
1446.18103
 30
0.0
 11
1022.5
 21
1448.43103
 31
0.0
  0
LINE
  5
363
100
AcDbEntity
  8
001
  6
CONTINUOUS
 62
     7
100
AcDbLine
 10
1022.5
 20
1481.93103
 30
0.0
 11
1020.25
 21
1484.18103
 31
0.0
  0
LINE
  5
364
100
AcDbEntity
  8
001
  6
CONTINUOUS
 62
     7
100
AcDbLine
 10
984.5
 20
1481.93103
 30
0.0
 11
986.75
 21
1484.18103
 31
0.0
  0
ARC
  5
365
100
AcDbEntity
  8
001
  6
CONTINUOUS
 62
     7
100
AcDbCircle
 10
1016.574025
 20
1500.328057
 30
0.0
 40
5.0
100
AcDbArc
 50
69.593916
 51
132.851489
  0
ARC
  5
366
100
AcDbEntity
  8
001
  6
CONTINUOUS
 62
     7
100
AcDbCircle
 10
990.425809
 20
1500.328041
 30
0.0
 40
5.0
100
AcDbArc
 50
47.148784
 51
110.405552
  0
ARC
  5
367
100
AcDbEntity
  8
001
  6
CONTINUOUS
 62
     7
100
AcDbCircle
 10
990.425809
 20
1430.033897
 30
0.0
 40
5.0
100
AcDbArc
 50
249.594448
 51
312.851216
  0
ARC
  5
368
100
AcDbEntity
  8
001
  6
CONTINUOUS
 62
     7
100
AcDbCircle
 10
1016.574112
 20
1430.034036
 30
0.0
 40
5.0
100
AcDbArc
 50
227.149058
 51
290.405019
  0
LINE
  5
369
100
AcDbEntity
  8
001
  6
CONTINUOUS
 62
     7
100
AcDbLine
 10
979.5
 20
939.181091
 30
0.0
 11
1027.5
 21
939.181091
 31
0.0
  0
LINE
  5
373
100
AcDbEntity
  8
001
  6
CONTINUOUS
 62
     7
100
AcDbLine
 10
1018.25
 20
940.181091
 30
0.0
 11
1003.5
 21
940.181091
 31
0.0
  0
LINE
  5
378
100
AcDbEntity
  8
001
  6
CONTINUOUS
 62
     7
100
AcDbLine
 10
1689.5
 20
939.181091
 30
0.0
 11
1737.5
 21
939.181091
 31
0.0
  0
LINE
  5
382
100
AcDbEntity
  8
001
  6
CONTINUOUS
 62
     7
100
AcDbLine
 10
1713.5
 20
940.181091
 30
0.0
 11
1698.75
 21
940.181091
 31
0.0
  0
ARC
  5
3D9
100
AcDbEntity
  8
001
  6
CONTINUOUS
 62
     7
100
AcDbCircle
 10
1689.5
 20
938.181091
 30
0.0
 40
1.0
100
AcDbArc
 50
90.0
 51
180.0
  0
ARC
  5
3DA
100
AcDbEntity
  8
001
  6
CONTINUOUS
 62
     7
100
AcDbCircle
 10
1737.5
 20
938.181091
 30
0.0
 40
1.0
100
AcDbArc
 50
360.0
 51
90.0
  0
INSERT
  5
3DB
100
AcDbEntity
  8
0
  6
CONTINUOUS
100
AcDbBlockReference
  2
A$C4D0D3218
 10
973.5
 20
933.5372
 30
0.0
  0
INSERT
  5
3DC
100
AcDbEntity
  8
0
  6
CONTINUOUS
100
AcDbBlockReference
  2
A$C4D0D3218
 10
1743.5
 20
933.5372
 30
0.0
 41
-1.0
  0
ARC
  5
3DD
100
AcDbEntity
  8
001
  6
CONTINUOUS
 62
     7
100
AcDbCircle
 10
979.5
 20
938.181091
 30
0.0
 40
1.0
100
AcDbArc
 50
90.0
 51
180.0
  0
ARC
  5
3DE
100
AcDbEntity
  8
001
  6
CONTINUOUS
 62
     7
100
AcDbCircle
 10
1027.5
 20
938.181091
 30
0.0
 40
1.0
100
AcDbArc
 50
0.0
 51
90.0
  0
ENDSEC
  0
SECTION
  2
OBJECTS
  0
DICTIONARY
  5
C
100
AcDbDictionary
  3
ACAD_GROUP
350
D
  3
ACAD_MLINESTYLE
350
1B
  0
DICTIONARY
  5
D
102
{ACAD_REACTORS
330
C
102
}
100
AcDbDictionary
  0
DICTIONARY
  5
1B
102
{ACAD_REACTORS
330
C
102
}
100
AcDbDictionary
  3
STANDARD
350
1C
  0
MLINESTYLE
  5
1C
102
{ACAD_REACTORS
330
1B
102
}
100
AcDbMlineStyle
  2
STANDARD
 70
     0
  3

 62
   256
 51
90.0
 52
90.0
 71
     2
 49
0.5
 62
   256
  6
BYLAYER
 49
-0.5
 62
   256
  6
BYLAYER
  0
ENDSEC
  0
EOF
