  0
SECTION
  2
HEADER
  9
$ACADVER
  1
AC1014
  9
$ACADMAINTVER
 70
     0
  9
$DWGCODEPAGE
  3
ANSI_932
  9
$INSBASE
 10
0.0
 20
0.0
 30
0.0
  9
$EXTMIN
 10
530.25
 20
70.0
 30
0.0
  9
$EXTMAX
 10
2835.0
 20
1945.041626
 30
0.0
  9
$LIMMIN
 10
0.0
 20
-0.000004
  9
$LIMMAX
 10
2940.0
 20
2078.999996
  9
$ORTHOMODE
 70
     0
  9
$REGENMODE
 70
     1
  9
$FILLMODE
 70
     1
  9
$QTEXTMODE
 70
     0
  9
$MIRRTEXT
 70
     1
  9
$DRAGMODE
 70
     2
  9
$LTSCALE
 40
58.8
  9
$OSMODE
 70
     0
  9
$ATTMODE
 70
     1
  9
$TEXTSIZE
 40
0.2
  9
$TRACEWID
 40
0.05
  9
$TEXTSTYLE
  7
STANDARD
  9
$CLAYER
  8
0
  9
$CELTYPE
  6
CONTINUOUS
  9
$CECOLOR
 62
   256
  9
$CELTSCALE
 40
1.0
  9
$DELOBJ
 70
     1
  9
$DISPSILH
 70
     0
  9
$DIMSCALE
 40
1.0
  9
$DIMASZ
 40
0.18
  9
$DIMEXO
 40
0.0625
  9
$DIMDLI
 40
0.38
  9
$DIMRND
 40
0.0
  9
$DIMDLE
 40
0.0
  9
$DIMEXE
 40
0.18
  9
$DIMTP
 40
0.0
  9
$DIMTM
 40
0.0
  9
$DIMTXT
 40
0.18
  9
$DIMCEN
 40
0.09
  9
$DIMTSZ
 40
0.0
  9
$DIMTOL
 70
     0
  9
$DIMLIM
 70
     0
  9
$DIMTIH
 70
     1
  9
$DIMTOH
 70
     1
  9
$DIMSE1
 70
     0
  9
$DIMSE2
 70
     0
  9
$DIMTAD
 70
     0
  9
$DIMZIN
 70
     0
  9
$DIMBLK
  1

  9
$DIMASO
 70
     1
  9
$DIMSHO
 70
     1
  9
$DIMPOST
  1

  9
$DIMAPOST
  1

  9
$DIMALT
 70
     0
  9
$DIMALTD
 70
     2
  9
$DIMALTF
 40
25.4
  9
$DIMLFAC
 40
1.0
  9
$DIMTOFL
 70
     0
  9
$DIMTVP
 40
0.0
  9
$DIMTIX
 70
     0
  9
$DIMSOXD
 70
     0
  9
$DIMSAH
 70
     0
  9
$DIMBLK1
  1

  9
$DIMBLK2
  1

  9
$DIMSTYLE
  2
STANDARD
  9
$DIMCLRD
 70
     0
  9
$DIMCLRE
 70
     0
  9
$DIMCLRT
 70
     0
  9
$DIMTFAC
 40
1.0
  9
$DIMGAP
 40
0.09
  9
$DIMJUST
 70
     0
  9
$DIMSD1
 70
     0
  9
$DIMSD2
 70
     0
  9
$DIMTOLJ
 70
     1
  9
$DIMTZIN
 70
     0
  9
$DIMALTZ
 70
     0
  9
$DIMALTTZ
 70
     0
  9
$DIMFIT
 70
     3
  9
$DIMUPT
 70
     0
  9
$DIMUNIT
 70
     2
  9
$DIMDEC
 70
     4
  9
$DIMTDEC
 70
     4
  9
$DIMALTU
 70
     2
  9
$DIMALTTD
 70
     2
  9
$DIMTXSTY
  7
STANDARD
  9
$DIMAUNIT
 70
     0
  9
$LUNITS
 70
     2
  9
$LUPREC
 70
     4
  9
$SKETCHINC
 40
0.1
  9
$FILLETRAD
 40
1.0
  9
$AUNITS
 70
     0
  9
$AUPREC
 70
     0
  9
$MENU
  1
acad
  9
$ELEVATION
 40
0.0
  9
$PELEVATION
 40
0.0
  9
$THICKNESS
 40
0.0
  9
$LIMCHECK
 70
     0
  9
$BLIPMODE
 70
     0
  9
$CHAMFERA
 40
0.0
  9
$CHAMFERB
 40
0.0
  9
$CHAMFERC
 40
0.0
  9
$CHAMFERD
 40
0.0
  9
$SKPOLY
 70
     0
  9
$TDCREATE
 40
0.0000000000
  9
$TDUPDATE
 40
0.0000000000
  9
$TDINDWG
 40
0.0000000000
  9
$TDUSRTIMER
 40
0.0000000000
  9
$USRTIMER
 70
     1
  9
$ANGBASE
 50
0.0
  9
$ANGDIR
 70
     0
  9
$PDMODE
 70
     0
  9
$PDSIZE
 40
0.0
  9
$PLINEWID
 40
0.0
  9
$COORDS
 70
     1
  9
$SPLFRAME
 70
     0
  9
$SPLINETYPE
 70
     6
  9
$SPLINESEGS
 70
     8
  9
$ATTDIA
 70
     0
  9
$ATTREQ
 70
     1
  9
$HANDLING
 70
     1
  9
$HANDSEED
  5
486
  9
$SURFTAB1
 70
     6
  9
$SURFTAB2
 70
     6
  9
$SURFTYPE
 70
     6
  9
$SURFU
 70
     6
  9
$SURFV
 70
     6
  9
$UCSNAME
  2

  9
$UCSORG
 10
0.0
 20
0.0
 30
0.0
  9
$UCSXDIR
 10
1.0
 20
0.0
 30
0.0
  9
$UCSYDIR
 10
0.0
 20
1.0
 30
0.0
  9
$PUCSNAME
  2

  9
$PUCSORG
 10
0.0
 20
0.0
 30
0.0
  9
$PUCSXDIR
 10
1.0
 20
0.0
 30
0.0
  9
$PUCSYDIR
 10
0.0
 20
1.0
 30
0.0
  9
$USERI1
 70
     0
  9
$USERI2
 70
     0
  9
$USERI3
 70
     0
  9
$USERI4
 70
     0
  9
$USERI5
 70
     0
  9
$USERR1
 40
0.0
  9
$USERR2
 40
0.0
  9
$USERR3
 40
0.0
  9
$USERR4
 40
0.0
  9
$USERR5
 40
0.0
  9
$WORLDVIEW
 70
     1
  9
$SHADEDGE
 70
     3
  9
$SHADEDIF
 70
    70
  9
$TILEMODE
 70
     1
  9
$MAXACTVP
 70
    48
  9
$PINSBASE
 10
0.0
 20
0.0
 30
0.0
  9
$PLIMCHECK
 70
     0
  9
$PEXTMIN
 10
1.000000E+20
 20
1.000000E+20
 30
1.000000E+20
  9
$PEXTMAX
 10
-1.000000E+20
 20
-1.000000E+20
 30
-1.000000E+20
  9
$PLIMMIN
 10
0.0
 20
0.0
  9
$PLIMMAX
 10
12.0
 20
9.0
  9
$UNITMODE
 70
     0
  9
$VISRETAIN
 70
     1
  9
$PLINEGEN
 70
     0
  9
$PSLTSCALE
 70
     1
  9
$TREEDEPTH
 70
  3020
  9
$PICKSTYLE
 70
     1
  9
$CMLSTYLE
  2
STANDARD
  9
$CMLJUST
 70
     0
  9
$CMLSCALE
 40
1.0
  9
$PROXYGRAPHICS
 70
     1
  9
$MEASUREMENT
 70
     0
  0
ENDSEC
  0
SECTION
  2
CLASSES
  0
CLASS
  1
LWPOLYLINE
  2
AcDbPolyline
  3
"AutoCAD"
 90
        0
280
     0
281
     1
  0
ENDSEC
  0
SECTION
  2
TABLES
  0
TABLE
  2
VPORT
  5
8
100
AcDbSymbolTable
 70
     2
  0
VPORT
  5
485
100
AcDbSymbolTableRecord
100
AcDbViewportTableRecord
  2
*ACTIVE
 70
     0
 10
0.0
 20
0.0
 11
1.0
 21
1.0
 12
1793.040892
 22
1039.499996
 13
0.0
 23
0.0
 14
1.0
 24
1.0
 15
0.0
 25
0.0
 16
0.0
 26
0.0
 36
1.0
 17
0.0
 27
0.0
 37
0.0
 40
2079.0
 41
1.724907
 42
50.0
 43
0.0
 44
0.0
 50
0.0
 51
0.0
 71
     0
 72
   100
 73
     1
 74
     1
 75
     0
 76
     0
 77
     0
 78
     0
  0
ENDTAB
  0
TABLE
  2
LTYPE
  5
5
100
AcDbSymbolTable
 70
    25
  0
LTYPE
  5
12
100
AcDbSymbolTableRecord
100
AcDbLinetypeTableRecord
  2
BYBLOCK
 70
     0
  3

 72
    65
 73
     0
 40
0.0
  0
LTYPE
  5
13
100
AcDbSymbolTableRecord
100
AcDbLinetypeTableRecord
  2
BYLAYER
 70
     0
  3

 72
    65
 73
     0
 40
0.0
  0
LTYPE
  5
14
100
AcDbSymbolTableRecord
100
AcDbLinetypeTableRecord
  2
CONTINUOUS
 70
     0
  3
Solid line
 72
    65
 73
     0
 40
0.0
  0
LTYPE
  5
1F
100
AcDbSymbolTableRecord
100
AcDbLinetypeTableRecord
  2
BORDER
 70
     0
  3
__ __ . __ __ . __ __ . __ __ . __ __ . __ __ .
 72
    65
 73
     6
 40
1.75
 49
0.5
 74
     0
 49
-0.25
 74
     0
 49
0.5
 74
     0
 49
-0.25
 74
     0
 49
0.0
 74
     0
 49
-0.25
 74
     0
  0
LTYPE
  5
20
100
AcDbSymbolTableRecord
100
AcDbLinetypeTableRecord
  2
BORDER2
 70
     0
  3
__.__.__.__.__.__.__.__.__.__.__.__.__.__.__.__
 72
    65
 73
     6
 40
0.875
 49
0.25
 74
     0
 49
-0.125
 74
     0
 49
0.25
 74
     0
 49
-0.125
 74
     0
 49
0.0
 74
     0
 49
-0.125
 74
     0
  0
LTYPE
  5
21
100
AcDbSymbolTableRecord
100
AcDbLinetypeTableRecord
  2
BORDERX2
 70
     0
  3
____  ____  .  ____  ____  .  ____  ____  .  __
 72
    65
 73
     6
 40
3.5
 49
1.0
 74
     0
 49
-0.5
 74
     0
 49
1.0
 74
     0
 49
-0.5
 74
     0
 49
0.0
 74
     0
 49
-0.5
 74
     0
  0
LTYPE
  5
22
100
AcDbSymbolTableRecord
100
AcDbLinetypeTableRecord
  2
CENTER
 70
     0
  3
____ _ ____ _ ____ _ ____ _ ____ _ ____ _ ____ 
 72
    65
 73
     4
 40
2.0
 49
1.25
 74
     0
 49
-0.25
 74
     0
 49
0.25
 74
     0
 49
-0.25
 74
     0
  0
LTYPE
  5
23
100
AcDbSymbolTableRecord
100
AcDbLinetypeTableRecord
  2
CENTER2
 70
     0
  3
___ _ ___ _ ___ _ ___ _ ___ _ ___ _ ___ _ ___ _
 72
    65
 73
     4
 40
1.125
 49
0.75
 74
     0
 49
-0.125
 74
     0
 49
0.125
 74
     0
 49
-0.125
 74
     0
  0
LTYPE
  5
24
100
AcDbSymbolTableRecord
100
AcDbLinetypeTableRecord
  2
CENTERX2
 70
     0
  3
________  __  ________  __  ________  __  _____
 72
    65
 73
     4
 40
4.0
 49
2.5
 74
     0
 49
-0.5
 74
     0
 49
0.5
 74
     0
 49
-0.5
 74
     0
  0
LTYPE
  5
25
100
AcDbSymbolTableRecord
100
AcDbLinetypeTableRecord
  2
DASHDOT
 70
     0
  3
__ . __ . __ . __ . __ . __ . __ . __ . __ . __
 72
    65
 73
     4
 40
1.0
 49
0.5
 74
     0
 49
-0.25
 74
     0
 49
0.0
 74
     0
 49
-0.25
 74
     0
  0
LTYPE
  5
26
100
AcDbSymbolTableRecord
100
AcDbLinetypeTableRecord
  2
DASHDOT2
 70
     0
  3
_._._._._._._._._._._._._._._._._._._._._._._._
 72
    65
 73
     4
 40
0.5
 49
0.25
 74
     0
 49
-0.125
 74
     0
 49
0.0
 74
     0
 49
-0.125
 74
     0
  0
LTYPE
  5
27
100
AcDbSymbolTableRecord
100
AcDbLinetypeTableRecord
  2
DASHDOTX2
 70
     0
  3
____  .  ____  .  ____  .  ____  .  ____  .  __
 72
    65
 73
     4
 40
2.0
 49
1.0
 74
     0
 49
-0.5
 74
     0
 49
0.0
 74
     0
 49
-0.5
 74
     0
  0
LTYPE
  5
28
100
AcDbSymbolTableRecord
100
AcDbLinetypeTableRecord
  2
DASHED
 70
     0
  3
__ __ __ __ __ __ __ __ __ __ __ __ __ __ __ __
 72
    65
 73
     2
 40
0.75
 49
0.5
 74
     0
 49
-0.25
 74
     0
  0
LTYPE
  5
29
100
AcDbSymbolTableRecord
100
AcDbLinetypeTableRecord
  2
DASHED2
 70
     0
  3
_ _ _ _ _ _ _ _ _ _ _ _ _ _ _ _ _ _ _ _ _ _ _ _
 72
    65
 73
     2
 40
0.375
 49
0.25
 74
     0
 49
-0.125
 74
     0
  0
LTYPE
  5
2A
100
AcDbSymbolTableRecord
100
AcDbLinetypeTableRecord
  2
DASHEDX2
 70
     0
  3
____  ____  ____  ____  ____  ____  ____  ____ 
 72
    65
 73
     2
 40
1.5
 49
1.0
 74
     0
 49
-0.5
 74
     0
  0
LTYPE
  5
2B
100
AcDbSymbolTableRecord
100
AcDbLinetypeTableRecord
  2
DIVIDE
 70
     0
  3
____ . . ____ . . ____ . . ____ . . ____ . . __
 72
    65
 73
     6
 40
1.25
 49
0.5
 74
     0
 49
-0.25
 74
     0
 49
0.0
 74
     0
 49
-0.25
 74
     0
 49
0.0
 74
     0
 49
-0.25
 74
     0
  0
LTYPE
  5
2C
100
AcDbSymbolTableRecord
100
AcDbLinetypeTableRecord
  2
DIVIDE2
 70
     0
  3
__..__..__..__..__..__..__..__..__..__..__..__.
 72
    65
 73
     6
 40
0.625
 49
0.25
 74
     0
 49
-0.125
 74
     0
 49
0.0
 74
     0
 49
-0.125
 74
     0
 49
0.0
 74
     0
 49
-0.125
 74
     0
  0
LTYPE
  5
2D
100
AcDbSymbolTableRecord
100
AcDbLinetypeTableRecord
  2
DIVIDEX2
 70
     0
  3
________  .  .  ________  .  .  ________  .  . 
 72
    65
 73
     6
 40
2.5
 49
1.0
 74
     0
 49
-0.5
 74
     0
 49
0.0
 74
     0
 49
-0.5
 74
     0
 49
0.0
 74
     0
 49
-0.5
 74
     0
  0
LTYPE
  5
2E
100
AcDbSymbolTableRecord
100
AcDbLinetypeTableRecord
  2
DOT
 70
     0
  3
. . . . . . . . . . . . . . . . . . . . . . . .
 72
    65
 73
     2
 40
0.25
 49
0.0
 74
     0
 49
-0.25
 74
     0
  0
LTYPE
  5
2F
100
AcDbSymbolTableRecord
100
AcDbLinetypeTableRecord
  2
DOT2
 70
     0
  3
...............................................
 72
    65
 73
     2
 40
0.125
 49
0.0
 74
     0
 49
-0.125
 74
     0
  0
LTYPE
  5
30
100
AcDbSymbolTableRecord
100
AcDbLinetypeTableRecord
  2
DOTX2
 70
     0
  3
.  .  .  .  .  .  .  .  .  .  .  .  .  .  .  . 
 72
    65
 73
     2
 40
0.5
 49
0.0
 74
     0
 49
-0.5
 74
     0
  0
LTYPE
  5
31
100
AcDbSymbolTableRecord
100
AcDbLinetypeTableRecord
  2
HIDDEN
 70
     0
  3
__ __ __ __ __ __ __ __ __ __ __ __ __ __ __ __
 72
    65
 73
     2
 40
0.375
 49
0.25
 74
     0
 49
-0.125
 74
     0
  0
LTYPE
  5
32
100
AcDbSymbolTableRecord
100
AcDbLinetypeTableRecord
  2
HIDDEN2
 70
     0
  3
_ _ _ _ _ _ _ _ _ _ _ _ _ _ _ _ _ _ _ _ _ _ _ _
 72
    65
 73
     2
 40
0.1875
 49
0.125
 74
     0
 49
-0.0625
 74
     0
  0
LTYPE
  5
33
100
AcDbSymbolTableRecord
100
AcDbLinetypeTableRecord
  2
HIDDENX2
 70
     0
  3
____ ____ ____ ____ ____ ____ ____ ____ ____ __
 72
    65
 73
     2
 40
0.75
 49
0.5
 74
     0
 49
-0.25
 74
     0
  0
LTYPE
  5
34
100
AcDbSymbolTableRecord
100
AcDbLinetypeTableRecord
  2
PHANTOM
 70
     0
  3
______  __  __  ______  __  __  ______  __  __ 
 72
    65
 73
     6
 40
2.5
 49
1.25
 74
     0
 49
-0.25
 74
     0
 49
0.25
 74
     0
 49
-0.25
 74
     0
 49
0.25
 74
     0
 49
-0.25
 74
     0
  0
LTYPE
  5
35
100
AcDbSymbolTableRecord
100
AcDbLinetypeTableRecord
  2
PHANTOM2
 70
     0
  3
___ _ _ ___ _ _ ___ _ _ ___ _ _ ___ _ _ ___ _ _
 72
    65
 73
     6
 40
1.25
 49
0.625
 74
     0
 49
-0.125
 74
     0
 49
0.125
 74
     0
 49
-0.125
 74
     0
 49
0.125
 74
     0
 49
-0.125
 74
     0
  0
LTYPE
  5
36
100
AcDbSymbolTableRecord
100
AcDbLinetypeTableRecord
  2
PHANTOMX2
 70
     0
  3
____________    ____    ____    ____________   
 72
    65
 73
     6
 40
5.0
 49
2.5
 74
     0
 49
-0.5
 74
     0
 49
0.5
 74
     0
 49
-0.5
 74
     0
 49
0.5
 74
     0
 49
-0.5
 74
     0
  0
ENDTAB
  0
TABLE
  2
LAYER
  5
2
100
AcDbSymbolTable
 70
     5
  0
LAYER
  5
E
100
AcDbSymbolTableRecord
100
AcDbLayerTableRecord
  2
0
 70
     0
 62
     7
  6
CONTINUOUS
  0
LAYER
  5
38
100
AcDbSymbolTableRecord
100
AcDbLayerTableRecord
  2
001
 70
     0
 62
     7
  6
CONTINUOUS
  0
LAYER
  5
475
100
AcDbSymbolTableRecord
100
AcDbLayerTableRecord
  2
BODY
 70
     0
 62
     7
  6
CONTINUOUS
  0
LAYER
  5
476
100
AcDbSymbolTableRecord
100
AcDbLayerTableRecord
  2
SHAFT
 70
     0
 62
     6
  6
CONTINUOUS
  0
LAYER
  5
477
100
AcDbSymbolTableRecord
100
AcDbLayerTableRecord
  2
CENTER
 70
     0
 62
   144
  6
CENTER2
  0
ENDTAB
  0
TABLE
  2
STYLE
  5
3
100
AcDbSymbolTable
 70
     2
  0
STYLE
  5
F
100
AcDbSymbolTableRecord
100
AcDbTextStyleTableRecord
  2
STANDARD
 70
     0
 40
0.0
 41
1.0
 50
0.0
 71
     0
 42
0.2
  3
TXT
  4
BIGFONT
  0
STYLE
  5
37
100
AcDbSymbolTableRecord
100
AcDbTextStyleTableRecord
  2
STANDARD1
 70
     4
 40
0.0
 41
1.0
 50
0.0
 71
     0
 42
0.2
  3
TXT
  4
BIGFONT
  0
ENDTAB
  0
TABLE
  2
VIEW
  5
6
100
AcDbSymbolTable
 70
     0
  0
ENDTAB
  0
TABLE
  2
UCS
  5
7
100
AcDbSymbolTable
 70
     0
  0
ENDTAB
  0
TABLE
  2
APPID
  5
9
100
AcDbSymbolTable
 70
     1
  0
APPID
  5
10
100
AcDbSymbolTableRecord
100
AcDbRegAppTableRecord
  2
ACAD
 70
     0
  0
ENDTAB
  0
TABLE
  2
DIMSTYLE
  5
A
100
AcDbSymbolTable
 70
     1
  0
DIMSTYLE
105
42B
100
AcDbSymbolTableRecord
100
AcDbDimStyleTableRecord
  2
STANDARD
 70
     0
  3

  4

  5

  6

  7

 40
1.0
 41
0.18
 42
0.0625
 43
0.38
 44
0.18
 45
0.0
 46
0.0
 47
0.0
 48
0.0
140
0.18
141
0.09
142
0.0
143
25.4
144
1.0
145
0.0
146
1.0
147
0.09
 71
     0
 72
     0
 73
     1
 74
     1
 75
     0
 76
     0
 77
     0
 78
     0
170
     0
171
     2
172
     0
173
     0
174
     0
175
     0
176
     0
177
     0
178
     0
270
     2
271
     4
272
     4
273
     2
274
     2
340
F
275
     0
280
     0
281
     0
282
     0
283
     1
284
     0
285
     0
286
     0
287
     3
288
     0
  0
ENDTAB
  0
TABLE
  2
BLOCK_RECORD
  5
1
100
AcDbSymbolTable
 70
     2
  0
BLOCK_RECORD
  5
18
100
AcDbSymbolTableRecord
100
AcDbBlockTableRecord
  2
*MODEL_SPACE
  0
BLOCK_RECORD
  5
15
100
AcDbSymbolTableRecord
100
AcDbBlockTableRecord
  2
*PAPER_SPACE
  0
BLOCK_RECORD
  5
42C
100
AcDbSymbolTableRecord
100
AcDbBlockTableRecord
  2
A$C4D0D3218
  0
BLOCK_RECORD
  5
478
100
AcDbSymbolTableRecord
100
AcDbBlockTableRecord
  2
A$C3D2E53C4
  0
ENDTAB
  0
ENDSEC
  0
SECTION
  2
BLOCKS
  0
BLOCK
  5
19
100
AcDbEntity
  8
0
100
AcDbBlockBegin
  2
*MODEL_SPACE
 70
     0
 10
0.0
 20
0.0
 30
0.0
  3
*MODEL_SPACE
  1

  0
ENDBLK
  5
1A
100
AcDbEntity
  8
0
100
AcDbBlockEnd
  0
BLOCK
  5
16
100
AcDbEntity
 67
     1
  8
0
100
AcDbBlockBegin
  2
*PAPER_SPACE
 70
     0
 10
0.0
 20
0.0
 30
0.0
  3
*PAPER_SPACE
  1

  0
ENDBLK
  5
17
100
AcDbEntity
 67
     1
  8
0
100
AcDbBlockEnd
  0
BLOCK
  5
473
100
AcDbEntity
  8
0
100
AcDbBlockBegin
  2
A$C4D0D3218
 70
     0
 10
0.0
 20
0.0
 30
0.0
  3
A$C4D0D3218
  1

  0
LINE
  5
42D
100
AcDbEntity
  8
BODY
100
AcDbLine
 10
47.298566
 20
58.50411
 30
0.0
 11
30.0
 21
33.988262
 31
0.0
  0
LINE
  5
42E
100
AcDbEntity
  8
BODY
100
AcDbLine
 10
47.830578
 20
57.227929
 30
0.0
 11
48.758497
 21
35.164071
 31
0.0
  0
LINE
  5
42F
100
AcDbEntity
  8
BODY
100
AcDbLine
 10
60.0
 20
62.643891
 30
0.0
 11
60.0
 21
35.143891
 31
0.0
  0
LINE
  5
430
100
AcDbEntity
  8
BODY
100
AcDbLine
 10
0.0
 20
8.643891
 30
0.0
 11
0.0
 21
62.643891
 31
0.0
  0
LINE
  5
431
100
AcDbEntity
  8
CENTER
100
AcDbLine
 10
30.0
 20
0.0
 30
0.0
 11
30.0
 21
136.35376
 31
0.0
  0
LINE
  5
432
100
AcDbEntity
  8
BODY
100
AcDbLine
 10
57.0
 20
5.643891
 30
0.0
 11
3.0
 21
5.643891
 31
0.0
  0
ARC
  5
433
100
AcDbEntity
  8
BODY
100
AcDbCircle
 10
3.0
 20
8.643891
 30
0.0
 40
3.0
100
AcDbArc
 50
180.0
 51
270.0
  0
ARC
  5
434
100
AcDbEntity
  8
BODY
100
AcDbCircle
 10
51.917656
 20
7.643891
 30
0.0
 40
2.0
100
AcDbArc
 50
182.408216
 51
270.0
  0
LINE
  5
435
100
AcDbEntity
  8
BODY
100
AcDbLine
 10
30.0
 20
33.988262
 30
0.0
 11
50.0
 21
5.643891
 31
0.0
  0
LINE
  5
436
100
AcDbEntity
  8
CENTER
100
AcDbLine
 10
45.826748
 20
30.643891
 30
0.0
 11
72.990715
 21
30.643891
 31
0.0
  0
LINE
  5
437
100
AcDbEntity
  8
BODY
100
AcDbLine
 10
69.138318
 20
35.643891
 30
0.0
 11
48.738318
 21
35.643891
 31
0.0
  0
LINE
  5
438
100
AcDbEntity
  8
BODY
100
AcDbLine
 10
63.238318
 20
35.143891
 30
0.0
 11
48.738318
 21
35.143891
 31
0.0
  0
LINE
  5
439
100
AcDbEntity
  8
BODY
100
AcDbLine
 10
49.158879
 20
25.643891
 30
0.0
 11
69.138318
 21
25.643891
 31
0.0
  0
LINE
  5
43A
100
AcDbEntity
  8
BODY
100
AcDbLine
 10
49.155391
 20
25.726818
 30
0.0
 11
49.919423
 21
7.559853
 31
0.0
  0
LINE
  5
43B
100
AcDbEntity
  8
BODY
100
AcDbLine
 10
48.738318
 20
26.143891
 30
0.0
 11
63.238318
 21
26.143891
 31
0.0
  0
LWPOLYLINE
  5
43C
100
AcDbEntity
  8
BODY
100
AcDbPolyline
 90
        4
 70
     0
 43
0.0
 10
30.0
 20
39.881496
 10
22.0
 20
35.262693
 10
22.0
 20
26.025089
 10
30.0
 20
21.406287
  0
ARC
  5
43D
100
AcDbEntity
  8
BODY
100
AcDbCircle
 10
30.0
 20
30.643891
 30
0.0
 40
8.0
100
AcDbArc
 50
90.0
 51
270.0
  0
LINE
  5
43E
100
AcDbEntity
  8
CENTER
100
AcDbLine
 10
20.361507
 20
30.643891
 30
0.0
 11
31.763323
 21
30.643891
 31
0.0
  0
LINE
  5
43F
100
AcDbEntity
  8
BODY
100
AcDbLine
 10
49.238318
 20
35.643891
 30
0.0
 11
49.238318
 21
25.643891
 31
0.0
  0
LINE
  5
440
100
AcDbEntity
  8
BODY
100
AcDbLine
 10
48.738318
 20
35.143891
 30
0.0
 11
48.738318
 21
26.143891
 31
0.0
  0
LINE
  5
441
100
AcDbEntity
  8
BODY
100
AcDbLine
 10
48.738318
 20
26.143891
 30
0.0
 11
49.238318
 21
25.643891
 31
0.0
  0
LINE
  5
442
100
AcDbEntity
  8
BODY
100
AcDbLine
 10
48.738318
 20
35.143891
 30
0.0
 11
49.238318
 21
35.643891
 31
0.0
  0
LINE
  5
443
100
AcDbEntity
  8
BODY
100
AcDbLine
 10
60.0
 20
26.143891
 30
0.0
 11
60.0
 21
8.643891
 31
0.0
  0
ARC
  5
444
100
AcDbEntity
  8
BODY
100
AcDbCircle
 10
57.0
 20
8.643891
 30
0.0
 40
3.0
100
AcDbArc
 50
270.0
 51
0.0
  0
LINE
  5
445
100
AcDbEntity
  8
BODY
100
AcDbLine
 10
69.138318
 20
21.406287
 30
0.0
 11
63.738318
 21
21.406287
 31
0.0
  0
LINE
  5
446
100
AcDbEntity
  8
BODY
100
AcDbLine
 10
69.138318
 20
39.881496
 30
0.0
 11
63.738318
 21
39.881496
 31
0.0
  0
LINE
  5
447
100
AcDbEntity
  8
BODY
100
AcDbLine
 10
63.238318
 20
35.143891
 30
0.0
 11
63.238318
 21
26.143891
 31
0.0
  0
LINE
  5
448
100
AcDbEntity
  8
BODY
100
AcDbLine
 10
63.738318
 20
39.881496
 30
0.0
 11
63.738318
 21
21.406287
 31
0.0
  0
LINE
  5
449
100
AcDbEntity
  8
BODY
100
AcDbLine
 10
63.238318
 20
26.143891
 30
0.0
 11
63.738318
 21
25.643891
 31
0.0
  0
LINE
  5
44A
100
AcDbEntity
  8
BODY
100
AcDbLine
 10
63.238318
 20
35.143891
 30
0.0
 11
63.738318
 21
35.643891
 31
0.0
  0
ARC
  5
44B
100
AcDbEntity
  8
BODY
100
AcDbCircle
 10
57.138318
 20
30.643891
 30
0.0
 40
13.0
100
AcDbArc
 50
337.380135
 51
22.619865
  0
LINE
  5
44C
100
AcDbEntity
  8
BODY
100
AcDbLine
 10
70.138318
 20
37.781496
 30
0.0
 11
70.138318
 21
23.506287
 31
0.0
  0
ARC
  5
44D
100
AcDbEntity
  8
BODY
100
AcDbCircle
 10
67.393834
 20
23.525089
 30
0.0
 40
2.744549
100
AcDbArc
 50
309.465831
 51
50.534169
  0
ARC
  5
44E
100
AcDbEntity
  8
BODY
100
AcDbCircle
 10
67.393834
 20
37.762693
 30
0.0
 40
2.744549
100
AcDbArc
 50
309.465831
 51
50.534169
  0
LINE
  5
44F
100
AcDbEntity
  8
BODY
100
AcDbLine
 10
15.25
 20
65.643891
 30
0.0
 11
30.0
 21
65.643891
 31
0.0
  0
LINE
  5
450
100
AcDbEntity
  8
SHAFT
100
AcDbLine
 10
30.0
 20
123.315647
 30
0.0
 11
13.25
 21
115.643891
 31
0.0
  0
LINE
  5
451
100
AcDbEntity
  8
SHAFT
100
AcDbLine
 10
14.0
 20
130.643891
 30
0.0
 11
30.0
 21
123.315647
 31
0.0
  0
LINE
  5
452
100
AcDbEntity
  8
BODY
100
AcDbLine
 10
30.0
 20
115.643891
 30
0.0
 11
13.25
 21
115.643891
 31
0.0
  0
LINE
  5
453
100
AcDbEntity
  8
SHAFT
100
AcDbLine
 10
14.0
 20
130.643891
 30
0.0
 11
46.0
 21
130.643891
 31
0.0
  0
LINE
  5
454
100
AcDbEntity
  8
SHAFT
100
AcDbLine
 10
13.25
 20
115.643891
 30
0.0
 11
30.0
 21
115.643891
 31
0.0
  0
LINE
  5
455
100
AcDbEntity
  8
BODY
100
AcDbLine
 10
30.0
 20
90.643891
 30
0.0
 11
13.723903
 21
66.351209
 31
0.0
  0
LINE
  5
456
100
AcDbEntity
  8
BODY
100
AcDbLine
 10
13.25
 20
115.643891
 30
0.0
 11
30.0
 21
90.643891
 31
0.0
  0
LINE
  5
457
100
AcDbEntity
  8
BODY
100
AcDbLine
 10
13.25
 20
115.643891
 30
0.0
 11
13.25
 21
67.643891
 31
0.0
  0
LINE
  5
458
100
AcDbEntity
  8
BODY
100
AcDbLine
 10
13.25
 20
115.643891
 30
0.0
 11
11.085954
 21
67.553982
 31
0.0
  0
ARC
  5
459
100
AcDbEntity
  8
BODY
100
AcDbCircle
 10
15.25
 20
67.643891
 30
0.0
 40
2.0
100
AcDbArc
 50
180.0
 51
270.0
  0
ARC
  5
45A
100
AcDbEntity
  8
BODY
100
AcDbCircle
 10
9.087976
 20
67.643891
 30
0.0
 40
2.0
100
AcDbArc
 50
270.0
 51
357.423428
  0
ARC
  5
45B
100
AcDbEntity
  8
BODY
100
AcDbCircle
 10
3.0
 20
62.643891
 30
0.0
 40
3.0
100
AcDbArc
 50
90.0
 51
180.0
  0
LINE
  5
45C
100
AcDbEntity
  8
BODY
100
AcDbLine
 10
3.0
 20
65.643891
 30
0.0
 11
9.087976
 21
65.643891
 31
0.0
  0
LINE
  5
45D
100
AcDbEntity
  8
SHAFT
100
AcDbLine
 10
14.0
 20
130.643891
 30
0.0
 11
13.25
 21
115.643891
 31
0.0
  0
LINE
  5
45E
100
AcDbEntity
  8
BODY
100
AcDbLine
 10
46.75
 20
115.643891
 30
0.0
 11
48.914046
 21
67.553982
 31
0.0
  0
ARC
  5
45F
100
AcDbEntity
  8
BODY
100
AcDbCircle
 10
50.912024
 20
67.643891
 30
0.0
 40
2.0
100
AcDbArc
 50
182.576572
 51
270.0
  0
LINE
  5
460
100
AcDbEntity
  8
BODY
100
AcDbLine
 10
30.0
 20
59.143891
 30
0.0
 11
45.832345
 21
59.143891
 31
0.0
  0
ARC
  5
461
100
AcDbEntity
  8
BODY
100
AcDbCircle
 10
45.832345
 20
57.143891
 30
0.0
 40
2.0
100
AcDbArc
 50
2.408216
 51
90.0
  0
ARC
  5
462
100
AcDbEntity
  8
BODY
100
AcDbCircle
 10
57.0
 20
62.643891
 30
0.0
 40
3.0
100
AcDbArc
 50
0.0
 51
90.0
  0
LINE
  5
463
100
AcDbEntity
  8
BODY
100
AcDbLine
 10
50.912024
 20
65.643891
 30
0.0
 11
57.0
 21
65.643891
 31
0.0
  0
LINE
  5
464
100
AcDbEntity
  8
BODY
100
AcDbLine
 10
32.0
 20
126.893891
 30
0.0
 11
32.0
 21
106.343891
 31
0.0
  0
LINE
  5
465
100
AcDbEntity
  8
BODY
100
AcDbLine
 10
32.5
 20
127.393891
 30
0.0
 11
32.5
 21
106.643891
 31
0.0
  0
LINE
  5
466
100
AcDbEntity
  8
BODY
100
AcDbLine
 10
32.5
 20
106.643891
 30
0.0
 11
30.0
 21
105.143891
 31
0.0
  0
LINE
  5
467
100
AcDbEntity
  8
BODY
100
AcDbLine
 10
32.5
 20
106.643891
 30
0.0
 11
30.0
 21
106.643891
 31
0.0
  0
LINE
  5
468
100
AcDbEntity
  8
BODY
100
AcDbLine
 10
32.5
 20
111.143891
 30
0.0
 11
32.0
 21
110.643891
 31
0.0
  0
LINE
  5
469
100
AcDbEntity
  8
BODY
100
AcDbLine
 10
30.0
 20
111.143891
 30
0.0
 11
32.5
 21
111.143891
 31
0.0
  0
LINE
  5
46A
100
AcDbEntity
  8
BODY
100
AcDbLine
 10
30.0
 20
110.643891
 30
0.0
 11
32.5
 21
110.643891
 31
0.0
  0
LINE
  5
46B
100
AcDbEntity
  8
SHAFT
100
AcDbLine
 10
32.0
 20
115.643891
 30
0.0
 11
46.75
 21
115.643891
 31
0.0
  0
LINE
  5
46C
100
AcDbEntity
  8
BODY
100
AcDbLine
 10
35.75
 20
130.643891
 30
0.0
 11
32.0
 21
126.893891
 31
0.0
  0
LINE
  5
46D
100
AcDbEntity
  8
SHAFT
100
AcDbLine
 10
32.75
 20
127.643891
 30
0.0
 11
35.75
 21
130.643891
 31
0.0
  0
LINE
  5
46E
100
AcDbEntity
  8
BODY
100
AcDbLine
 10
46.75
 20
115.643891
 30
0.0
 11
32.0
 21
115.643891
 31
0.0
  0
LINE
  5
46F
100
AcDbEntity
  8
SHAFT
100
AcDbLine
 10
32.75
 20
127.643891
 30
0.0
 11
32.75
 21
115.643891
 31
0.0
  0
LINE
  5
470
100
AcDbEntity
  8
BODY
100
AcDbLine
 10
32.0
 20
126.893891
 30
0.0
 11
30.0
 21
126.893891
 31
0.0
  0
LINE
  5
471
100
AcDbEntity
  8
BODY
100
AcDbLine
 10
32.5
 20
127.393891
 30
0.0
 11
30.0
 21
127.393891
 31
0.0
  0
LINE
  5
472
100
AcDbEntity
  8
SHAFT
100
AcDbLine
 10
46.0
 20
130.643891
 30
0.0
 11
46.75
 21
115.643891
 31
0.0
  0
ENDBLK
  5
474
100
AcDbEntity
  8
0
100
AcDbBlockEnd
  0
BLOCK
  5
47B
100
AcDbEntity
  8
0
100
AcDbBlockBegin
  2
A$C3D2E53C4
 70
     0
 10
0.0
 20
0.0
 30
0.0
  3
A$C3D2E53C4
  1

  0
INSERT
  5
479
100
AcDbEntity
  8
0
  6
CONTINUOUS
100
AcDbBlockReference
  2
A$C4D0D3218
 10
-0.000001
 20
0.000001
 30
0.0
  0
INSERT
  5
47A
100
AcDbEntity
  8
0
  6
CONTINUOUS
100
AcDbBlockReference
  2
A$C4D0D3218
 10
558.499999
 20
0.000001
 30
0.0
 41
-1.0
  0
ENDBLK
  5
47C
100
AcDbEntity
  8
0
100
AcDbBlockEnd
  0
ENDSEC
  0
SECTION
  2
ENTITIES
  0
ARC
  5
3A
100
AcDbEntity
  8
001
  6
CONTINUOUS
 62
     7
100
AcDbCircle
 10
2157.5
 20
856.735657
 30
0.0
 40
3.75
100
AcDbArc
 50
0.0
 51
89.99627
  0
LINE
  5
3B
100
AcDbEntity
  8
001
  6
CONTINUOUS
 62
     7
100
AcDbLine
 10
2161.25
 20
856.735657
 30
0.0
 11
2161.25
 21
839.235657
 31
0.0
  0
ARC
  5
3C
100
AcDbEntity
  8
001
  6
CONTINUOUS
 62
     7
100
AcDbCircle
 10
2157.5
 20
839.235779
 30
0.0
 40
3.75
100
AcDbArc
 50
270.00373
 51
359.998135
  0
ARC
  5
3D
100
AcDbEntity
  8
001
  6
CONTINUOUS
 62
     7
100
AcDbCircle
 10
2157.5
 20
877.985779
 30
0.0
 40
3.75
100
AcDbArc
 50
0.0
 51
89.99627
  0
LINE
  5
3E
100
AcDbEntity
  8
001
  6
CONTINUOUS
 62
     7
100
AcDbLine
 10
2161.25
 20
864.235657
 30
0.0
 11
2161.25
 21
877.985779
 31
0.0
  0
ARC
  5
3F
100
AcDbEntity
  8
001
  6
CONTINUOUS
 62
     7
100
AcDbCircle
 10
2157.5
 20
864.235657
 30
0.0
 40
3.75
100
AcDbArc
 50
270.00373
 51
0.0
  0
ARC
  5
40
100
AcDbEntity
  8
001
  6
CONTINUOUS
 62
     7
100
AcDbCircle
 10
1749.0
 20
856.735657
 30
0.0
 40
3.75
100
AcDbArc
 50
90.0
 51
180.0
  0
LINE
  5
41
100
AcDbEntity
  8
001
  6
CONTINUOUS
 62
     7
100
AcDbLine
 10
1745.25
 20
856.735657
 30
0.0
 11
1745.25
 21
839.235657
 31
0.0
  0
ARC
  5
42
100
AcDbEntity
  8
001
  6
CONTINUOUS
 62
     7
100
AcDbCircle
 10
1749.0
 20
839.235779
 30
0.0
 40
3.75
100
AcDbArc
 50
180.001865
 51
270.0
  0
ARC
  5
43
100
AcDbEntity
  8
001
  6
CONTINUOUS
 62
     7
100
AcDbCircle
 10
1749.0
 20
877.985779
 30
0.0
 40
3.75
100
AcDbArc
 50
90.0
 51
180.0
  0
LINE
  5
44
100
AcDbEntity
  8
001
  6
CONTINUOUS
 62
     7
100
AcDbLine
 10
1745.25
 20
864.235657
 30
0.0
 11
1745.25
 21
877.985779
 31
0.0
  0
ARC
  5
45
100
AcDbEntity
  8
001
  6
CONTINUOUS
 62
     7
100
AcDbCircle
 10
1749.0
 20
864.235657
 30
0.0
 40
3.75
100
AcDbArc
 50
180.0
 51
270.0
  0
LINE
  5
46
100
AcDbEntity
  8
001
  6
CONTINUOUS
 62
     7
100
AcDbLine
 10
2157.500244
 20
835.485779
 30
0.0
 11
1749.0
 21
835.485779
 31
0.0
  0
LINE
  5
47
100
AcDbEntity
  8
001
  6
CONTINUOUS
 62
     7
100
AcDbLine
 10
1749.0
 20
860.485657
 30
0.0
 11
2157.500244
 21
860.485657
 31
0.0
  0
LINE
  5
48
100
AcDbEntity
  8
001
  6
CONTINUOUS
 62
     7
100
AcDbLine
 10
2157.500244
 20
881.735779
 30
0.0
 11
1749.0
 21
881.735779
 31
0.0
  0
LINE
  5
49
100
AcDbEntity
  8
001
  6
CONTINUOUS
 62
     7
100
AcDbLine
 10
2053.151611
 20
950.854431
 30
0.0
 11
1853.348389
 21
950.854431
 31
0.0
  0
ARC
  5
4A
100
AcDbEntity
  8
001
  6
CONTINUOUS
 62
     7
100
AcDbCircle
 10
1978.75
 20
1073.485474
 30
0.0
 40
2.0
100
AcDbArc
 50
270.0
 51
0.003497
  0
ARC
  5
4B
100
AcDbEntity
  8
001
  6
CONTINUOUS
 62
     7
100
AcDbCircle
 10
1927.75
 20
1073.485474
 30
0.0
 40
2.0
100
AcDbArc
 50
179.996503
 51
270.0
  0
LINE
  5
4C
100
AcDbEntity
  8
001
  6
CONTINUOUS
 62
     7
100
AcDbLine
 10
1927.75
 20
1071.485474
 30
0.0
 11
1978.75
 21
1071.485474
 31
0.0
  0
LINE
  5
4D
100
AcDbEntity
  8
001
  6
CONTINUOUS
 62
     7
100
AcDbLine
 10
1970.287109
 20
1071.485474
 30
0.0
 11
1971.297363
 21
1069.735718
 31
0.0
  0
LINE
  5
4E
100
AcDbEntity
  8
001
  6
CONTINUOUS
 62
     7
100
AcDbLine
 10
1935.202759
 20
1069.735718
 30
0.0
 11
1936.213135
 21
1071.485474
 31
0.0
  0
LINE
  5
4F
100
AcDbEntity
  8
001
  6
CONTINUOUS
 62
     7
100
AcDbLine
 10
2117.25
 20
804.235657
 30
0.0
 11
2117.25
 21
740.783142
 31
0.0
  0
LINE
  5
50
100
AcDbEntity
  8
001
  6
CONTINUOUS
 62
     7
100
AcDbLine
 10
2125.025146
 20
828.533508
 30
0.0
 11
2117.25
 21
804.235657
 31
0.0
  0
ARC
  5
51
100
AcDbEntity
  8
001
  6
CONTINUOUS
 62
     7
100
AcDbCircle
 10
2119.25
 20
740.783145
 30
0.0
 40
2.0
100
AcDbArc
 50
180.00009
 51
268.32817
  0
LINE
  5
52
100
AcDbEntity
  8
001
  6
CONTINUOUS
 62
     7
100
AcDbLine
 10
2119.19165
 20
738.783997
 30
0.0
 11
2149.806641
 21
737.889099
 31
0.0
  0
ARC
  5
53
100
AcDbEntity
  8
001
  6
CONTINUOUS
 62
     7
100
AcDbCircle
 10
2119.25
 20
719.898129
 30
0.0
 40
2.0
100
AcDbArc
 50
91.67183
 51
179.992916
  0
LINE
  5
54
100
AcDbEntity
  8
001
  6
CONTINUOUS
 62
     7
100
AcDbLine
 10
2149.809326
 20
722.788757
 30
0.0
 11
2119.19165
 21
721.897278
 31
0.0
  0
ARC
  5
55
100
AcDbEntity
  8
001
  6
CONTINUOUS
 62
     7
100
AcDbCircle
 10
2149.749023
 20
735.889929
 30
0.0
 40
2.0
100
AcDbArc
 50
359.990207
 51
88.349162
  0
ARC
  5
56
100
AcDbEntity
  8
001
  6
CONTINUOUS
 62
     7
100
AcDbCircle
 10
2149.75171
 20
724.787927
 30
0.0
 40
2.0
100
AcDbArc
 50
271.650819
 51
0.04826
  0
LINE
  5
57
100
AcDbEntity
  8
001
  6
CONTINUOUS
 62
     7
100
AcDbLine
 10
2151.749023
 20
735.889587
 30
0.0
 11
2151.751709
 21
724.789612
 31
0.0
  0
LINE
  5
58
100
AcDbEntity
  8
001
  6
CONTINUOUS
 62
     7
100
AcDbLine
 10
2117.25
 20
719.898499
 30
0.0
 11
2117.25
 21
659.632324
 31
0.0
  0
LINE
  5
59
100
AcDbEntity
  8
001
  6
CONTINUOUS
 62
     7
100
AcDbLine
 10
1789.25
 20
804.235657
 30
0.0
 11
1789.25
 21
740.783142
 31
0.0
  0
ARC
  5
5A
100
AcDbEntity
  8
001
  6
CONTINUOUS
 62
     7
100
AcDbCircle
 10
1787.25
 20
740.783145
 30
0.0
 40
2.0
100
AcDbArc
 50
271.67183
 51
0.0
  0
LINE
  5
5B
100
AcDbEntity
  8
001
  6
CONTINUOUS
 62
     7
100
AcDbLine
 10
1787.30835
 20
738.783997
 30
0.0
 11
1756.693359
 21
737.889099
 31
0.0
  0
ARC
  5
5C
100
AcDbEntity
  8
001
  6
CONTINUOUS
 62
     7
100
AcDbCircle
 10
1787.25
 20
719.898129
 30
0.0
 40
2.0
100
AcDbArc
 50
0.007084
 51
88.32817
  0
LINE
  5
5D
100
AcDbEntity
  8
001
  6
CONTINUOUS
 62
     7
100
AcDbLine
 10
1756.690674
 20
722.788757
 30
0.0
 11
1787.30835
 21
721.897278
 31
0.0
  0
ARC
  5
5E
100
AcDbEntity
  8
001
  6
CONTINUOUS
 62
     7
100
AcDbCircle
 10
1756.750977
 20
735.889929
 30
0.0
 40
2.0
100
AcDbArc
 50
91.650838
 51
180.009793
  0
ARC
  5
5F
100
AcDbEntity
  8
001
  6
CONTINUOUS
 62
     7
100
AcDbCircle
 10
1756.74829
 20
724.787927
 30
0.0
 40
2.0
100
AcDbArc
 50
179.95174
 51
268.349181
  0
LINE
  5
60
100
AcDbEntity
  8
001
  6
CONTINUOUS
 62
     7
100
AcDbLine
 10
1754.750977
 20
735.889587
 30
0.0
 11
1754.748291
 21
724.789612
 31
0.0
  0
LINE
  5
61
100
AcDbEntity
  8
001
  6
CONTINUOUS
 62
     7
100
AcDbLine
 10
1789.25
 20
719.898499
 30
0.0
 11
1789.25
 21
659.632324
 31
0.0
  0
LINE
  5
62
100
AcDbEntity
  8
001
  6
CONTINUOUS
 62
     7
100
AcDbLine
 10
1781.474854
 20
828.533508
 30
0.0
 11
1789.25
 21
804.235657
 31
0.0
  0
LINE
  5
63
100
AcDbEntity
  8
001
  6
CONTINUOUS
 62
     7
100
AcDbLine
 10
2108.25
 20
911.735779
 30
0.0
 11
1808.165527
 21
911.735779
 31
0.0
  0
ARC
  5
64
100
AcDbEntity
  8
001
  6
CONTINUOUS
 62
     7
100
AcDbCircle
 10
1919.25
 20
1073.735718
 30
0.0
 40
4.0
100
AcDbArc
 50
180.0
 51
270.0
  0
ARC
  5
65
100
AcDbEntity
  8
001
  6
CONTINUOUS
 62
     7
100
AcDbCircle
 10
1900.041992
 20
1073.735718
 30
0.0
 40
4.0
100
AcDbArc
 50
180.0
 51
270.0
  0
LINE
  5
66
100
AcDbEntity
  8
001
  6
CONTINUOUS
 62
     7
100
AcDbLine
 10
1877.287231
 20
1081.11499
 30
0.0
 11
1860.25
 21
1034.735718
 31
0.0
  0
ARC
  5
67
100
AcDbEntity
  8
001
  6
CONTINUOUS
 62
     7
100
AcDbCircle
 10
1881.04191
 20
1079.735718
 30
0.0
 40
4.0
100
AcDbArc
 50
89.998816
 51
159.829307
  0
LINE
  5
68
100
AcDbEntity
  8
001
  6
CONTINUOUS
 62
     7
100
AcDbLine
 10
1896.041992
 20
1079.735718
 30
0.0
 11
1896.041992
 21
1073.735718
 31
0.0
  0
ARC
  5
69
100
AcDbEntity
  8
001
  6
CONTINUOUS
 62
     7
100
AcDbCircle
 10
1892.041992
 20
1079.735718
 30
0.0
 40
4.0
100
AcDbArc
 50
0.0
 51
90.0
  0
LINE
  5
6A
100
AcDbEntity
  8
001
  6
CONTINUOUS
 62
     7
100
AcDbLine
 10
1915.25
 20
1079.735718
 30
0.0
 11
1915.25
 21
1073.735718
 31
0.0
  0
ARC
  5
6B
100
AcDbEntity
  8
001
  6
CONTINUOUS
 62
     7
100
AcDbCircle
 10
1911.25
 20
1079.735718
 30
0.0
 40
4.0
100
AcDbArc
 50
0.0
 51
90.0
  0
LINE
  5
6C
100
AcDbEntity
  8
001
  6
CONTINUOUS
 62
     7
100
AcDbLine
 10
1911.25
 20
1083.735718
 30
0.0
 11
1881.041992
 21
1083.735718
 31
0.0
  0
LINE
  5
6D
100
AcDbEntity
  8
001
  6
CONTINUOUS
 62
     7
100
AcDbLine
 10
2046.25
 20
1034.735718
 30
0.0
 11
2029.212646
 21
1081.11499
 31
0.0
  0
ARC
  5
6E
100
AcDbEntity
  8
001
  6
CONTINUOUS
 62
     7
100
AcDbCircle
 10
2025.45809
 20
1079.735718
 30
0.0
 40
4.0
100
AcDbArc
 50
20.170693
 51
89.999436
  0
ARC
  5
6F
100
AcDbEntity
  8
001
  6
CONTINUOUS
 62
     7
100
AcDbCircle
 10
1987.25
 20
1073.735718
 30
0.0
 40
4.0
100
AcDbArc
 50
270.0
 51
0.0
  0
ARC
  5
70
100
AcDbEntity
  8
001
  6
CONTINUOUS
 62
     7
100
AcDbCircle
 10
2006.458008
 20
1073.735718
 30
0.0
 40
4.0
100
AcDbArc
 50
270.0
 51
0.0
  0
LINE
  5
71
100
AcDbEntity
  8
001
  6
CONTINUOUS
 62
     7
100
AcDbLine
 10
2010.458008
 20
1079.735718
 30
0.0
 11
2010.458008
 21
1073.735718
 31
0.0
  0
ARC
  5
72
100
AcDbEntity
  8
001
  6
CONTINUOUS
 62
     7
100
AcDbCircle
 10
2014.458008
 20
1079.735718
 30
0.0
 40
4.0
100
AcDbArc
 50
90.0
 51
180.0
  0
LINE
  5
73
100
AcDbEntity
  8
001
  6
CONTINUOUS
 62
     7
100
AcDbLine
 10
1991.25
 20
1079.735718
 30
0.0
 11
1991.25
 21
1073.735718
 31
0.0
  0
ARC
  5
74
100
AcDbEntity
  8
001
  6
CONTINUOUS
 62
     7
100
AcDbCircle
 10
1995.25
 20
1079.735718
 30
0.0
 40
4.0
100
AcDbArc
 50
90.0
 51
180.0
  0
LINE
  5
75
100
AcDbEntity
  8
001
  6
CONTINUOUS
 62
     7
100
AcDbLine
 10
1900.041992
 20
1069.735718
 30
0.0
 11
2006.458008
 21
1069.735718
 31
0.0
  0
LINE
  5
76
100
AcDbEntity
  8
001
  6
CONTINUOUS
 62
     7
100
AcDbLine
 10
2025.45813
 20
1083.735718
 30
0.0
 11
1995.25
 21
1083.735718
 31
0.0
  0
LINE
  5
77
100
AcDbEntity
  8
001
  6
CONTINUOUS
 62
     7
100
AcDbLine
 10
2046.25
 20
1034.735718
 30
0.0
 11
1860.25
 21
1034.735718
 31
0.0
  0
LINE
  5
78
100
AcDbEntity
  8
001
  6
CONTINUOUS
 62
     7
100
AcDbLine
 10
1994.237793
 20
1064.685303
 30
0.0
 11
1994.237793
 21
1037.765625
 31
0.0
  0
LINE
  5
79
100
AcDbEntity
  8
001
  6
CONTINUOUS
 62
     7
100
AcDbLine
 10
1912.262207
 20
1064.685303
 30
0.0
 11
1912.262207
 21
1037.765625
 31
0.0
  0
LINE
  5
7A
100
AcDbEntity
  8
001
  6
CONTINUOUS
 62
     7
100
AcDbLine
 10
2010.030762
 20
1034.735718
 30
0.0
 11
2010.030762
 21
983.485657
 31
0.0
  0
LINE
  5
7B
100
AcDbEntity
  8
001
  6
CONTINUOUS
 62
     7
100
AcDbLine
 10
1997.421631
 20
1034.735718
 30
0.0
 11
1997.421631
 21
983.485657
 31
0.0
  0
ARC
  5
7C
100
AcDbEntity
  8
001
  6
CONTINUOUS
 62
     7
100
AcDbCircle
 10
2027.105782
 20
973.485657
 30
0.0
 40
10.0
100
AcDbArc
 50
56.999495
 51
89.998996
  0
LINE
  5
7D
100
AcDbEntity
  8
001
  6
CONTINUOUS
 62
     7
100
AcDbLine
 10
1896.469238
 20
1034.735718
 30
0.0
 11
1896.469238
 21
983.485657
 31
0.0
  0
LINE
  5
7E
100
AcDbEntity
  8
001
  6
CONTINUOUS
 62
     7
100
AcDbLine
 10
1909.078369
 20
1034.735718
 30
0.0
 11
1909.078369
 21
983.485657
 31
0.0
  0
ARC
  5
7F
100
AcDbEntity
  8
001
  6
CONTINUOUS
 62
     7
100
AcDbCircle
 10
1879.394218
 20
973.485657
 30
0.0
 40
10.0
100
AcDbArc
 50
90.001004
 51
123.000505
  0
LINE
  5
80
100
AcDbEntity
  8
001
  6
CONTINUOUS
 62
     7
100
AcDbLine
 10
1879.394043
 20
983.485657
 30
0.0
 11
2027.105957
 21
983.485657
 31
0.0
  0
LINE
  5
81
100
AcDbEntity
  8
001
  6
CONTINUOUS
 62
     7
100
AcDbLine
 10
2108.25
 20
804.235657
 30
0.0
 11
1799.882568
 21
804.235657
 31
0.0
  0
LINE
  5
82
100
AcDbEntity
  8
001
  6
CONTINUOUS
 62
     7
100
AcDbLine
 10
2120.143799
 20
891.76825
 30
0.0
 11
2116.6604
 21
909.069153
 31
0.0
  0
ARC
  5
83
100
AcDbEntity
  8
001
  6
CONTINUOUS
 62
     7
100
AcDbCircle
 10
2087.250619
 20
903.147605
 30
0.0
 40
30.0
100
AcDbArc
 50
11.384079
 51
53.028932
  0
LINE
  5
84
100
AcDbEntity
  8
001
  6
CONTINUOUS
 62
     7
100
AcDbLine
 10
2105.292969
 20
927.115784
 30
0.0
 11
2032.552246
 21
981.872314
 31
0.0
  0
LINE
  5
85
100
AcDbEntity
  8
001
  6
CONTINUOUS
 62
     7
100
AcDbLine
 10
1786.356201
 20
891.76825
 30
0.0
 11
1789.839722
 21
909.069153
 31
0.0
  0
ARC
  5
86
100
AcDbEntity
  8
001
  6
CONTINUOUS
 62
     7
100
AcDbCircle
 10
1819.249504
 20
903.147605
 30
0.0
 40
30.0
100
AcDbArc
 50
126.971068
 51
168.615921
  0
LINE
  5
87
100
AcDbEntity
  8
001
  6
CONTINUOUS
 62
     7
100
AcDbLine
 10
1801.207031
 20
927.115784
 30
0.0
 11
1873.947754
 21
981.872314
 31
0.0
  0
ARC
  5
88
100
AcDbEntity
  8
001
  6
CONTINUOUS
 62
     7
100
AcDbCircle
 10
2089.311198
 20
981.735779
 30
0.0
 40
2.0
100
AcDbArc
 50
199.655549
 51
269.995336
  0
LINE
  5
89
100
AcDbEntity
  8
001
  6
CONTINUOUS
 62
     7
100
AcDbLine
 10
2101.411865
 20
979.735779
 30
0.0
 11
2089.311035
 21
979.735779
 31
0.0
  0
ARC
  5
8A
100
AcDbEntity
  8
001
  6
CONTINUOUS
 62
     7
100
AcDbCircle
 10
2101.411925
 20
981.735779
 30
0.0
 40
2.0
100
AcDbArc
 50
269.998294
 51
19.653692
  0
ARC
  5
8B
100
AcDbEntity
  8
001
  6
CONTINUOUS
 62
     7
100
AcDbCircle
 10
2078.05695
 20
1008.47804
 30
0.0
 40
15.0
100
AcDbArc
 50
19.653518
 51
79.999252
  0
ARC
  5
8C
100
AcDbEntity
  8
001
  6
CONTINUOUS
 62
     7
100
AcDbCircle
 10
1817.188924
 20
981.735779
 30
0.0
 40
2.0
100
AcDbArc
 50
270.001167
 51
340.344451
  0
LINE
  5
8D
100
AcDbEntity
  8
001
  6
CONTINUOUS
 62
     7
100
AcDbLine
 10
1805.088013
 20
979.735779
 30
0.0
 11
1817.188965
 21
979.735779
 31
0.0
  0
ARC
  5
8E
100
AcDbEntity
  8
001
  6
CONTINUOUS
 62
     7
100
AcDbCircle
 10
1805.087953
 20
981.735779
 30
0.0
 40
2.0
100
AcDbArc
 50
160.346308
 51
270.001706
  0
LINE
  5
8F
100
AcDbEntity
  8
001
  6
CONTINUOUS
 62
     7
100
AcDbLine
 10
1803.20459
 20
982.408447
 30
0.0
 11
1814.316895
 21
1013.52301
 31
0.0
  0
ARC
  5
90
100
AcDbEntity
  8
001
  6
CONTINUOUS
 62
     7
100
AcDbCircle
 10
1828.443042
 20
1008.478017
 30
0.0
 40
15.0
100
AcDbArc
 50
100.000242
 51
160.346389
  0
ARC
  5
91
100
AcDbEntity
  8
001
  6
CONTINUOUS
 62
     7
100
AcDbCircle
 10
1115.25
 20
1719.485609
 30
0.0
 40
93.0
100
AcDbArc
 50
238.566717
 51
301.433283
  0
ARC
  5
92
100
AcDbEntity
  8
001
  6
CONTINUOUS
 62
     7
100
AcDbCircle
 10
1115.25
 20
1719.485583
 30
0.0
 40
93.0
100
AcDbArc
 50
58.566717
 51
121.433283
  0
LINE
  5
93
100
AcDbEntity
  8
001
  6
CONTINUOUS
 62
     7
100
AcDbLine
 10
1163.75
 20
1760.473389
 30
0.0
 11
1163.75
 21
1798.837646
 31
0.0
  0
LINE
  5
94
100
AcDbEntity
  8
001
  6
CONTINUOUS
 62
     7
100
AcDbLine
 10
1066.75
 20
1760.473389
 30
0.0
 11
1066.75
 21
1798.837646
 31
0.0
  0
LINE
  5
95
100
AcDbEntity
  8
001
  6
CONTINUOUS
 62
     7
100
AcDbLine
 10
1163.75
 20
1640.133545
 30
0.0
 11
1163.75
 21
1678.497803
 31
0.0
  0
ARC
  5
96
100
AcDbEntity
  8
001
  6
CONTINUOUS
 62
     7
100
AcDbCircle
 10
1115.249991
 20
1719.485596
 30
0.0
 40
63.5
100
AcDbArc
 50
319.798547
 51
40.201453
  0
ARC
  5
97
100
AcDbEntity
  8
001
  6
CONTINUOUS
 62
     7
100
AcDbCircle
 10
1115.250009
 20
1719.485596
 30
0.0
 40
63.5
100
AcDbArc
 50
139.798547
 51
220.201453
  0
LINE
  5
98
100
AcDbEntity
  8
001
  6
CONTINUOUS
 62
     7
100
AcDbLine
 10
1066.75
 20
1640.133545
 30
0.0
 11
1066.75
 21
1678.497803
 31
0.0
  0
LINE
  5
99
100
AcDbEntity
  8
001
  6
CONTINUOUS
 62
     7
100
AcDbLine
 10
1147.316528
 20
1760.272705
 30
0.0
 11
1163.077637
 21
1774.263794
 31
0.0
  0
ARC
  5
9A
100
AcDbEntity
  8
001
  6
CONTINUOUS
 62
     7
100
AcDbCircle
 10
1161.749941
 20
1775.759529
 30
0.0
 40
2.0
100
AcDbArc
 50
311.593994
 51
50.432089
  0
ARC
  5
9B
100
AcDbEntity
  8
001
  6
CONTINUOUS
 62
     7
100
AcDbCircle
 10
1068.749937
 20
1775.759529
 30
0.0
 40
2.0
100
AcDbArc
 50
129.567911
 51
228.406006
  0
LINE
  5
9C
100
AcDbEntity
  8
001
  6
CONTINUOUS
 62
     7
100
AcDbLine
 10
1083.18335
 20
1760.272705
 30
0.0
 11
1067.422241
 21
1774.263794
 31
0.0
  0
ARC
  5
9D
100
AcDbEntity
  8
001
  6
CONTINUOUS
 62
     7
100
AcDbCircle
 10
1115.249939
 20
1719.485647
 30
0.0
 40
75.0
100
AcDbArc
 50
50.432525
 51
129.567475
  0
LINE
  5
9E
100
AcDbEntity
  8
001
  6
CONTINUOUS
 62
     7
100
AcDbLine
 10
1147.316528
 20
1678.698608
 30
0.0
 11
1163.077637
 21
1664.707397
 31
0.0
  0
ARC
  5
9F
100
AcDbEntity
  8
001
  6
CONTINUOUS
 62
     7
100
AcDbCircle
 10
1161.750012
 20
1663.211721
 30
0.0
 40
2.0
100
AcDbArc
 50
309.565264
 51
48.408734
  0
ARC
  5
A0
100
AcDbEntity
  8
001
  6
CONTINUOUS
 62
     7
100
AcDbCircle
 10
1115.249939
 20
1719.485544
 30
0.0
 40
75.0
100
AcDbArc
 50
230.432525
 51
309.567475
  0
ARC
  5
A1
100
AcDbEntity
  8
001
  6
CONTINUOUS
 62
     7
100
AcDbCircle
 10
1068.749866
 20
1663.211721
 30
0.0
 40
2.0
100
AcDbArc
 50
131.591266
 51
230.434736
  0
LINE
  5
A2
100
AcDbEntity
  8
001
  6
CONTINUOUS
 62
     7
100
AcDbLine
 10
1083.18335
 20
1678.698608
 30
0.0
 11
1067.422241
 21
1664.707397
 31
0.0
  0
ARC
  5
A3
100
AcDbEntity
  8
001
  6
CONTINUOUS
 62
     7
100
AcDbCircle
 10
1090.981048
 20
1831.269566
 30
0.0
 40
94.0
100
AcDbArc
 50
100.434372
 51
172.087243
  0
ARC
  5
A4
100
AcDbEntity
  8
001
  6
CONTINUOUS
 62
     7
100
AcDbCircle
 10
1895.249935
 20
1719.485596
 30
0.0
 40
906.0
100
AcDbArc
 50
172.087248
 51
187.912752
  0
ARC
  5
A5
100
AcDbEntity
  8
001
  6
CONTINUOUS
 62
     7
100
AcDbCircle
 10
1090.981111
 20
1607.701614
 30
0.0
 40
94.0
100
AcDbArc
 50
187.91275
 51
259.565589
  0
ARC
  5
A6
100
AcDbEntity
  8
001
  6
CONTINUOUS
 62
     7
100
AcDbCircle
 10
1115.25
 20
1739.485608
 30
0.0
 40
228.0
100
AcDbArc
 50
259.565545
 51
280.434455
  0
ARC
  5
A7
100
AcDbEntity
  8
001
  6
CONTINUOUS
 62
     7
100
AcDbCircle
 10
1139.518764
 20
1607.701591
 30
0.0
 40
94.0
100
AcDbArc
 50
280.434488
 51
352.087265
  0
ARC
  5
A8
100
AcDbEntity
  8
001
  6
CONTINUOUS
 62
     7
100
AcDbCircle
 10
335.249943
 20
1719.485596
 30
0.0
 40
906.0
100
AcDbArc
 50
352.087248
 51
7.912752
  0
ARC
  5
A9
100
AcDbEntity
  8
001
  6
CONTINUOUS
 62
     7
100
AcDbCircle
 10
1139.518764
 20
1831.269601
 30
0.0
 40
94.0
100
AcDbArc
 50
7.912735
 51
79.565512
  0
ARC
  5
AA
100
AcDbEntity
  8
001
  6
CONTINUOUS
 62
     7
100
AcDbCircle
 10
1115.25
 20
1699.485584
 30
0.0
 40
228.0
100
AcDbArc
 50
79.565545
 51
100.434455
  0
ARC
  5
AB
100
AcDbEntity
  8
001
  6
CONTINUOUS
 62
     7
100
AcDbCircle
 10
1115.249939
 20
1739.485581
 30
0.0
 40
186.893799
100
AcDbArc
 50
259.565544
 51
280.434456
  0
ARC
  5
AC
100
AcDbEntity
  8
001
  6
CONTINUOUS
 62
     7
100
AcDbCircle
 10
1139.51875
 20
1607.701573
 30
0.0
 40
52.893799
100
AcDbArc
 50
280.434468
 51
352.087219
  0
ARC
  5
AD
100
AcDbEntity
  8
001
  6
CONTINUOUS
 62
     7
100
AcDbCircle
 10
335.250054
 20
1719.485596
 30
0.0
 40
864.893799
100
AcDbArc
 50
352.087243
 51
7.912757
  0
ARC
  5
AE
100
AcDbEntity
  8
001
  6
CONTINUOUS
 62
     7
100
AcDbCircle
 10
1139.51875
 20
1831.269618
 30
0.0
 40
52.893799
100
AcDbArc
 50
7.912781
 51
79.565532
  0
ARC
  5
AF
100
AcDbEntity
  8
001
  6
CONTINUOUS
 62
     7
100
AcDbCircle
 10
1115.249939
 20
1699.48561
 30
0.0
 40
186.893799
100
AcDbArc
 50
79.565544
 51
100.434456
  0
ARC
  5
B0
100
AcDbEntity
  8
001
  6
CONTINUOUS
 62
     7
100
AcDbCircle
 10
1090.981128
 20
1831.269618
 30
0.0
 40
52.893799
100
AcDbArc
 50
100.434468
 51
172.087219
  0
ARC
  5
B1
100
AcDbEntity
  8
001
  6
CONTINUOUS
 62
     7
100
AcDbCircle
 10
1895.249946
 20
1719.485596
 30
0.0
 40
864.893799
100
AcDbArc
 50
172.087243
 51
187.912757
  0
ARC
  5
B2
100
AcDbEntity
  8
001
  6
CONTINUOUS
 62
     7
100
AcDbCircle
 10
1090.981128
 20
1607.701573
 30
0.0
 40
52.893799
100
AcDbArc
 50
187.912781
 51
259.565532
  0
ARC
  5
B3
100
AcDbEntity
  8
001
  6
CONTINUOUS
 62
     7
100
AcDbCircle
 10
1115.249939
 20
1739.485611
 30
0.0
 40
183.410324
100
AcDbArc
 50
259.565533
 51
280.434467
  0
ARC
  5
B4
100
AcDbEntity
  8
001
  6
CONTINUOUS
 62
     7
100
AcDbCircle
 10
1139.518736
 20
1607.7016
 30
0.0
 40
49.410324
100
AcDbArc
 50
280.434526
 51
352.087258
  0
ARC
  5
B5
100
AcDbEntity
  8
001
  6
CONTINUOUS
 62
     7
100
AcDbCircle
 10
335.250021
 20
1719.485596
 30
0.0
 40
861.410339
100
AcDbArc
 50
352.087247
 51
7.912753
  0
ARC
  5
B6
100
AcDbEntity
  8
001
  6
CONTINUOUS
 62
     7
100
AcDbCircle
 10
1139.518736
 20
1831.269592
 30
0.0
 40
49.410324
100
AcDbArc
 50
7.912742
 51
79.565474
  0
ARC
  5
B7
100
AcDbEntity
  8
001
  6
CONTINUOUS
 62
     7
100
AcDbCircle
 10
1115.249939
 20
1699.485581
 30
0.0
 40
183.410324
100
AcDbArc
 50
79.565533
 51
100.434467
  0
ARC
  5
B8
100
AcDbEntity
  8
001
  6
CONTINUOUS
 62
     7
100
AcDbCircle
 10
1090.981142
 20
1831.269592
 30
0.0
 40
49.410324
100
AcDbArc
 50
100.434526
 51
172.087258
  0
ARC
  5
B9
100
AcDbEntity
  8
001
  6
CONTINUOUS
 62
     7
100
AcDbCircle
 10
1895.249979
 20
1719.485596
 30
0.0
 40
861.410339
100
AcDbArc
 50
172.087247
 51
187.912753
  0
ARC
  5
BA
100
AcDbEntity
  8
001
  6
CONTINUOUS
 62
     7
100
AcDbCircle
 10
1090.981142
 20
1607.7016
 30
0.0
 40
49.410324
100
AcDbArc
 50
187.912742
 51
259.565474
  0
LINE
  5
BB
100
AcDbEntity
  8
001
  6
CONTINUOUS
 62
     7
100
AcDbLine
 10
1067.75
 20
1799.440308
 30
0.0
 11
1067.75
 21
1821.402832
 31
0.0
  0
ARC
  5
BC
100
AcDbEntity
  8
001
  6
CONTINUOUS
 62
     7
100
AcDbCircle
 10
1077.75
 20
1821.402839
 30
0.0
 40
10.0
100
AcDbArc
 50
102.239555
 51
180.000042
  0
LINE
  5
BD
100
AcDbEntity
  8
001
  6
CONTINUOUS
 62
     7
100
AcDbLine
 10
1162.75
 20
1799.440308
 30
0.0
 11
1162.75
 21
1821.402832
 31
0.0
  0
ARC
  5
BE
100
AcDbEntity
  8
001
  6
CONTINUOUS
 62
     7
100
AcDbCircle
 10
1152.75
 20
1821.402813
 30
0.0
 40
10.0
100
AcDbArc
 50
0.00011
 51
77.761161
  0
LINE
  5
BF
100
AcDbEntity
  8
001
  6
CONTINUOUS
 62
     7
100
AcDbLine
 10
1162.75
 20
1639.530884
 30
0.0
 11
1162.75
 21
1617.568359
 31
0.0
  0
ARC
  5
C0
100
AcDbEntity
  8
001
  6
CONTINUOUS
 62
     7
100
AcDbCircle
 10
1152.75
 20
1617.568378
 30
0.0
 40
10.0
100
AcDbArc
 50
282.238839
 51
0.0
  0
LINE
  5
C1
100
AcDbEntity
  8
001
  6
CONTINUOUS
 62
     7
100
AcDbLine
 10
1067.75
 20
1639.530884
 30
0.0
 11
1067.75
 21
1617.568359
 31
0.0
  0
ARC
  5
C2
100
AcDbEntity
  8
001
  6
CONTINUOUS
 62
     7
100
AcDbCircle
 10
1077.75
 20
1617.568352
 30
0.0
 40
10.0
100
AcDbArc
 50
179.999958
 51
257.760445
  0
LINE
  5
C3
100
AcDbEntity
  8
001
  6
CONTINUOUS
 62
     7
100
AcDbLine
 10
2103.29541
 20
982.408447
 30
0.0
 11
2092.183105
 21
1013.52301
 31
0.0
  0
ARC
  5
C4
100
AcDbEntity
  8
001
  6
CONTINUOUS
 62
     7
100
AcDbCircle
 10
1106.916398
 20
1570.485596
 30
0.0
 40
2.0
100
AcDbArc
 50
190.39422
 51
269.999534
  0
LINE
  5
C5
100
AcDbEntity
  8
001
  6
CONTINUOUS
 62
     7
100
AcDbLine
 10
1104.949219
 20
1570.124756
 30
0.0
 11
1096.001709
 21
1618.89563
 31
0.0
  0
ARC
  5
C6
100
AcDbEntity
  8
001
  6
CONTINUOUS
 62
     7
100
AcDbCircle
 10
1091.083805
 20
1617.993286
 30
0.0
 40
5.0
100
AcDbArc
 50
10.397064
 51
90.000747
  0
ARC
  5
C7
100
AcDbEntity
  8
001
  6
CONTINUOUS
 62
     7
100
AcDbCircle
 10
1123.58348
 20
1570.485596
 30
0.0
 40
2.0
100
AcDbArc
 50
270.000466
 51
349.60578
  0
LINE
  5
C8
100
AcDbEntity
  8
001
  6
CONTINUOUS
 62
     7
100
AcDbLine
 10
1125.550659
 20
1570.124756
 30
0.0
 11
1134.498169
 21
1618.89563
 31
0.0
  0
ARC
  5
C9
100
AcDbEntity
  8
001
  6
CONTINUOUS
 62
     7
100
AcDbCircle
 10
1139.416073
 20
1617.993286
 30
0.0
 40
5.0
100
AcDbArc
 50
89.999253
 51
169.602936
  0
LINE
  5
CA
100
AcDbEntity
  8
001
  6
CONTINUOUS
 62
     7
100
AcDbLine
 10
1123.583496
 20
1568.485596
 30
0.0
 11
1106.916382
 21
1568.485596
 31
0.0
  0
LINE
  5
CB
100
AcDbEntity
  8
001
  6
CONTINUOUS
 62
     7
100
AcDbLine
 10
1125.550659
 20
1583.485596
 30
0.0
 11
1104.949219
 21
1583.485596
 31
0.0
  0
LINE
  5
CC
100
AcDbEntity
  8
001
  6
CONTINUOUS
 62
     7
100
AcDbLine
 10
1131.869873
 20
1622.993286
 30
0.0
 11
1099.424072
 21
1622.993286
 31
0.0
  0
ARC
  5
CD
100
AcDbEntity
  8
001
  6
CONTINUOUS
 62
     7
100
AcDbCircle
 10
1115.249324
 20
1790.441764
 30
0.0
 40
186.893799
100
AcDbArc
 50
257.761096
 51
264.914417
  0
ARC
  5
CE
100
AcDbEntity
  8
001
  6
CONTINUOUS
 62
     7
100
AcDbCircle
 10
1115.250553
 20
1790.441764
 30
0.0
 40
186.893799
100
AcDbArc
 50
275.085583
 51
282.238904
  0
ARC
  5
CF
100
AcDbEntity
  8
001
  6
CONTINUOUS
 62
     7
100
AcDbCircle
 10
1123.583502
 20
1868.485596
 30
0.0
 40
2.0
100
AcDbArc
 50
10.397775
 51
90.000176
  0
LINE
  5
D0
100
AcDbEntity
  8
001
  6
CONTINUOUS
 62
     7
100
AcDbLine
 10
1125.550659
 20
1868.846558
 30
0.0
 11
1134.498169
 21
1820.075684
 31
0.0
  0
LINE
  5
D1
100
AcDbEntity
  8
001
  6
CONTINUOUS
 62
     7
100
AcDbLine
 10
1123.583496
 20
1870.485596
 30
0.0
 11
1106.916382
 21
1870.485596
 31
0.0
  0
LINE
  5
D2
100
AcDbEntity
  8
001
  6
CONTINUOUS
 62
     7
100
AcDbLine
 10
1125.550659
 20
1855.485596
 30
0.0
 11
1104.949219
 21
1855.485596
 31
0.0
  0
ARC
  5
D3
100
AcDbEntity
  8
001
  6
CONTINUOUS
 62
     7
100
AcDbCircle
 10
1139.416095
 20
1820.977905
 30
0.0
 40
5.0
100
AcDbArc
 50
190.395642
 51
270.00049
  0
LINE
  5
D4
100
AcDbEntity
  8
001
  6
CONTINUOUS
 62
     7
100
AcDbLine
 10
1131.869873
 20
1815.977905
 30
0.0
 11
1099.424072
 21
1815.977905
 31
0.0
  0
ARC
  5
D5
100
AcDbEntity
  8
001
  6
CONTINUOUS
 62
     7
100
AcDbCircle
 10
1106.916376
 20
1868.485596
 30
0.0
 40
2.0
100
AcDbArc
 50
89.999824
 51
169.602225
  0
LINE
  5
D6
100
AcDbEntity
  8
001
  6
CONTINUOUS
 62
     7
100
AcDbLine
 10
1104.949219
 20
1868.846558
 30
0.0
 11
1096.001709
 21
1820.075684
 31
0.0
  0
ARC
  5
D7
100
AcDbEntity
  8
001
  6
CONTINUOUS
 62
     7
100
AcDbCircle
 10
1091.083783
 20
1820.977905
 30
0.0
 40
5.0
100
AcDbArc
 50
269.99951
 51
349.604358
  0
ARC
  5
D8
100
AcDbEntity
  8
001
  6
CONTINUOUS
 62
     7
100
AcDbCircle
 10
1115.250279
 20
1648.529634
 30
0.0
 40
186.893799
100
AcDbArc
 50
95.085877
 51
102.239203
  0
ARC
  5
D9
100
AcDbEntity
  8
001
  6
CONTINUOUS
 62
     7
100
AcDbCircle
 10
1115.249599
 20
1648.529634
 30
0.0
 40
186.893799
100
AcDbArc
 50
77.760797
 51
84.914123
  0
ARC
  5
DA
100
AcDbEntity
  8
001
  6
CONTINUOUS
 62
     7
100
AcDbCircle
 10
1111.25
 20
1725.485596
 30
0.0
 40
3.0
100
AcDbArc
 50
90.0
 51
180.0
  0
LINE
  5
DB
100
AcDbEntity
  8
001
  6
CONTINUOUS
 62
     7
100
AcDbLine
 10
1108.25
 20
1723.985596
 30
0.0
 11
1108.25
 21
1725.485596
 31
0.0
  0
LINE
  5
DC
100
AcDbEntity
  8
001
  6
CONTINUOUS
 62
     7
100
AcDbLine
 10
1105.25
 20
1723.985596
 30
0.0
 11
1105.25
 21
1725.485596
 31
0.0
  0
ARC
  5
DD
100
AcDbEntity
  8
001
  6
CONTINUOUS
 62
     7
100
AcDbCircle
 10
1111.25
 20
1725.485596
 30
0.0
 40
6.0
100
AcDbArc
 50
90.0
 51
180.0
  0
LINE
  5
DE
100
AcDbEntity
  8
001
  6
CONTINUOUS
 62
     7
100
AcDbLine
 10
1122.25
 20
1725.485596
 30
0.0
 11
1125.25
 21
1725.485596
 31
0.0
  0
ARC
  5
DF
100
AcDbEntity
  8
001
  6
CONTINUOUS
 62
     7
100
AcDbCircle
 10
1119.25
 20
1725.485596
 30
0.0
 40
3.0
100
AcDbArc
 50
0.0
 51
90.0
  0
ARC
  5
E0
100
AcDbEntity
  8
001
  6
CONTINUOUS
 62
     7
100
AcDbCircle
 10
1119.25
 20
1725.485596
 30
0.0
 40
6.0
100
AcDbArc
 50
0.0
 51
90.0
  0
ARC
  5
E1
100
AcDbEntity
  8
001
  6
CONTINUOUS
 62
     7
100
AcDbCircle
 10
1119.25
 20
1713.485596
 30
0.0
 40
6.0
100
AcDbArc
 50
270.0
 51
0.0
  0
LINE
  5
E2
100
AcDbEntity
  8
001
  6
CONTINUOUS
 62
     7
100
AcDbLine
 10
1125.25
 20
1713.485596
 30
0.0
 11
1125.25
 21
1714.985596
 31
0.0
  0
ARC
  5
E3
100
AcDbEntity
  8
001
  6
CONTINUOUS
 62
     7
100
AcDbCircle
 10
1119.25
 20
1714.985596
 30
0.0
 40
6.0
100
AcDbArc
 50
0.0
 51
90.0
  0
LINE
  5
E4
100
AcDbEntity
  8
001
  6
CONTINUOUS
 62
     7
100
AcDbLine
 10
1108.25
 20
1713.485596
 30
0.0
 11
1105.25
 21
1713.485596
 31
0.0
  0
ARC
  5
E5
100
AcDbEntity
  8
001
  6
CONTINUOUS
 62
     7
100
AcDbCircle
 10
1111.25
 20
1723.985596
 30
0.0
 40
3.0
100
AcDbArc
 50
180.0
 51
270.0
  0
ARC
  5
E6
100
AcDbEntity
  8
001
  6
CONTINUOUS
 62
     7
100
AcDbCircle
 10
1119.25
 20
1714.985596
 30
0.0
 40
3.0
100
AcDbArc
 50
0.0
 51
90.0
  0
LINE
  5
E7
100
AcDbEntity
  8
001
  6
CONTINUOUS
 62
     7
100
AcDbLine
 10
1122.25
 20
1713.485596
 30
0.0
 11
1122.25
 21
1714.985596
 31
0.0
  0
ARC
  5
E8
100
AcDbEntity
  8
001
  6
CONTINUOUS
 62
     7
100
AcDbCircle
 10
1119.25
 20
1713.485596
 30
0.0
 40
3.0
100
AcDbArc
 50
270.0
 51
0.0
  0
LINE
  5
E9
100
AcDbEntity
  8
001
  6
CONTINUOUS
 62
     7
100
AcDbLine
 10
1119.25
 20
1710.485596
 30
0.0
 11
1111.25
 21
1710.485596
 31
0.0
  0
ARC
  5
EA
100
AcDbEntity
  8
001
  6
CONTINUOUS
 62
     7
100
AcDbCircle
 10
1111.25
 20
1713.485596
 30
0.0
 40
3.0
100
AcDbArc
 50
180.0
 51
270.0
  0
ARC
  5
EB
100
AcDbEntity
  8
001
  6
CONTINUOUS
 62
     7
100
AcDbCircle
 10
1111.25
 20
1713.485596
 30
0.0
 40
6.0
100
AcDbArc
 50
180.0
 51
270.0
  0
LINE
  5
EC
100
AcDbEntity
  8
001
  6
CONTINUOUS
 62
     7
100
AcDbLine
 10
1119.25
 20
1707.485596
 30
0.0
 11
1111.25
 21
1707.485596
 31
0.0
  0
LINE
  5
ED
100
AcDbEntity
  8
001
  6
CONTINUOUS
 62
     7
100
AcDbLine
 10
1119.25
 20
1720.985596
 30
0.0
 11
1111.25
 21
1720.985596
 31
0.0
  0
LINE
  5
EE
100
AcDbEntity
  8
001
  6
CONTINUOUS
 62
     7
100
AcDbLine
 10
1119.25
 20
1717.985596
 30
0.0
 11
1111.25
 21
1717.985596
 31
0.0
  0
ARC
  5
EF
100
AcDbEntity
  8
001
  6
CONTINUOUS
 62
     7
100
AcDbCircle
 10
1111.25
 20
1723.985596
 30
0.0
 40
6.0
100
AcDbArc
 50
180.0
 51
270.0
  0
LINE
  5
F0
100
AcDbEntity
  8
001
  6
CONTINUOUS
 62
     7
100
AcDbLine
 10
1119.25
 20
1728.485596
 30
0.0
 11
1111.25
 21
1728.485596
 31
0.0
  0
LINE
  5
F1
100
AcDbEntity
  8
001
  6
CONTINUOUS
 62
     7
100
AcDbLine
 10
1119.25
 20
1731.485596
 30
0.0
 11
1111.25
 21
1731.485596
 31
0.0
  0
LINE
  5
F2
100
AcDbEntity
  8
001
  6
CONTINUOUS
 62
     7
100
AcDbLine
 10
1878.919189
 20
1034.735718
 30
0.0
 11
1840.072021
 21
967.00946
 31
0.0
  0
LINE
  5
F3
100
AcDbEntity
  8
001
  6
CONTINUOUS
 62
     7
100
AcDbLine
 10
1828.729248
 20
947.833435
 30
0.0
 11
1866.3125
 21
1034.735718
 31
0.0
  0
LINE
  5
F4
100
AcDbEntity
  8
001
  6
CONTINUOUS
 62
     7
100
AcDbLine
 10
2077.770752
 20
947.833435
 30
0.0
 11
2040.1875
 21
1034.735718
 31
0.0
  0
LINE
  5
F5
100
AcDbEntity
  8
001
  6
CONTINUOUS
 62
     7
100
AcDbLine
 10
2027.580811
 20
1034.735718
 30
0.0
 11
2066.427979
 21
967.00946
 31
0.0
  0
ARC
  5
F6
100
AcDbEntity
  8
001
  6
CONTINUOUS
 62
     7
100
AcDbCircle
 10
1832.622656
 20
1004.137855
 30
0.0
 40
5.0
100
AcDbArc
 50
100.000242
 51
160.346389
  0
LINE
  5
F7
100
AcDbEntity
  8
001
  6
CONTINUOUS
 62
     7
100
AcDbLine
 10
1819.072388
 20
981.063049
 30
0.0
 11
1827.91394
 21
1005.819519
 31
0.0
  0
ARC
  5
F8
100
AcDbEntity
  8
001
  6
CONTINUOUS
 62
     7
100
AcDbCircle
 10
2073.877213
 20
1004.137878
 30
0.0
 40
5.0
100
AcDbArc
 50
19.653332
 51
79.998242
  0
LINE
  5
F9
100
AcDbEntity
  8
001
  6
CONTINUOUS
 62
     7
100
AcDbLine
 10
2087.427734
 20
981.063049
 30
0.0
 11
2078.586182
 21
1005.819519
 31
0.0
  0
CIRCLE
  5
FA
100
AcDbEntity
  8
001
  6
CONTINUOUS
 62
     7
100
AcDbCircle
 10
1223.214233
 20
1676.586426
 30
0.0
 40
12.0
  0
LINE
  5
FB
100
AcDbEntity
  8
001
  6
CONTINUOUS
 62
     7
100
AcDbLine
 10
1211.214233
 20
1683.514648
 30
0.0
 11
1211.214233
 21
1669.658203
 31
0.0
  0
LINE
  5
FC
100
AcDbEntity
  8
001
  6
CONTINUOUS
 62
     7
100
AcDbLine
 10
1223.214233
 20
1690.442871
 30
0.0
 11
1211.214233
 21
1683.514648
 31
0.0
  0
LINE
  5
FD
100
AcDbEntity
  8
001
  6
CONTINUOUS
 62
     7
100
AcDbLine
 10
1235.214233
 20
1683.514648
 30
0.0
 11
1223.214233
 21
1690.442871
 31
0.0
  0
LINE
  5
FE
100
AcDbEntity
  8
001
  6
CONTINUOUS
 62
     7
100
AcDbLine
 10
1235.214233
 20
1669.658203
 30
0.0
 11
1235.214233
 21
1683.514648
 31
0.0
  0
LINE
  5
FF
100
AcDbEntity
  8
001
  6
CONTINUOUS
 62
     7
100
AcDbLine
 10
1211.214233
 20
1669.658203
 30
0.0
 11
1223.214233
 21
1662.730103
 31
0.0
  0
LINE
  5
100
100
AcDbEntity
  8
001
  6
CONTINUOUS
 62
     7
100
AcDbLine
 10
1223.214233
 20
1662.730103
 30
0.0
 11
1235.214233
 21
1669.658203
 31
0.0
  0
CIRCLE
  5
101
100
AcDbEntity
  8
001
  6
CONTINUOUS
 62
     7
100
AcDbCircle
 10
1223.214233
 20
1676.586426
 30
0.0
 40
8.0
  0
CIRCLE
  5
102
100
AcDbEntity
  8
001
  6
CONTINUOUS
 62
     7
100
AcDbCircle
 10
1223.214233
 20
1676.586426
 30
0.0
 40
15.0
  0
CIRCLE
  5
103
100
AcDbEntity
  8
001
  6
CONTINUOUS
 62
     7
100
AcDbCircle
 10
1214.734741
 20
1591.222778
 30
0.0
 40
12.0
  0
LINE
  5
104
100
AcDbEntity
  8
001
  6
CONTINUOUS
 62
     7
100
AcDbLine
 10
1202.734741
 20
1598.150879
 30
0.0
 11
1202.734741
 21
1584.294556
 31
0.0
  0
LINE
  5
105
100
AcDbEntity
  8
001
  6
CONTINUOUS
 62
     7
100
AcDbLine
 10
1214.734741
 20
1605.079102
 30
0.0
 11
1202.734741
 21
1598.150879
 31
0.0
  0
LINE
  5
106
100
AcDbEntity
  8
001
  6
CONTINUOUS
 62
     7
100
AcDbLine
 10
1202.734741
 20
1584.294556
 30
0.0
 11
1214.734741
 21
1577.366333
 31
0.0
  0
CIRCLE
  5
107
100
AcDbEntity
  8
001
  6
CONTINUOUS
 62
     7
100
AcDbCircle
 10
1214.734741
 20
1591.222778
 30
0.0
 40
8.0
  0
CIRCLE
  5
108
100
AcDbEntity
  8
001
  6
CONTINUOUS
 62
     7
100
AcDbCircle
 10
1214.734741
 20
1591.222778
 30
0.0
 40
15.0
  0
LINE
  5
109
100
AcDbEntity
  8
001
  6
CONTINUOUS
 62
     7
100
AcDbLine
 10
1226.734741
 20
1598.150879
 30
0.0
 11
1214.734741
 21
1605.079102
 31
0.0
  0
LINE
  5
10A
100
AcDbEntity
  8
001
  6
CONTINUOUS
 62
     7
100
AcDbLine
 10
1226.734741
 20
1584.294556
 30
0.0
 11
1226.734741
 21
1598.150879
 31
0.0
  0
LINE
  5
10B
100
AcDbEntity
  8
001
  6
CONTINUOUS
 62
     7
100
AcDbLine
 10
1214.734741
 20
1577.366333
 30
0.0
 11
1226.734741
 21
1584.294556
 31
0.0
  0
CIRCLE
  5
10C
100
AcDbEntity
  8
001
  6
CONTINUOUS
 62
     7
100
AcDbCircle
 10
1157.853271
 20
1532.91626
 30
0.0
 40
12.0
  0
LINE
  5
10D
100
AcDbEntity
  8
001
  6
CONTINUOUS
 62
     7
100
AcDbLine
 10
1145.853271
 20
1539.844482
 30
0.0
 11
1145.853271
 21
1525.988037
 31
0.0
  0
LINE
  5
10E
100
AcDbEntity
  8
001
  6
CONTINUOUS
 62
     7
100
AcDbLine
 10
1157.853271
 20
1546.772705
 30
0.0
 11
1145.853271
 21
1539.844482
 31
0.0
  0
LINE
  5
10F
100
AcDbEntity
  8
001
  6
CONTINUOUS
 62
     7
100
AcDbLine
 10
1145.853271
 20
1525.988037
 30
0.0
 11
1157.853271
 21
1519.059814
 31
0.0
  0
CIRCLE
  5
110
100
AcDbEntity
  8
001
  6
CONTINUOUS
 62
     7
100
AcDbCircle
 10
1157.853271
 20
1532.91626
 30
0.0
 40
8.0
  0
CIRCLE
  5
111
100
AcDbEntity
  8
001
  6
CONTINUOUS
 62
     7
100
AcDbCircle
 10
1157.853271
 20
1532.91626
 30
0.0
 40
15.0
  0
LINE
  5
112
100
AcDbEntity
  8
001
  6
CONTINUOUS
 62
     7
100
AcDbLine
 10
1169.853271
 20
1539.844482
 30
0.0
 11
1157.853271
 21
1546.772705
 31
0.0
  0
LINE
  5
113
100
AcDbEntity
  8
001
  6
CONTINUOUS
 62
     7
100
AcDbLine
 10
1169.853271
 20
1525.988037
 30
0.0
 11
1169.853271
 21
1539.844482
 31
0.0
  0
LINE
  5
114
100
AcDbEntity
  8
001
  6
CONTINUOUS
 62
     7
100
AcDbLine
 10
1157.853271
 20
1519.059814
 30
0.0
 11
1169.853271
 21
1525.988037
 31
0.0
  0
CIRCLE
  5
115
100
AcDbEntity
  8
001
  6
CONTINUOUS
 62
     7
100
AcDbCircle
 10
1157.853271
 20
1906.054932
 30
0.0
 40
12.0
  0
LINE
  5
116
100
AcDbEntity
  8
001
  6
CONTINUOUS
 62
     7
100
AcDbLine
 10
1145.853271
 20
1899.126709
 30
0.0
 11
1145.853271
 21
1912.983154
 31
0.0
  0
LINE
  5
117
100
AcDbEntity
  8
001
  6
CONTINUOUS
 62
     7
100
AcDbLine
 10
1157.853271
 20
1892.198608
 30
0.0
 11
1145.853271
 21
1899.126709
 31
0.0
  0
LINE
  5
118
100
AcDbEntity
  8
001
  6
CONTINUOUS
 62
     7
100
AcDbLine
 10
1145.853271
 20
1912.983154
 30
0.0
 11
1157.853271
 21
1919.911377
 31
0.0
  0
CIRCLE
  5
119
100
AcDbEntity
  8
001
  6
CONTINUOUS
 62
     7
100
AcDbCircle
 10
1157.853271
 20
1906.054932
 30
0.0
 40
8.0
  0
CIRCLE
  5
11A
100
AcDbEntity
  8
001
  6
CONTINUOUS
 62
     7
100
AcDbCircle
 10
1157.853271
 20
1906.054932
 30
0.0
 40
15.0
  0
LINE
  5
11B
100
AcDbEntity
  8
001
  6
CONTINUOUS
 62
     7
100
AcDbLine
 10
1169.853271
 20
1899.126709
 30
0.0
 11
1157.853271
 21
1892.198608
 31
0.0
  0
LINE
  5
11C
100
AcDbEntity
  8
001
  6
CONTINUOUS
 62
     7
100
AcDbLine
 10
1169.853271
 20
1912.983154
 30
0.0
 11
1169.853271
 21
1899.126709
 31
0.0
  0
LINE
  5
11D
100
AcDbEntity
  8
001
  6
CONTINUOUS
 62
     7
100
AcDbLine
 10
1157.853271
 20
1919.911377
 30
0.0
 11
1169.853271
 21
1912.983154
 31
0.0
  0
CIRCLE
  5
11E
100
AcDbEntity
  8
001
  6
CONTINUOUS
 62
     7
100
AcDbCircle
 10
1214.734741
 20
1847.748535
 30
0.0
 40
12.0
  0
LINE
  5
11F
100
AcDbEntity
  8
001
  6
CONTINUOUS
 62
     7
100
AcDbLine
 10
1202.734741
 20
1840.820313
 30
0.0
 11
1202.734741
 21
1854.676758
 31
0.0
  0
LINE
  5
120
100
AcDbEntity
  8
001
  6
CONTINUOUS
 62
     7
100
AcDbLine
 10
1214.734741
 20
1833.89209
 30
0.0
 11
1202.734741
 21
1840.820313
 31
0.0
  0
LINE
  5
121
100
AcDbEntity
  8
001
  6
CONTINUOUS
 62
     7
100
AcDbLine
 10
1202.734741
 20
1854.676758
 30
0.0
 11
1214.734741
 21
1861.604858
 31
0.0
  0
CIRCLE
  5
122
100
AcDbEntity
  8
001
  6
CONTINUOUS
 62
     7
100
AcDbCircle
 10
1214.734741
 20
1847.748535
 30
0.0
 40
8.0
  0
CIRCLE
  5
123
100
AcDbEntity
  8
001
  6
CONTINUOUS
 62
     7
100
AcDbCircle
 10
1214.734741
 20
1847.748535
 30
0.0
 40
15.0
  0
LINE
  5
124
100
AcDbEntity
  8
001
  6
CONTINUOUS
 62
     7
100
AcDbLine
 10
1226.734741
 20
1840.820313
 30
0.0
 11
1214.734741
 21
1833.89209
 31
0.0
  0
LINE
  5
125
100
AcDbEntity
  8
001
  6
CONTINUOUS
 62
     7
100
AcDbLine
 10
1214.734741
 20
1861.604858
 30
0.0
 11
1226.734741
 21
1854.676758
 31
0.0
  0
LINE
  5
126
100
AcDbEntity
  8
001
  6
CONTINUOUS
 62
     7
100
AcDbLine
 10
1226.734741
 20
1854.676758
 30
0.0
 11
1226.734741
 21
1840.820313
 31
0.0
  0
CIRCLE
  5
127
100
AcDbEntity
  8
001
  6
CONTINUOUS
 62
     7
100
AcDbCircle
 10
1223.214233
 20
1762.384766
 30
0.0
 40
12.0
  0
LINE
  5
128
100
AcDbEntity
  8
001
  6
CONTINUOUS
 62
     7
100
AcDbLine
 10
1211.214233
 20
1755.456543
 30
0.0
 11
1211.214233
 21
1769.312988
 31
0.0
  0
LINE
  5
129
100
AcDbEntity
  8
001
  6
CONTINUOUS
 62
     7
100
AcDbLine
 10
1223.214233
 20
1748.52832
 30
0.0
 11
1211.214233
 21
1755.456543
 31
0.0
  0
LINE
  5
12A
100
AcDbEntity
  8
001
  6
CONTINUOUS
 62
     7
100
AcDbLine
 10
1235.214233
 20
1755.456543
 30
0.0
 11
1223.214233
 21
1748.52832
 31
0.0
  0
LINE
  5
12B
100
AcDbEntity
  8
001
  6
CONTINUOUS
 62
     7
100
AcDbLine
 10
1235.214233
 20
1769.312988
 30
0.0
 11
1235.214233
 21
1755.456543
 31
0.0
  0
LINE
  5
12C
100
AcDbEntity
  8
001
  6
CONTINUOUS
 62
     7
100
AcDbLine
 10
1211.214233
 20
1769.312988
 30
0.0
 11
1223.214233
 21
1776.241211
 31
0.0
  0
LINE
  5
12D
100
AcDbEntity
  8
001
  6
CONTINUOUS
 62
     7
100
AcDbLine
 10
1223.214233
 20
1776.241211
 30
0.0
 11
1235.214233
 21
1769.312988
 31
0.0
  0
CIRCLE
  5
12E
100
AcDbEntity
  8
001
  6
CONTINUOUS
 62
     7
100
AcDbCircle
 10
1223.214233
 20
1762.384766
 30
0.0
 40
8.0
  0
CIRCLE
  5
12F
100
AcDbEntity
  8
001
  6
CONTINUOUS
 62
     7
100
AcDbCircle
 10
1223.214233
 20
1762.384766
 30
0.0
 40
15.0
  0
CIRCLE
  5
130
100
AcDbEntity
  8
001
  6
CONTINUOUS
 62
     7
100
AcDbCircle
 10
1072.646606
 20
1532.91626
 30
0.0
 40
12.0
  0
LINE
  5
131
100
AcDbEntity
  8
001
  6
CONTINUOUS
 62
     7
100
AcDbLine
 10
1084.646606
 20
1539.844482
 30
0.0
 11
1084.646606
 21
1525.988037
 31
0.0
  0
LINE
  5
132
100
AcDbEntity
  8
001
  6
CONTINUOUS
 62
     7
100
AcDbLine
 10
1072.646606
 20
1546.772705
 30
0.0
 11
1084.646606
 21
1539.844482
 31
0.0
  0
LINE
  5
133
100
AcDbEntity
  8
001
  6
CONTINUOUS
 62
     7
100
AcDbLine
 10
1084.646606
 20
1525.988037
 30
0.0
 11
1072.646606
 21
1519.059937
 31
0.0
  0
CIRCLE
  5
134
100
AcDbEntity
  8
001
  6
CONTINUOUS
 62
     7
100
AcDbCircle
 10
1072.646606
 20
1532.91626
 30
0.0
 40
8.0
  0
CIRCLE
  5
135
100
AcDbEntity
  8
001
  6
CONTINUOUS
 62
     7
100
AcDbCircle
 10
1072.646606
 20
1532.91626
 30
0.0
 40
15.0
  0
LINE
  5
136
100
AcDbEntity
  8
001
  6
CONTINUOUS
 62
     7
100
AcDbLine
 10
1060.646606
 20
1539.844482
 30
0.0
 11
1072.646606
 21
1546.772705
 31
0.0
  0
LINE
  5
137
100
AcDbEntity
  8
001
  6
CONTINUOUS
 62
     7
100
AcDbLine
 10
1060.646606
 20
1525.988037
 30
0.0
 11
1060.646606
 21
1539.844482
 31
0.0
  0
LINE
  5
138
100
AcDbEntity
  8
001
  6
CONTINUOUS
 62
     7
100
AcDbLine
 10
1072.646606
 20
1519.059814
 30
0.0
 11
1060.646606
 21
1525.988037
 31
0.0
  0
CIRCLE
  5
139
100
AcDbEntity
  8
001
  6
CONTINUOUS
 62
     7
100
AcDbCircle
 10
1015.765137
 20
1591.222778
 30
0.0
 40
12.0
  0
LINE
  5
13A
100
AcDbEntity
  8
001
  6
CONTINUOUS
 62
     7
100
AcDbLine
 10
1027.765137
 20
1598.150879
 30
0.0
 11
1027.765137
 21
1584.294556
 31
0.0
  0
LINE
  5
13B
100
AcDbEntity
  8
001
  6
CONTINUOUS
 62
     7
100
AcDbLine
 10
1015.765137
 20
1605.079102
 30
0.0
 11
1027.765137
 21
1598.150879
 31
0.0
  0
LINE
  5
13C
100
AcDbEntity
  8
001
  6
CONTINUOUS
 62
     7
100
AcDbLine
 10
1027.765137
 20
1584.294556
 30
0.0
 11
1015.765137
 21
1577.366333
 31
0.0
  0
CIRCLE
  5
13D
100
AcDbEntity
  8
001
  6
CONTINUOUS
 62
     7
100
AcDbCircle
 10
1015.765137
 20
1591.222778
 30
0.0
 40
8.0
  0
CIRCLE
  5
13E
100
AcDbEntity
  8
001
  6
CONTINUOUS
 62
     7
100
AcDbCircle
 10
1015.765137
 20
1591.222778
 30
0.0
 40
15.0
  0
LINE
  5
13F
100
AcDbEntity
  8
001
  6
CONTINUOUS
 62
     7
100
AcDbLine
 10
1003.765137
 20
1598.150879
 30
0.0
 11
1015.765137
 21
1605.079102
 31
0.0
  0
LINE
  5
140
100
AcDbEntity
  8
001
  6
CONTINUOUS
 62
     7
100
AcDbLine
 10
1003.765137
 20
1584.294556
 30
0.0
 11
1003.765137
 21
1598.150879
 31
0.0
  0
LINE
  5
141
100
AcDbEntity
  8
001
  6
CONTINUOUS
 62
     7
100
AcDbLine
 10
1015.765137
 20
1577.366333
 30
0.0
 11
1003.765137
 21
1584.294556
 31
0.0
  0
CIRCLE
  5
142
100
AcDbEntity
  8
001
  6
CONTINUOUS
 62
     7
100
AcDbCircle
 10
1007.285645
 20
1676.586426
 30
0.0
 40
12.0
  0
LINE
  5
143
100
AcDbEntity
  8
001
  6
CONTINUOUS
 62
     7
100
AcDbLine
 10
1019.285645
 20
1683.514648
 30
0.0
 11
1019.285645
 21
1669.658203
 31
0.0
  0
LINE
  5
144
100
AcDbEntity
  8
001
  6
CONTINUOUS
 62
     7
100
AcDbLine
 10
1007.285645
 20
1690.442871
 30
0.0
 11
1019.285645
 21
1683.514648
 31
0.0
  0
LINE
  5
145
100
AcDbEntity
  8
001
  6
CONTINUOUS
 62
     7
100
AcDbLine
 10
995.285645
 20
1683.514648
 30
0.0
 11
1007.285645
 21
1690.442871
 31
0.0
  0
LINE
  5
146
100
AcDbEntity
  8
001
  6
CONTINUOUS
 62
     7
100
AcDbLine
 10
995.285645
 20
1669.658203
 30
0.0
 11
995.285645
 21
1683.514648
 31
0.0
  0
LINE
  5
147
100
AcDbEntity
  8
001
  6
CONTINUOUS
 62
     7
100
AcDbLine
 10
1019.285645
 20
1669.658203
 30
0.0
 11
1007.285645
 21
1662.730103
 31
0.0
  0
LINE
  5
148
100
AcDbEntity
  8
001
  6
CONTINUOUS
 62
     7
100
AcDbLine
 10
1007.285645
 20
1662.730103
 30
0.0
 11
995.285645
 21
1669.658203
 31
0.0
  0
CIRCLE
  5
149
100
AcDbEntity
  8
001
  6
CONTINUOUS
 62
     7
100
AcDbCircle
 10
1007.285645
 20
1676.586426
 30
0.0
 40
8.0
  0
CIRCLE
  5
14A
100
AcDbEntity
  8
001
  6
CONTINUOUS
 62
     7
100
AcDbCircle
 10
1007.285645
 20
1676.586426
 30
0.0
 40
15.0
  0
CIRCLE
  5
14B
100
AcDbEntity
  8
001
  6
CONTINUOUS
 62
     7
100
AcDbCircle
 10
1007.285645
 20
1762.384766
 30
0.0
 40
12.0
  0
LINE
  5
14C
100
AcDbEntity
  8
001
  6
CONTINUOUS
 62
     7
100
AcDbLine
 10
1019.285645
 20
1755.456543
 30
0.0
 11
1019.285645
 21
1769.312988
 31
0.0
  0
LINE
  5
14D
100
AcDbEntity
  8
001
  6
CONTINUOUS
 62
     7
100
AcDbLine
 10
1007.285645
 20
1748.52832
 30
0.0
 11
1019.285645
 21
1755.456543
 31
0.0
  0
LINE
  5
14E
100
AcDbEntity
  8
001
  6
CONTINUOUS
 62
     7
100
AcDbLine
 10
995.285645
 20
1755.456543
 30
0.0
 11
1007.285645
 21
1748.52832
 31
0.0
  0
LINE
  5
14F
100
AcDbEntity
  8
001
  6
CONTINUOUS
 62
     7
100
AcDbLine
 10
995.285645
 20
1769.312988
 30
0.0
 11
995.285645
 21
1755.456543
 31
0.0
  0
LINE
  5
150
100
AcDbEntity
  8
001
  6
CONTINUOUS
 62
     7
100
AcDbLine
 10
1019.285645
 20
1769.312988
 30
0.0
 11
1007.285645
 21
1776.241211
 31
0.0
  0
LINE
  5
151
100
AcDbEntity
  8
001
  6
CONTINUOUS
 62
     7
100
AcDbLine
 10
1007.285645
 20
1776.241211
 30
0.0
 11
995.285645
 21
1769.312988
 31
0.0
  0
CIRCLE
  5
152
100
AcDbEntity
  8
001
  6
CONTINUOUS
 62
     7
100
AcDbCircle
 10
1007.285645
 20
1762.384766
 30
0.0
 40
8.0
  0
CIRCLE
  5
153
100
AcDbEntity
  8
001
  6
CONTINUOUS
 62
     7
100
AcDbCircle
 10
1007.285645
 20
1762.384766
 30
0.0
 40
15.0
  0
CIRCLE
  5
154
100
AcDbEntity
  8
001
  6
CONTINUOUS
 62
     7
100
AcDbCircle
 10
1015.765137
 20
1847.748535
 30
0.0
 40
12.0
  0
LINE
  5
155
100
AcDbEntity
  8
001
  6
CONTINUOUS
 62
     7
100
AcDbLine
 10
1027.765137
 20
1840.820313
 30
0.0
 11
1027.765137
 21
1854.676758
 31
0.0
  0
LINE
  5
156
100
AcDbEntity
  8
001
  6
CONTINUOUS
 62
     7
100
AcDbLine
 10
1015.765137
 20
1833.89209
 30
0.0
 11
1027.765137
 21
1840.820313
 31
0.0
  0
LINE
  5
157
100
AcDbEntity
  8
001
  6
CONTINUOUS
 62
     7
100
AcDbLine
 10
1027.765137
 20
1854.676758
 30
0.0
 11
1015.765137
 21
1861.604858
 31
0.0
  0
CIRCLE
  5
158
100
AcDbEntity
  8
001
  6
CONTINUOUS
 62
     7
100
AcDbCircle
 10
1015.765137
 20
1847.748535
 30
0.0
 40
8.0
  0
CIRCLE
  5
159
100
AcDbEntity
  8
001
  6
CONTINUOUS
 62
     7
100
AcDbCircle
 10
1015.765137
 20
1847.748535
 30
0.0
 40
15.0
  0
LINE
  5
15A
100
AcDbEntity
  8
001
  6
CONTINUOUS
 62
     7
100
AcDbLine
 10
1003.765137
 20
1840.820313
 30
0.0
 11
1015.765137
 21
1833.89209
 31
0.0
  0
LINE
  5
15B
100
AcDbEntity
  8
001
  6
CONTINUOUS
 62
     7
100
AcDbLine
 10
1015.765137
 20
1861.604858
 30
0.0
 11
1003.765137
 21
1854.676758
 31
0.0
  0
LINE
  5
15C
100
AcDbEntity
  8
001
  6
CONTINUOUS
 62
     7
100
AcDbLine
 10
1003.765137
 20
1854.676758
 30
0.0
 11
1003.765137
 21
1840.820313
 31
0.0
  0
CIRCLE
  5
15D
100
AcDbEntity
  8
001
  6
CONTINUOUS
 62
     7
100
AcDbCircle
 10
1072.646606
 20
1906.054932
 30
0.0
 40
12.0
  0
LINE
  5
15E
100
AcDbEntity
  8
001
  6
CONTINUOUS
 62
     7
100
AcDbLine
 10
1084.646606
 20
1899.126709
 30
0.0
 11
1084.646606
 21
1912.983154
 31
0.0
  0
LINE
  5
15F
100
AcDbEntity
  8
001
  6
CONTINUOUS
 62
     7
100
AcDbLine
 10
1072.646606
 20
1892.198608
 30
0.0
 11
1084.646606
 21
1899.126709
 31
0.0
  0
LINE
  5
160
100
AcDbEntity
  8
001
  6
CONTINUOUS
 62
     7
100
AcDbLine
 10
1084.646606
 20
1912.983154
 30
0.0
 11
1072.646606
 21
1919.911377
 31
0.0
  0
CIRCLE
  5
161
100
AcDbEntity
  8
001
  6
CONTINUOUS
 62
     7
100
AcDbCircle
 10
1072.646606
 20
1906.054932
 30
0.0
 40
8.0
  0
CIRCLE
  5
162
100
AcDbEntity
  8
001
  6
CONTINUOUS
 62
     7
100
AcDbCircle
 10
1072.646606
 20
1906.054932
 30
0.0
 40
15.0
  0
LINE
  5
163
100
AcDbEntity
  8
001
  6
CONTINUOUS
 62
     7
100
AcDbLine
 10
1060.646606
 20
1899.126709
 30
0.0
 11
1072.646606
 21
1892.198608
 31
0.0
  0
LINE
  5
164
100
AcDbEntity
  8
001
  6
CONTINUOUS
 62
     7
100
AcDbLine
 10
1060.646606
 20
1912.983154
 30
0.0
 11
1060.646606
 21
1899.126709
 31
0.0
  0
LINE
  5
165
100
AcDbEntity
  8
001
  6
CONTINUOUS
 62
     7
100
AcDbLine
 10
1072.646606
 20
1919.911377
 30
0.0
 11
1060.646606
 21
1912.983154
 31
0.0
  0
LINE
  5
166
100
AcDbEntity
  8
001
  6
CONTINUOUS
 62
     7
100
AcDbLine
 10
2153.675781
 20
896.375427
 30
0.0
 11
2153.675781
 21
884.735901
 31
0.0
  0
LINE
  5
167
100
AcDbEntity
  8
001
  6
CONTINUOUS
 62
     7
100
AcDbLine
 10
2146.747559
 20
896.375427
 30
0.0
 11
2146.747559
 21
884.735901
 31
0.0
  0
LINE
  5
168
100
AcDbEntity
  8
001
  6
CONTINUOUS
 62
     7
100
AcDbLine
 10
2153.81958
 20
884.735901
 30
0.0
 11
2125.819336
 21
884.735901
 31
0.0
  0
LINE
  5
169
100
AcDbEntity
  8
001
  6
CONTINUOUS
 62
     7
100
AcDbLine
 10
2153.81958
 20
881.977966
 30
0.0
 11
2153.81958
 21
884.735901
 31
0.0
  0
LINE
  5
16A
100
AcDbEntity
  8
001
  6
CONTINUOUS
 62
     7
100
AcDbLine
 10
2132.891357
 20
896.375427
 30
0.0
 11
2132.891357
 21
884.735901
 31
0.0
  0
LINE
  5
16B
100
AcDbEntity
  8
001
  6
CONTINUOUS
 62
     7
100
AcDbLine
 10
2125.963135
 20
896.375427
 30
0.0
 11
2125.963135
 21
884.735901
 31
0.0
  0
LINE
  5
16C
100
AcDbEntity
  8
001
  6
CONTINUOUS
 62
     7
100
AcDbLine
 10
2125.819336
 20
881.735779
 30
0.0
 11
2125.819336
 21
884.735901
 31
0.0
  0
ARC
  5
16D
100
AcDbEntity
  8
001
  6
CONTINUOUS
 62
     7
100
AcDbCircle
 10
2150.211706
 20
891.313247
 30
0.0
 40
6.134002
100
AcDbArc
 50
64.382919
 51
124.384584
  0
ARC
  5
16E
100
AcDbEntity
  8
001
  6
CONTINUOUS
 62
     7
100
AcDbCircle
 10
2139.819458
 20
874.518924
 30
0.0
 40
22.928265
100
AcDbArc
 50
72.412364
 51
107.587636
  0
ARC
  5
16F
100
AcDbEntity
  8
001
  6
CONTINUOUS
 62
     7
100
AcDbCircle
 10
2129.42721
 20
891.313247
 30
0.0
 40
6.134002
100
AcDbArc
 50
55.615416
 51
115.617081
  0
LINE
  5
170
100
AcDbEntity
  8
001
  6
CONTINUOUS
 62
     7
100
AcDbLine
 10
2151.31958
 20
897.735901
 30
0.0
 11
2153.675781
 21
896.375427
 31
0.0
  0
LINE
  5
171
100
AcDbEntity
  8
001
  6
CONTINUOUS
 62
     7
100
AcDbLine
 10
2128.319336
 20
897.735901
 30
0.0
 11
2125.963135
 21
896.375427
 31
0.0
  0
LINE
  5
172
100
AcDbEntity
  8
001
  6
CONTINUOUS
 62
     7
100
AcDbLine
 10
2151.31958
 20
897.735901
 30
0.0
 11
2128.319336
 21
897.735901
 31
0.0
  0
LINE
  5
173
100
AcDbEntity
  8
001
  6
CONTINUOUS
 62
     7
100
AcDbLine
 10
2147.81958
 20
904.735901
 30
0.0
 11
2131.819336
 21
904.735901
 31
0.0
  0
ARC
  5
174
100
AcDbEntity
  8
001
  6
CONTINUOUS
 62
     7
100
AcDbCircle
 10
2139.819458
 20
889.735644
 30
0.0
 40
17.000284
100
AcDbArc
 50
61.927558
 51
118.072442
  0
LINE
  5
175
100
AcDbEntity
  8
001
  6
CONTINUOUS
 62
     7
100
AcDbLine
 10
2131.819336
 20
904.735901
 30
0.0
 11
2131.819336
 21
897.735901
 31
0.0
  0
LINE
  5
176
100
AcDbEntity
  8
001
  6
CONTINUOUS
 62
     7
100
AcDbLine
 10
2147.81958
 20
904.735901
 30
0.0
 11
2147.81958
 21
897.735901
 31
0.0
  0
LINE
  5
177
100
AcDbEntity
  8
001
  6
CONTINUOUS
 62
     7
100
AcDbLine
 10
2153.81958
 20
832.485779
 30
0.0
 11
2125.819336
 21
832.485779
 31
0.0
  0
LINE
  5
178
100
AcDbEntity
  8
001
  6
CONTINUOUS
 62
     7
100
AcDbLine
 10
2125.819336
 20
835.485779
 30
0.0
 11
2125.819336
 21
832.485779
 31
0.0
  0
ARC
  5
179
100
AcDbEntity
  8
001
  6
CONTINUOUS
 62
     7
100
AcDbCircle
 10
2139.819458
 20
845.702756
 30
0.0
 40
22.928265
100
AcDbArc
 50
252.412364
 51
287.587636
  0
ARC
  5
17A
100
AcDbEntity
  8
001
  6
CONTINUOUS
 62
     7
100
AcDbCircle
 10
2150.21181
 20
828.908361
 30
0.0
 40
6.134002
100
AcDbArc
 50
235.614229
 51
295.615994
  0
LINE
  5
17B
100
AcDbEntity
  8
001
  6
CONTINUOUS
 62
     7
100
AcDbLine
 10
2151.31958
 20
822.485779
 30
0.0
 11
2153.675781
 21
823.846252
 31
0.0
  0
LINE
  5
17C
100
AcDbEntity
  8
001
  6
CONTINUOUS
 62
     7
100
AcDbLine
 10
2128.319336
 20
822.485779
 30
0.0
 11
2151.31958
 21
822.485779
 31
0.0
  0
LINE
  5
17D
100
AcDbEntity
  8
001
  6
CONTINUOUS
 62
     7
100
AcDbLine
 10
2132.891357
 20
823.846252
 30
0.0
 11
2132.891357
 21
832.485779
 31
0.0
  0
LINE
  5
17E
100
AcDbEntity
  8
001
  6
CONTINUOUS
 62
     7
100
AcDbLine
 10
2146.747559
 20
823.846252
 30
0.0
 11
2146.747559
 21
832.485779
 31
0.0
  0
LINE
  5
17F
100
AcDbEntity
  8
001
  6
CONTINUOUS
 62
     7
100
AcDbLine
 10
2153.675781
 20
823.846252
 30
0.0
 11
2153.675781
 21
832.485779
 31
0.0
  0
ARC
  5
180
100
AcDbEntity
  8
001
  6
CONTINUOUS
 62
     7
100
AcDbCircle
 10
2129.427106
 20
828.908361
 30
0.0
 40
6.134002
100
AcDbArc
 50
244.384006
 51
304.385771
  0
LINE
  5
181
100
AcDbEntity
  8
001
  6
CONTINUOUS
 62
     7
100
AcDbLine
 10
2128.319336
 20
822.485779
 30
0.0
 11
2125.963135
 21
823.846252
 31
0.0
  0
LINE
  5
182
100
AcDbEntity
  8
001
  6
CONTINUOUS
 62
     7
100
AcDbLine
 10
2125.963135
 20
823.846252
 30
0.0
 11
2125.963135
 21
832.485779
 31
0.0
  0
LINE
  5
183
100
AcDbEntity
  8
001
  6
CONTINUOUS
 62
     7
100
AcDbLine
 10
2153.81958
 20
835.485779
 30
0.0
 11
2153.81958
 21
832.485779
 31
0.0
  0
LINE
  5
184
100
AcDbEntity
  8
001
  6
CONTINUOUS
 62
     7
100
AcDbLine
 10
2095.369385
 20
896.375427
 30
0.0
 11
2095.369385
 21
884.735901
 31
0.0
  0
LINE
  5
185
100
AcDbEntity
  8
001
  6
CONTINUOUS
 62
     7
100
AcDbLine
 10
2088.441162
 20
896.375427
 30
0.0
 11
2088.441162
 21
884.735901
 31
0.0
  0
LINE
  5
186
100
AcDbEntity
  8
001
  6
CONTINUOUS
 62
     7
100
AcDbLine
 10
2095.513184
 20
884.735901
 30
0.0
 11
2067.512939
 21
884.735901
 31
0.0
  0
LINE
  5
187
100
AcDbEntity
  8
001
  6
CONTINUOUS
 62
     7
100
AcDbLine
 10
2095.513184
 20
881.977966
 30
0.0
 11
2095.513184
 21
884.735901
 31
0.0
  0
LINE
  5
188
100
AcDbEntity
  8
001
  6
CONTINUOUS
 62
     7
100
AcDbLine
 10
2074.584961
 20
896.375427
 30
0.0
 11
2074.584961
 21
884.735901
 31
0.0
  0
LINE
  5
189
100
AcDbEntity
  8
001
  6
CONTINUOUS
 62
     7
100
AcDbLine
 10
2067.656738
 20
896.375427
 30
0.0
 11
2067.656738
 21
884.735901
 31
0.0
  0
LINE
  5
18A
100
AcDbEntity
  8
001
  6
CONTINUOUS
 62
     7
100
AcDbLine
 10
2067.512939
 20
881.735779
 30
0.0
 11
2067.512939
 21
884.735901
 31
0.0
  0
ARC
  5
18B
100
AcDbEntity
  8
001
  6
CONTINUOUS
 62
     7
100
AcDbCircle
 10
2091.905309
 20
891.313247
 30
0.0
 40
6.134002
100
AcDbArc
 50
64.382919
 51
124.384584
  0
ARC
  5
18C
100
AcDbEntity
  8
001
  6
CONTINUOUS
 62
     7
100
AcDbCircle
 10
2081.513062
 20
874.518924
 30
0.0
 40
22.928265
100
AcDbArc
 50
72.412364
 51
107.587636
  0
ARC
  5
18D
100
AcDbEntity
  8
001
  6
CONTINUOUS
 62
     7
100
AcDbCircle
 10
2071.120814
 20
891.313247
 30
0.0
 40
6.134002
100
AcDbArc
 50
55.615416
 51
115.617081
  0
LINE
  5
18E
100
AcDbEntity
  8
001
  6
CONTINUOUS
 62
     7
100
AcDbLine
 10
2093.013184
 20
897.735901
 30
0.0
 11
2095.369385
 21
896.375427
 31
0.0
  0
LINE
  5
18F
100
AcDbEntity
  8
001
  6
CONTINUOUS
 62
     7
100
AcDbLine
 10
2070.012939
 20
897.735901
 30
0.0
 11
2067.656738
 21
896.375427
 31
0.0
  0
LINE
  5
190
100
AcDbEntity
  8
001
  6
CONTINUOUS
 62
     7
100
AcDbLine
 10
2093.013184
 20
897.735901
 30
0.0
 11
2070.012939
 21
897.735901
 31
0.0
  0
LINE
  5
191
100
AcDbEntity
  8
001
  6
CONTINUOUS
 62
     7
100
AcDbLine
 10
2089.513184
 20
904.735901
 30
0.0
 11
2073.512939
 21
904.735901
 31
0.0
  0
ARC
  5
192
100
AcDbEntity
  8
001
  6
CONTINUOUS
 62
     7
100
AcDbCircle
 10
2081.513062
 20
889.735644
 30
0.0
 40
17.000284
100
AcDbArc
 50
61.927558
 51
118.072442
  0
LINE
  5
193
100
AcDbEntity
  8
001
  6
CONTINUOUS
 62
     7
100
AcDbLine
 10
2073.512939
 20
904.735901
 30
0.0
 11
2073.512939
 21
897.735901
 31
0.0
  0
LINE
  5
194
100
AcDbEntity
  8
001
  6
CONTINUOUS
 62
     7
100
AcDbLine
 10
2089.513184
 20
904.735901
 30
0.0
 11
2089.513184
 21
897.735901
 31
0.0
  0
LINE
  5
195
100
AcDbEntity
  8
001
  6
CONTINUOUS
 62
     7
100
AcDbLine
 10
2095.513184
 20
832.485779
 30
0.0
 11
2067.512939
 21
832.485779
 31
0.0
  0
LINE
  5
196
100
AcDbEntity
  8
001
  6
CONTINUOUS
 62
     7
100
AcDbLine
 10
2067.512939
 20
835.485779
 30
0.0
 11
2067.512939
 21
832.485779
 31
0.0
  0
ARC
  5
197
100
AcDbEntity
  8
001
  6
CONTINUOUS
 62
     7
100
AcDbCircle
 10
2081.513062
 20
845.702756
 30
0.0
 40
22.928265
100
AcDbArc
 50
252.412364
 51
287.587636
  0
ARC
  5
198
100
AcDbEntity
  8
001
  6
CONTINUOUS
 62
     7
100
AcDbCircle
 10
2091.905414
 20
828.908361
 30
0.0
 40
6.134002
100
AcDbArc
 50
235.614229
 51
295.615994
  0
LINE
  5
199
100
AcDbEntity
  8
001
  6
CONTINUOUS
 62
     7
100
AcDbLine
 10
2093.013184
 20
822.485779
 30
0.0
 11
2095.369385
 21
823.846252
 31
0.0
  0
LINE
  5
19A
100
AcDbEntity
  8
001
  6
CONTINUOUS
 62
     7
100
AcDbLine
 10
2070.012939
 20
822.485779
 30
0.0
 11
2093.013184
 21
822.485779
 31
0.0
  0
LINE
  5
19B
100
AcDbEntity
  8
001
  6
CONTINUOUS
 62
     7
100
AcDbLine
 10
2074.584961
 20
823.846252
 30
0.0
 11
2074.584961
 21
832.485779
 31
0.0
  0
LINE
  5
19C
100
AcDbEntity
  8
001
  6
CONTINUOUS
 62
     7
100
AcDbLine
 10
2088.441162
 20
823.846252
 30
0.0
 11
2088.441162
 21
832.485779
 31
0.0
  0
LINE
  5
19D
100
AcDbEntity
  8
001
  6
CONTINUOUS
 62
     7
100
AcDbLine
 10
2095.369385
 20
823.846252
 30
0.0
 11
2095.369385
 21
832.485779
 31
0.0
  0
ARC
  5
19E
100
AcDbEntity
  8
001
  6
CONTINUOUS
 62
     7
100
AcDbCircle
 10
2071.120709
 20
828.908361
 30
0.0
 40
6.134002
100
AcDbArc
 50
244.384006
 51
304.385771
  0
LINE
  5
19F
100
AcDbEntity
  8
001
  6
CONTINUOUS
 62
     7
100
AcDbLine
 10
2070.012939
 20
822.485779
 30
0.0
 11
2067.656738
 21
823.846252
 31
0.0
  0
LINE
  5
1A0
100
AcDbEntity
  8
001
  6
CONTINUOUS
 62
     7
100
AcDbLine
 10
2067.656738
 20
823.846252
 30
0.0
 11
2067.656738
 21
832.485779
 31
0.0
  0
LINE
  5
1A1
100
AcDbEntity
  8
001
  6
CONTINUOUS
 62
     7
100
AcDbLine
 10
2095.513184
 20
835.485779
 30
0.0
 11
2095.513184
 21
832.485779
 31
0.0
  0
LINE
  5
1A2
100
AcDbEntity
  8
001
  6
CONTINUOUS
 62
     7
100
AcDbLine
 10
2010.005615
 20
896.375427
 30
0.0
 11
2010.005615
 21
884.735901
 31
0.0
  0
LINE
  5
1A3
100
AcDbEntity
  8
001
  6
CONTINUOUS
 62
     7
100
AcDbLine
 10
2003.077393
 20
896.375427
 30
0.0
 11
2003.077393
 21
884.735901
 31
0.0
  0
LINE
  5
1A4
100
AcDbEntity
  8
001
  6
CONTINUOUS
 62
     7
100
AcDbLine
 10
2010.149414
 20
884.735901
 30
0.0
 11
1982.14917
 21
884.735901
 31
0.0
  0
LINE
  5
1A5
100
AcDbEntity
  8
001
  6
CONTINUOUS
 62
     7
100
AcDbLine
 10
2010.149414
 20
881.977966
 30
0.0
 11
2010.149414
 21
884.735901
 31
0.0
  0
LINE
  5
1A6
100
AcDbEntity
  8
001
  6
CONTINUOUS
 62
     7
100
AcDbLine
 10
1989.221191
 20
896.375427
 30
0.0
 11
1989.221191
 21
884.735901
 31
0.0
  0
LINE
  5
1A7
100
AcDbEntity
  8
001
  6
CONTINUOUS
 62
     7
100
AcDbLine
 10
1982.292969
 20
896.375427
 30
0.0
 11
1982.292969
 21
884.735901
 31
0.0
  0
LINE
  5
1A8
100
AcDbEntity
  8
001
  6
CONTINUOUS
 62
     7
100
AcDbLine
 10
1982.14917
 20
881.735779
 30
0.0
 11
1982.14917
 21
884.735901
 31
0.0
  0
ARC
  5
1A9
100
AcDbEntity
  8
001
  6
CONTINUOUS
 62
     7
100
AcDbCircle
 10
2006.54154
 20
891.313247
 30
0.0
 40
6.134002
100
AcDbArc
 50
64.382919
 51
124.384584
  0
ARC
  5
1AA
100
AcDbEntity
  8
001
  6
CONTINUOUS
 62
     7
100
AcDbCircle
 10
1996.149292
 20
874.518924
 30
0.0
 40
22.928265
100
AcDbArc
 50
72.412364
 51
107.587636
  0
ARC
  5
1AB
100
AcDbEntity
  8
001
  6
CONTINUOUS
 62
     7
100
AcDbCircle
 10
1985.757044
 20
891.313247
 30
0.0
 40
6.134002
100
AcDbArc
 50
55.615416
 51
115.617081
  0
LINE
  5
1AC
100
AcDbEntity
  8
001
  6
CONTINUOUS
 62
     7
100
AcDbLine
 10
2007.649414
 20
897.735901
 30
0.0
 11
2010.005615
 21
896.375427
 31
0.0
  0
LINE
  5
1AD
100
AcDbEntity
  8
001
  6
CONTINUOUS
 62
     7
100
AcDbLine
 10
1984.64917
 20
897.735901
 30
0.0
 11
1982.292969
 21
896.375427
 31
0.0
  0
LINE
  5
1AE
100
AcDbEntity
  8
001
  6
CONTINUOUS
 62
     7
100
AcDbLine
 10
2007.649414
 20
897.735901
 30
0.0
 11
1984.64917
 21
897.735901
 31
0.0
  0
LINE
  5
1AF
100
AcDbEntity
  8
001
  6
CONTINUOUS
 62
     7
100
AcDbLine
 10
2004.149414
 20
904.735901
 30
0.0
 11
1988.14917
 21
904.735901
 31
0.0
  0
ARC
  5
1B0
100
AcDbEntity
  8
001
  6
CONTINUOUS
 62
     7
100
AcDbCircle
 10
1996.149292
 20
889.735644
 30
0.0
 40
17.000284
100
AcDbArc
 50
61.927558
 51
118.072442
  0
LINE
  5
1B1
100
AcDbEntity
  8
001
  6
CONTINUOUS
 62
     7
100
AcDbLine
 10
1988.14917
 20
904.735901
 30
0.0
 11
1988.14917
 21
897.735901
 31
0.0
  0
LINE
  5
1B2
100
AcDbEntity
  8
001
  6
CONTINUOUS
 62
     7
100
AcDbLine
 10
2004.149414
 20
904.735901
 30
0.0
 11
2004.149414
 21
897.735901
 31
0.0
  0
LINE
  5
1B3
100
AcDbEntity
  8
001
  6
CONTINUOUS
 62
     7
100
AcDbLine
 10
2010.149414
 20
832.485779
 30
0.0
 11
1982.14917
 21
832.485779
 31
0.0
  0
LINE
  5
1B4
100
AcDbEntity
  8
001
  6
CONTINUOUS
 62
     7
100
AcDbLine
 10
1982.14917
 20
835.485779
 30
0.0
 11
1982.14917
 21
832.485779
 31
0.0
  0
ARC
  5
1B5
100
AcDbEntity
  8
001
  6
CONTINUOUS
 62
     7
100
AcDbCircle
 10
1996.149292
 20
845.702756
 30
0.0
 40
22.928265
100
AcDbArc
 50
252.412364
 51
287.587636
  0
ARC
  5
1B6
100
AcDbEntity
  8
001
  6
CONTINUOUS
 62
     7
100
AcDbCircle
 10
2006.541644
 20
828.908361
 30
0.0
 40
6.134002
100
AcDbArc
 50
235.614229
 51
295.615994
  0
LINE
  5
1B7
100
AcDbEntity
  8
001
  6
CONTINUOUS
 62
     7
100
AcDbLine
 10
2007.649414
 20
822.485779
 30
0.0
 11
2010.005615
 21
823.846252
 31
0.0
  0
LINE
  5
1B8
100
AcDbEntity
  8
001
  6
CONTINUOUS
 62
     7
100
AcDbLine
 10
1984.64917
 20
822.485779
 30
0.0
 11
2007.649414
 21
822.485779
 31
0.0
  0
LINE
  5
1B9
100
AcDbEntity
  8
001
  6
CONTINUOUS
 62
     7
100
AcDbLine
 10
1989.221191
 20
823.846252
 30
0.0
 11
1989.221191
 21
832.485779
 31
0.0
  0
LINE
  5
1BA
100
AcDbEntity
  8
001
  6
CONTINUOUS
 62
     7
100
AcDbLine
 10
2003.077393
 20
823.846252
 30
0.0
 11
2003.077393
 21
832.485779
 31
0.0
  0
LINE
  5
1BB
100
AcDbEntity
  8
001
  6
CONTINUOUS
 62
     7
100
AcDbLine
 10
2010.005615
 20
823.846252
 30
0.0
 11
2010.005615
 21
832.485779
 31
0.0
  0
ARC
  5
1BC
100
AcDbEntity
  8
001
  6
CONTINUOUS
 62
     7
100
AcDbCircle
 10
1985.75694
 20
828.908361
 30
0.0
 40
6.134002
100
AcDbArc
 50
244.384006
 51
304.385771
  0
LINE
  5
1BD
100
AcDbEntity
  8
001
  6
CONTINUOUS
 62
     7
100
AcDbLine
 10
1984.64917
 20
822.485779
 30
0.0
 11
1982.292969
 21
823.846252
 31
0.0
  0
LINE
  5
1BE
100
AcDbEntity
  8
001
  6
CONTINUOUS
 62
     7
100
AcDbLine
 10
1982.292969
 20
823.846252
 30
0.0
 11
1982.292969
 21
832.485779
 31
0.0
  0
LINE
  5
1BF
100
AcDbEntity
  8
001
  6
CONTINUOUS
 62
     7
100
AcDbLine
 10
2010.149414
 20
835.485779
 30
0.0
 11
2010.149414
 21
832.485779
 31
0.0
  0
LINE
  5
1C0
100
AcDbEntity
  8
001
  6
CONTINUOUS
 62
     7
100
AcDbLine
 10
1924.207275
 20
896.375427
 30
0.0
 11
1924.207275
 21
884.735901
 31
0.0
  0
LINE
  5
1C1
100
AcDbEntity
  8
001
  6
CONTINUOUS
 62
     7
100
AcDbLine
 10
1917.279053
 20
896.375427
 30
0.0
 11
1917.279053
 21
884.735901
 31
0.0
  0
LINE
  5
1C2
100
AcDbEntity
  8
001
  6
CONTINUOUS
 62
     7
100
AcDbLine
 10
1924.351074
 20
884.735901
 30
0.0
 11
1896.35083
 21
884.735901
 31
0.0
  0
LINE
  5
1C3
100
AcDbEntity
  8
001
  6
CONTINUOUS
 62
     7
100
AcDbLine
 10
1924.351074
 20
881.977966
 30
0.0
 11
1924.351074
 21
884.735901
 31
0.0
  0
LINE
  5
1C4
100
AcDbEntity
  8
001
  6
CONTINUOUS
 62
     7
100
AcDbLine
 10
1903.422852
 20
896.375427
 30
0.0
 11
1903.422852
 21
884.735901
 31
0.0
  0
LINE
  5
1C5
100
AcDbEntity
  8
001
  6
CONTINUOUS
 62
     7
100
AcDbLine
 10
1896.494629
 20
896.375427
 30
0.0
 11
1896.494629
 21
884.735901
 31
0.0
  0
LINE
  5
1C6
100
AcDbEntity
  8
001
  6
CONTINUOUS
 62
     7
100
AcDbLine
 10
1896.35083
 20
881.735779
 30
0.0
 11
1896.35083
 21
884.735901
 31
0.0
  0
ARC
  5
1C7
100
AcDbEntity
  8
001
  6
CONTINUOUS
 62
     7
100
AcDbCircle
 10
1920.7432
 20
891.313247
 30
0.0
 40
6.134002
100
AcDbArc
 50
64.382919
 51
124.384584
  0
ARC
  5
1C8
100
AcDbEntity
  8
001
  6
CONTINUOUS
 62
     7
100
AcDbCircle
 10
1910.350952
 20
874.518924
 30
0.0
 40
22.928265
100
AcDbArc
 50
72.412364
 51
107.587636
  0
ARC
  5
1C9
100
AcDbEntity
  8
001
  6
CONTINUOUS
 62
     7
100
AcDbCircle
 10
1899.958705
 20
891.313247
 30
0.0
 40
6.134002
100
AcDbArc
 50
55.615416
 51
115.617081
  0
LINE
  5
1CA
100
AcDbEntity
  8
001
  6
CONTINUOUS
 62
     7
100
AcDbLine
 10
1921.851074
 20
897.735901
 30
0.0
 11
1924.207275
 21
896.375427
 31
0.0
  0
LINE
  5
1CB
100
AcDbEntity
  8
001
  6
CONTINUOUS
 62
     7
100
AcDbLine
 10
1898.85083
 20
897.735901
 30
0.0
 11
1896.494629
 21
896.375427
 31
0.0
  0
LINE
  5
1CC
100
AcDbEntity
  8
001
  6
CONTINUOUS
 62
     7
100
AcDbLine
 10
1921.851074
 20
897.735901
 30
0.0
 11
1898.85083
 21
897.735901
 31
0.0
  0
LINE
  5
1CD
100
AcDbEntity
  8
001
  6
CONTINUOUS
 62
     7
100
AcDbLine
 10
1918.351074
 20
904.735901
 30
0.0
 11
1902.35083
 21
904.735901
 31
0.0
  0
ARC
  5
1CE
100
AcDbEntity
  8
001
  6
CONTINUOUS
 62
     7
100
AcDbCircle
 10
1910.350952
 20
889.735644
 30
0.0
 40
17.000284
100
AcDbArc
 50
61.927558
 51
118.072442
  0
LINE
  5
1CF
100
AcDbEntity
  8
001
  6
CONTINUOUS
 62
     7
100
AcDbLine
 10
1902.35083
 20
904.735901
 30
0.0
 11
1902.35083
 21
897.735901
 31
0.0
  0
LINE
  5
1D0
100
AcDbEntity
  8
001
  6
CONTINUOUS
 62
     7
100
AcDbLine
 10
1918.351074
 20
904.735901
 30
0.0
 11
1918.351074
 21
897.735901
 31
0.0
  0
LINE
  5
1D1
100
AcDbEntity
  8
001
  6
CONTINUOUS
 62
     7
100
AcDbLine
 10
1924.351074
 20
832.485779
 30
0.0
 11
1896.35083
 21
832.485779
 31
0.0
  0
LINE
  5
1D2
100
AcDbEntity
  8
001
  6
CONTINUOUS
 62
     7
100
AcDbLine
 10
1896.35083
 20
835.485779
 30
0.0
 11
1896.35083
 21
832.485779
 31
0.0
  0
ARC
  5
1D3
100
AcDbEntity
  8
001
  6
CONTINUOUS
 62
     7
100
AcDbCircle
 10
1910.350952
 20
845.702756
 30
0.0
 40
22.928265
100
AcDbArc
 50
252.412364
 51
287.587636
  0
ARC
  5
1D4
100
AcDbEntity
  8
001
  6
CONTINUOUS
 62
     7
100
AcDbCircle
 10
1920.743305
 20
828.908361
 30
0.0
 40
6.134002
100
AcDbArc
 50
235.614229
 51
295.615994
  0
LINE
  5
1D5
100
AcDbEntity
  8
001
  6
CONTINUOUS
 62
     7
100
AcDbLine
 10
1921.851074
 20
822.485779
 30
0.0
 11
1924.207275
 21
823.846252
 31
0.0
  0
LINE
  5
1D6
100
AcDbEntity
  8
001
  6
CONTINUOUS
 62
     7
100
AcDbLine
 10
1898.85083
 20
822.485779
 30
0.0
 11
1921.851074
 21
822.485779
 31
0.0
  0
LINE
  5
1D7
100
AcDbEntity
  8
001
  6
CONTINUOUS
 62
     7
100
AcDbLine
 10
1903.422852
 20
823.846252
 30
0.0
 11
1903.422852
 21
832.485779
 31
0.0
  0
LINE
  5
1D8
100
AcDbEntity
  8
001
  6
CONTINUOUS
 62
     7
100
AcDbLine
 10
1917.279053
 20
823.846252
 30
0.0
 11
1917.279053
 21
832.485779
 31
0.0
  0
LINE
  5
1D9
100
AcDbEntity
  8
001
  6
CONTINUOUS
 62
     7
100
AcDbLine
 10
1924.207275
 20
823.846252
 30
0.0
 11
1924.207275
 21
832.485779
 31
0.0
  0
ARC
  5
1DA
100
AcDbEntity
  8
001
  6
CONTINUOUS
 62
     7
100
AcDbCircle
 10
1899.9586
 20
828.908361
 30
0.0
 40
6.134002
100
AcDbArc
 50
244.384006
 51
304.385771
  0
LINE
  5
1DB
100
AcDbEntity
  8
001
  6
CONTINUOUS
 62
     7
100
AcDbLine
 10
1898.85083
 20
822.485779
 30
0.0
 11
1896.494629
 21
823.846252
 31
0.0
  0
LINE
  5
1DC
100
AcDbEntity
  8
001
  6
CONTINUOUS
 62
     7
100
AcDbLine
 10
1896.494629
 20
823.846252
 30
0.0
 11
1896.494629
 21
832.485779
 31
0.0
  0
LINE
  5
1DD
100
AcDbEntity
  8
001
  6
CONTINUOUS
 62
     7
100
AcDbLine
 10
1924.351074
 20
835.485779
 30
0.0
 11
1924.351074
 21
832.485779
 31
0.0
  0
LINE
  5
1DE
100
AcDbEntity
  8
001
  6
CONTINUOUS
 62
     7
100
AcDbLine
 10
1838.843628
 20
896.375427
 30
0.0
 11
1838.843628
 21
884.735901
 31
0.0
  0
LINE
  5
1DF
100
AcDbEntity
  8
001
  6
CONTINUOUS
 62
     7
100
AcDbLine
 10
1831.915283
 20
896.375427
 30
0.0
 11
1831.915283
 21
884.735901
 31
0.0
  0
LINE
  5
1E0
100
AcDbEntity
  8
001
  6
CONTINUOUS
 62
     7
100
AcDbLine
 10
1838.987427
 20
884.735901
 30
0.0
 11
1810.987183
 21
884.735901
 31
0.0
  0
LINE
  5
1E1
100
AcDbEntity
  8
001
  6
CONTINUOUS
 62
     7
100
AcDbLine
 10
1838.987427
 20
881.977966
 30
0.0
 11
1838.987427
 21
884.735901
 31
0.0
  0
LINE
  5
1E2
100
AcDbEntity
  8
001
  6
CONTINUOUS
 62
     7
100
AcDbLine
 10
1818.059082
 20
896.375427
 30
0.0
 11
1818.059082
 21
884.735901
 31
0.0
  0
LINE
  5
1E3
100
AcDbEntity
  8
001
  6
CONTINUOUS
 62
     7
100
AcDbLine
 10
1811.130859
 20
896.375427
 30
0.0
 11
1811.130859
 21
884.735901
 31
0.0
  0
LINE
  5
1E4
100
AcDbEntity
  8
001
  6
CONTINUOUS
 62
     7
100
AcDbLine
 10
1810.987183
 20
881.735779
 30
0.0
 11
1810.987183
 21
884.735901
 31
0.0
  0
ARC
  5
1E5
100
AcDbEntity
  8
001
  6
CONTINUOUS
 62
     7
100
AcDbCircle
 10
1835.379502
 20
891.313213
 30
0.0
 40
6.134002
100
AcDbArc
 50
64.383663
 51
124.384015
  0
ARC
  5
1E6
100
AcDbEntity
  8
001
  6
CONTINUOUS
 62
     7
100
AcDbCircle
 10
1824.987244
 20
874.518905
 30
0.0
 40
22.928265
100
AcDbArc
 50
72.412524
 51
107.587476
  0
ARC
  5
1E7
100
AcDbEntity
  8
001
  6
CONTINUOUS
 62
     7
100
AcDbCircle
 10
1814.594985
 20
891.313213
 30
0.0
 40
6.134002
100
AcDbArc
 50
55.615985
 51
115.616337
  0
LINE
  5
1E8
100
AcDbEntity
  8
001
  6
CONTINUOUS
 62
     7
100
AcDbLine
 10
1836.487427
 20
897.735901
 30
0.0
 11
1838.843628
 21
896.375427
 31
0.0
  0
LINE
  5
1E9
100
AcDbEntity
  8
001
  6
CONTINUOUS
 62
     7
100
AcDbLine
 10
1813.487183
 20
897.735901
 30
0.0
 11
1811.130859
 21
896.375427
 31
0.0
  0
LINE
  5
1EA
100
AcDbEntity
  8
001
  6
CONTINUOUS
 62
     7
100
AcDbLine
 10
1836.487427
 20
897.735901
 30
0.0
 11
1813.487183
 21
897.735901
 31
0.0
  0
LINE
  5
1EB
100
AcDbEntity
  8
001
  6
CONTINUOUS
 62
     7
100
AcDbLine
 10
1832.987427
 20
904.735901
 30
0.0
 11
1816.987183
 21
904.735901
 31
0.0
  0
ARC
  5
1EC
100
AcDbEntity
  8
001
  6
CONTINUOUS
 62
     7
100
AcDbCircle
 10
1824.987244
 20
889.735676
 30
0.0
 40
17.000284
100
AcDbArc
 50
61.927325
 51
118.072675
  0
LINE
  5
1ED
100
AcDbEntity
  8
001
  6
CONTINUOUS
 62
     7
100
AcDbLine
 10
1816.987183
 20
904.735901
 30
0.0
 11
1816.987183
 21
897.735901
 31
0.0
  0
LINE
  5
1EE
100
AcDbEntity
  8
001
  6
CONTINUOUS
 62
     7
100
AcDbLine
 10
1832.987427
 20
904.735901
 30
0.0
 11
1832.987427
 21
897.735901
 31
0.0
  0
LINE
  5
1EF
100
AcDbEntity
  8
001
  6
CONTINUOUS
 62
     7
100
AcDbLine
 10
1838.987427
 20
832.485779
 30
0.0
 11
1810.987183
 21
832.485779
 31
0.0
  0
LINE
  5
1F0
100
AcDbEntity
  8
001
  6
CONTINUOUS
 62
     7
100
AcDbLine
 10
1810.987183
 20
835.485779
 30
0.0
 11
1810.987183
 21
832.485779
 31
0.0
  0
ARC
  5
1F1
100
AcDbEntity
  8
001
  6
CONTINUOUS
 62
     7
100
AcDbCircle
 10
1824.987244
 20
845.702775
 30
0.0
 40
22.928265
100
AcDbArc
 50
252.412524
 51
287.587476
  0
ARC
  5
1F2
100
AcDbEntity
  8
001
  6
CONTINUOUS
 62
     7
100
AcDbCircle
 10
1835.379607
 20
828.908395
 30
0.0
 40
6.134002
100
AcDbArc
 50
235.614798
 51
295.615251
  0
LINE
  5
1F3
100
AcDbEntity
  8
001
  6
CONTINUOUS
 62
     7
100
AcDbLine
 10
1836.487427
 20
822.485779
 30
0.0
 11
1838.843628
 21
823.846252
 31
0.0
  0
LINE
  5
1F4
100
AcDbEntity
  8
001
  6
CONTINUOUS
 62
     7
100
AcDbLine
 10
1813.487183
 20
822.485779
 30
0.0
 11
1836.487427
 21
822.485779
 31
0.0
  0
LINE
  5
1F5
100
AcDbEntity
  8
001
  6
CONTINUOUS
 62
     7
100
AcDbLine
 10
1818.059082
 20
823.846252
 30
0.0
 11
1818.059082
 21
832.485779
 31
0.0
  0
LINE
  5
1F6
100
AcDbEntity
  8
001
  6
CONTINUOUS
 62
     7
100
AcDbLine
 10
1831.915283
 20
823.846252
 30
0.0
 11
1831.915283
 21
832.485779
 31
0.0
  0
LINE
  5
1F7
100
AcDbEntity
  8
001
  6
CONTINUOUS
 62
     7
100
AcDbLine
 10
1838.843628
 20
823.846252
 30
0.0
 11
1838.843628
 21
832.485779
 31
0.0
  0
ARC
  5
1F8
100
AcDbEntity
  8
001
  6
CONTINUOUS
 62
     7
100
AcDbCircle
 10
1814.59488
 20
828.908395
 30
0.0
 40
6.134002
100
AcDbArc
 50
244.384749
 51
304.385202
  0
LINE
  5
1F9
100
AcDbEntity
  8
001
  6
CONTINUOUS
 62
     7
100
AcDbLine
 10
1813.487183
 20
822.485779
 30
0.0
 11
1811.130859
 21
823.846252
 31
0.0
  0
LINE
  5
1FA
100
AcDbEntity
  8
001
  6
CONTINUOUS
 62
     7
100
AcDbLine
 10
1811.130859
 20
823.846252
 30
0.0
 11
1811.130859
 21
832.485779
 31
0.0
  0
LINE
  5
1FB
100
AcDbEntity
  8
001
  6
CONTINUOUS
 62
     7
100
AcDbLine
 10
1838.987427
 20
835.485779
 30
0.0
 11
1838.987427
 21
832.485779
 31
0.0
  0
LINE
  5
1FC
100
AcDbEntity
  8
001
  6
CONTINUOUS
 62
     7
100
AcDbLine
 10
1780.537109
 20
896.375427
 30
0.0
 11
1780.537109
 21
884.735901
 31
0.0
  0
LINE
  5
1FD
100
AcDbEntity
  8
001
  6
CONTINUOUS
 62
     7
100
AcDbLine
 10
1773.608887
 20
896.375427
 30
0.0
 11
1773.608887
 21
884.735901
 31
0.0
  0
LINE
  5
1FE
100
AcDbEntity
  8
001
  6
CONTINUOUS
 62
     7
100
AcDbLine
 10
1780.680908
 20
884.735901
 30
0.0
 11
1752.680664
 21
884.735901
 31
0.0
  0
LINE
  5
1FF
100
AcDbEntity
  8
001
  6
CONTINUOUS
 62
     7
100
AcDbLine
 10
1780.680908
 20
881.977966
 30
0.0
 11
1780.680908
 21
884.735901
 31
0.0
  0
LINE
  5
200
100
AcDbEntity
  8
001
  6
CONTINUOUS
 62
     7
100
AcDbLine
 10
1759.752686
 20
896.375427
 30
0.0
 11
1759.752686
 21
884.735901
 31
0.0
  0
LINE
  5
201
100
AcDbEntity
  8
001
  6
CONTINUOUS
 62
     7
100
AcDbLine
 10
1752.824463
 20
896.375427
 30
0.0
 11
1752.824463
 21
884.735901
 31
0.0
  0
LINE
  5
202
100
AcDbEntity
  8
001
  6
CONTINUOUS
 62
     7
100
AcDbLine
 10
1752.680664
 20
881.735779
 30
0.0
 11
1752.680664
 21
884.735901
 31
0.0
  0
ARC
  5
203
100
AcDbEntity
  8
001
  6
CONTINUOUS
 62
     7
100
AcDbCircle
 10
1777.073034
 20
891.313247
 30
0.0
 40
6.134002
100
AcDbArc
 50
64.382919
 51
124.384584
  0
ARC
  5
204
100
AcDbEntity
  8
001
  6
CONTINUOUS
 62
     7
100
AcDbCircle
 10
1766.680786
 20
874.518924
 30
0.0
 40
22.928265
100
AcDbArc
 50
72.412364
 51
107.587636
  0
ARC
  5
205
100
AcDbEntity
  8
001
  6
CONTINUOUS
 62
     7
100
AcDbCircle
 10
1756.288539
 20
891.313247
 30
0.0
 40
6.134002
100
AcDbArc
 50
55.615416
 51
115.617081
  0
LINE
  5
206
100
AcDbEntity
  8
001
  6
CONTINUOUS
 62
     7
100
AcDbLine
 10
1778.180908
 20
897.735901
 30
0.0
 11
1780.537109
 21
896.375427
 31
0.0
  0
LINE
  5
207
100
AcDbEntity
  8
001
  6
CONTINUOUS
 62
     7
100
AcDbLine
 10
1755.180664
 20
897.735901
 30
0.0
 11
1752.824463
 21
896.375427
 31
0.0
  0
LINE
  5
208
100
AcDbEntity
  8
001
  6
CONTINUOUS
 62
     7
100
AcDbLine
 10
1778.180908
 20
897.735901
 30
0.0
 11
1755.180664
 21
897.735901
 31
0.0
  0
LINE
  5
209
100
AcDbEntity
  8
001
  6
CONTINUOUS
 62
     7
100
AcDbLine
 10
1774.680908
 20
904.735901
 30
0.0
 11
1758.680664
 21
904.735901
 31
0.0
  0
ARC
  5
20A
100
AcDbEntity
  8
001
  6
CONTINUOUS
 62
     7
100
AcDbCircle
 10
1766.680786
 20
889.735644
 30
0.0
 40
17.000284
100
AcDbArc
 50
61.927558
 51
118.072442
  0
LINE
  5
20B
100
AcDbEntity
  8
001
  6
CONTINUOUS
 62
     7
100
AcDbLine
 10
1758.680664
 20
904.735901
 30
0.0
 11
1758.680664
 21
897.735901
 31
0.0
  0
LINE
  5
20C
100
AcDbEntity
  8
001
  6
CONTINUOUS
 62
     7
100
AcDbLine
 10
1774.680908
 20
904.735901
 30
0.0
 11
1774.680908
 21
897.735901
 31
0.0
  0
LINE
  5
20D
100
AcDbEntity
  8
001
  6
CONTINUOUS
 62
     7
100
AcDbLine
 10
1780.680908
 20
832.485779
 30
0.0
 11
1752.680664
 21
832.485779
 31
0.0
  0
LINE
  5
20E
100
AcDbEntity
  8
001
  6
CONTINUOUS
 62
     7
100
AcDbLine
 10
1752.680664
 20
835.485779
 30
0.0
 11
1752.680664
 21
832.485779
 31
0.0
  0
ARC
  5
20F
100
AcDbEntity
  8
001
  6
CONTINUOUS
 62
     7
100
AcDbCircle
 10
1766.680786
 20
845.702756
 30
0.0
 40
22.928265
100
AcDbArc
 50
252.412364
 51
287.587636
  0
ARC
  5
210
100
AcDbEntity
  8
001
  6
CONTINUOUS
 62
     7
100
AcDbCircle
 10
1777.073139
 20
828.908361
 30
0.0
 40
6.134002
100
AcDbArc
 50
235.614229
 51
295.615994
  0
LINE
  5
211
100
AcDbEntity
  8
001
  6
CONTINUOUS
 62
     7
100
AcDbLine
 10
1778.180908
 20
822.485779
 30
0.0
 11
1780.537109
 21
823.846252
 31
0.0
  0
LINE
  5
212
100
AcDbEntity
  8
001
  6
CONTINUOUS
 62
     7
100
AcDbLine
 10
1755.180664
 20
822.485779
 30
0.0
 11
1778.180908
 21
822.485779
 31
0.0
  0
LINE
  5
213
100
AcDbEntity
  8
001
  6
CONTINUOUS
 62
     7
100
AcDbLine
 10
1759.752686
 20
823.846252
 30
0.0
 11
1759.752686
 21
832.485779
 31
0.0
  0
LINE
  5
214
100
AcDbEntity
  8
001
  6
CONTINUOUS
 62
     7
100
AcDbLine
 10
1773.608887
 20
823.846252
 30
0.0
 11
1773.608887
 21
832.485779
 31
0.0
  0
LINE
  5
215
100
AcDbEntity
  8
001
  6
CONTINUOUS
 62
     7
100
AcDbLine
 10
1780.537109
 20
823.846252
 30
0.0
 11
1780.537109
 21
832.485779
 31
0.0
  0
ARC
  5
216
100
AcDbEntity
  8
001
  6
CONTINUOUS
 62
     7
100
AcDbCircle
 10
1756.288434
 20
828.908361
 30
0.0
 40
6.134002
100
AcDbArc
 50
244.384006
 51
304.385771
  0
LINE
  5
217
100
AcDbEntity
  8
001
  6
CONTINUOUS
 62
     7
100
AcDbLine
 10
1755.180664
 20
822.485779
 30
0.0
 11
1752.824463
 21
823.846252
 31
0.0
  0
LINE
  5
218
100
AcDbEntity
  8
001
  6
CONTINUOUS
 62
     7
100
AcDbLine
 10
1752.824463
 20
823.846252
 30
0.0
 11
1752.824463
 21
832.485779
 31
0.0
  0
LINE
  5
219
100
AcDbEntity
  8
001
  6
CONTINUOUS
 62
     7
100
AcDbLine
 10
1780.680908
 20
835.485779
 30
0.0
 11
1780.680908
 21
832.485779
 31
0.0
  0
ARC
  5
21A
100
AcDbEntity
  8
001
  6
CONTINUOUS
 62
     7
100
AcDbCircle
 10
1774.102159
 20
894.235733
 30
0.0
 40
12.500001
100
AcDbArc
 50
301.755793
 51
348.615118
  0
ARC
  5
21B
100
AcDbEntity
  8
001
  6
CONTINUOUS
 62
     7
100
AcDbCircle
 10
1771.950604
 20
825.485772
 30
0.0
 40
10.000001
100
AcDbArc
 50
17.744542
 51
30.834611
  0
ARC
  5
21C
100
AcDbEntity
  8
001
  6
CONTINUOUS
 62
     7
100
AcDbCircle
 10
2134.549366
 20
825.48568
 30
0.0
 40
10.000001
100
AcDbArc
 50
149.162331
 51
162.254903
  0
ARC
  5
21D
100
AcDbEntity
  8
001
  6
CONTINUOUS
 62
     7
100
AcDbCircle
 10
2132.397834
 20
894.235766
 30
0.0
 40
12.500001
100
AcDbArc
 50
191.385037
 51
238.245559
  0
ARC
  5
21E
100
AcDbEntity
  8
001
  6
CONTINUOUS
 62
     7
100
AcDbCircle
 10
1238.25
 20
878.735779
 30
0.0
 40
3.0
100
AcDbArc
 50
0.0
 51
90.0
  0
LINE
  5
21F
100
AcDbEntity
  8
001
  6
CONTINUOUS
 62
     7
100
AcDbLine
 10
1241.25
 20
863.485657
 30
0.0
 11
1241.25
 21
878.735779
 31
0.0
  0
ARC
  5
220
100
AcDbEntity
  8
001
  6
CONTINUOUS
 62
     7
100
AcDbCircle
 10
1238.25
 20
863.485657
 30
0.0
 40
3.0
100
AcDbArc
 50
270.0
 51
0.0
  0
ARC
  5
221
100
AcDbEntity
  8
001
  6
CONTINUOUS
 62
     7
100
AcDbCircle
 10
1238.25
 20
857.485657
 30
0.0
 40
3.0
100
AcDbArc
 50
0.0
 51
90.0
  0
LINE
  5
222
100
AcDbEntity
  8
001
  6
CONTINUOUS
 62
     7
100
AcDbLine
 10
1241.25
 20
838.485779
 30
0.0
 11
1241.25
 21
857.485657
 31
0.0
  0
ARC
  5
223
100
AcDbEntity
  8
001
  6
CONTINUOUS
 62
     7
100
AcDbCircle
 10
1238.25
 20
838.485779
 30
0.0
 40
3.0
100
AcDbArc
 50
270.0
 51
0.0
  0
LINE
  5
224
100
AcDbEntity
  8
001
  6
CONTINUOUS
 62
     7
100
AcDbLine
 10
1238.25
 20
881.735779
 30
0.0
 11
992.25
 21
881.735779
 31
0.0
  0
ARC
  5
225
100
AcDbEntity
  8
001
  6
CONTINUOUS
 62
     7
100
AcDbCircle
 10
992.25
 20
878.735779
 30
0.0
 40
3.0
100
AcDbArc
 50
90.0
 51
180.0
  0
LINE
  5
226
100
AcDbEntity
  8
001
  6
CONTINUOUS
 62
     7
100
AcDbLine
 10
989.25
 20
863.485657
 30
0.0
 11
989.25
 21
878.735779
 31
0.0
  0
ARC
  5
227
100
AcDbEntity
  8
001
  6
CONTINUOUS
 62
     7
100
AcDbCircle
 10
992.25
 20
863.485657
 30
0.0
 40
3.0
100
AcDbArc
 50
180.0
 51
270.0
  0
LINE
  5
228
100
AcDbEntity
  8
001
  6
CONTINUOUS
 62
     7
100
AcDbLine
 10
992.25
 20
860.485657
 30
0.0
 11
1238.25
 21
860.485657
 31
0.0
  0
ARC
  5
229
100
AcDbEntity
  8
001
  6
CONTINUOUS
 62
     7
100
AcDbCircle
 10
992.25
 20
857.485657
 30
0.0
 40
3.0
100
AcDbArc
 50
90.0
 51
180.0
  0
LINE
  5
22A
100
AcDbEntity
  8
001
  6
CONTINUOUS
 62
     7
100
AcDbLine
 10
989.25
 20
838.485779
 30
0.0
 11
989.25
 21
857.485657
 31
0.0
  0
ARC
  5
22B
100
AcDbEntity
  8
001
  6
CONTINUOUS
 62
     7
100
AcDbCircle
 10
992.25
 20
838.485779
 30
0.0
 40
3.0
100
AcDbArc
 50
180.0
 51
270.0
  0
LINE
  5
22C
100
AcDbEntity
  8
001
  6
CONTINUOUS
 62
     7
100
AcDbLine
 10
1238.25
 20
835.485779
 30
0.0
 11
992.25
 21
835.485779
 31
0.0
  0
LINE
  5
22D
100
AcDbEntity
  8
001
  6
CONTINUOUS
 62
     7
100
AcDbLine
 10
1197.25
 20
740.776245
 30
0.0
 11
1197.25
 21
804.235657
 31
0.0
  0
ARC
  5
22E
100
AcDbEntity
  8
001
  6
CONTINUOUS
 62
     7
100
AcDbCircle
 10
1229.752441
 20
724.83844
 30
0.0
 40
2.0
100
AcDbArc
 50
269.989509
 51
359.996504
  0
ARC
  5
22F
100
AcDbEntity
  8
001
  6
CONTINUOUS
 62
     7
100
AcDbCircle
 10
1229.745483
 20
735.835938
 30
0.0
 40
2.0
100
AcDbArc
 50
0.006994
 51
89.996503
  0
ARC
  5
230
100
AcDbEntity
  8
001
  6
CONTINUOUS
 62
     7
100
AcDbCircle
 10
1199.25
 20
719.905549
 30
0.0
 40
2.0
100
AcDbArc
 50
91.762795
 51
180.002636
  0
LINE
  5
231
100
AcDbEntity
  8
001
  6
CONTINUOUS
 62
     7
100
AcDbLine
 10
1229.745728
 20
722.844849
 30
0.0
 11
1199.188477
 21
721.904602
 31
0.0
  0
ARC
  5
232
100
AcDbEntity
  8
001
  6
CONTINUOUS
 62
     7
100
AcDbCircle
 10
1199.25
 20
740.776214
 30
0.0
 40
2.0
100
AcDbArc
 50
179.999112
 51
268.237205
  0
LINE
  5
233
100
AcDbEntity
  8
001
  6
CONTINUOUS
 62
     7
100
AcDbLine
 10
1229.745728
 20
737.836853
 30
0.0
 11
1199.188477
 21
738.777161
 31
0.0
  0
LINE
  5
234
100
AcDbEntity
  8
001
  6
CONTINUOUS
 62
     7
100
AcDbLine
 10
1231.746094
 20
735.836975
 30
0.0
 11
1231.753052
 21
724.837646
 31
0.0
  0
ARC
  5
235
100
AcDbEntity
  8
001
  6
CONTINUOUS
 62
     7
100
AcDbCircle
 10
1000.746826
 20
724.837769
 30
0.0
 40
2.0
100
AcDbArc
 50
180.003496
 51
270.010491
  0
ARC
  5
236
100
AcDbEntity
  8
001
  6
CONTINUOUS
 62
     7
100
AcDbCircle
 10
1031.25
 20
719.905545
 30
0.0
 40
2.0
100
AcDbArc
 50
359.997471
 51
88.240704
  0
LINE
  5
237
100
AcDbEntity
  8
001
  6
CONTINUOUS
 62
     7
100
AcDbLine
 10
1000.754272
 20
722.844849
 30
0.0
 11
1031.311401
 21
721.904602
 31
0.0
  0
LINE
  5
238
100
AcDbEntity
  8
001
  6
CONTINUOUS
 62
     7
100
AcDbLine
 10
998.754028
 20
735.836975
 30
0.0
 11
998.746826
 21
724.837646
 31
0.0
  0
ARC
  5
239
100
AcDbEntity
  8
001
  6
CONTINUOUS
 62
     7
100
AcDbCircle
 10
1000.754028
 20
735.836853
 30
0.0
 40
2.0
100
AcDbArc
 50
89.993006
 51
179.996503
  0
ARC
  5
23A
100
AcDbEntity
  8
001
  6
CONTINUOUS
 62
     7
100
AcDbCircle
 10
1031.25
 20
740.776218
 30
0.0
 40
2.0
100
AcDbArc
 50
271.759296
 51
0.00078
  0
LINE
  5
23B
100
AcDbEntity
  8
001
  6
CONTINUOUS
 62
     7
100
AcDbLine
 10
1000.754272
 20
737.836853
 30
0.0
 11
1031.311401
 21
738.777161
 31
0.0
  0
LINE
  5
23C
100
AcDbEntity
  8
001
  6
CONTINUOUS
 62
     7
100
AcDbLine
 10
1033.25
 20
740.776245
 30
0.0
 11
1033.25
 21
804.235657
 31
0.0
  0
LINE
  5
23D
100
AcDbEntity
  8
001
  6
CONTINUOUS
 62
     7
100
AcDbLine
 10
1197.25
 20
719.905457
 30
0.0
 11
1033.25
 21
719.905457
 31
0.0
  0
LINE
  5
23E
100
AcDbEntity
  8
001
  6
CONTINUOUS
 62
     7
100
AcDbLine
 10
1197.25
 20
740.776245
 30
0.0
 11
1033.25
 21
740.776245
 31
0.0
  0
LINE
  5
23F
100
AcDbEntity
  8
001
  6
CONTINUOUS
 62
     7
100
AcDbLine
 10
1229.745605
 20
737.835938
 30
0.0
 11
1000.754272
 21
737.836914
 31
0.0
  0
LINE
  5
240
100
AcDbEntity
  8
001
  6
CONTINUOUS
 62
     7
100
AcDbLine
 10
1000.754272
 20
722.837708
 30
0.0
 11
1229.752075
 21
722.83844
 31
0.0
  0
LINE
  5
241
100
AcDbEntity
  8
001
  6
CONTINUOUS
 62
     7
100
AcDbLine
 10
1187.419922
 20
804.235657
 30
0.0
 11
1043.614258
 21
804.235657
 31
0.0
  0
ARC
  5
242
100
AcDbEntity
  8
001
  6
CONTINUOUS
 62
     7
100
AcDbCircle
 10
1071.988371
 20
517.485596
 30
0.0
 40
3.0
100
AcDbArc
 50
90.001719
 51
189.998633
  0
LINE
  5
243
100
AcDbEntity
  8
001
  6
CONTINUOUS
 62
     7
100
AcDbLine
 10
1158.511597
 20
520.485596
 30
0.0
 11
1071.988281
 21
520.485596
 31
0.0
  0
ARC
  5
244
100
AcDbEntity
  8
001
  6
CONTINUOUS
 62
     7
100
AcDbCircle
 10
1158.511629
 20
517.485596
 30
0.0
 40
3.0
100
AcDbArc
 50
350.001367
 51
90.000613
  0
ARC
  5
245
100
AcDbEntity
  8
001
  6
CONTINUOUS
 62
     7
100
AcDbCircle
 10
1160.25
 20
450.485626
 30
0.0
 40
5.0
100
AcDbArc
 50
180.0
 51
270.0
  0
LINE
  5
246
100
AcDbEntity
  8
001
  6
CONTINUOUS
 62
     7
100
AcDbLine
 10
1155.25
 20
450.485626
 30
0.0
 11
1155.25
 21
481.711609
 31
0.0
  0
LINE
  5
247
100
AcDbEntity
  8
001
  6
CONTINUOUS
 62
     7
100
AcDbLine
 10
1075.25
 20
450.485626
 30
0.0
 11
1075.25
 21
481.711609
 31
0.0
  0
ARC
  5
248
100
AcDbEntity
  8
001
  6
CONTINUOUS
 62
     7
100
AcDbCircle
 10
1070.25
 20
450.485626
 30
0.0
 40
5.0
100
AcDbArc
 50
270.0
 51
0.0
  0
LINE
  5
249
100
AcDbEntity
  8
001
  6
CONTINUOUS
 62
     7
100
AcDbLine
 10
1155.25
 20
481.711609
 30
0.0
 11
1197.25
 21
719.905457
 31
0.0
  0
LINE
  5
24A
100
AcDbEntity
  8
001
  6
CONTINUOUS
 62
     7
100
AcDbLine
 10
1075.25
 20
481.711609
 30
0.0
 11
1033.25
 21
719.905457
 31
0.0
  0
LINE
  5
24B
100
AcDbEntity
  8
001
  6
CONTINUOUS
 62
     7
100
AcDbLine
 10
1200.143799
 20
891.76825
 30
0.0
 11
1195.25
 21
916.073669
 31
0.0
  0
LINE
  5
24C
100
AcDbEntity
  8
001
  6
CONTINUOUS
 62
     7
100
AcDbLine
 10
1195.25
 20
916.073669
 30
0.0
 11
1195.25
 21
949.444031
 31
0.0
  0
ARC
  5
24D
100
AcDbEntity
  8
001
  6
CONTINUOUS
 62
     7
100
AcDbCircle
 10
1190.25
 20
949.443965
 30
0.0
 40
5.0
100
AcDbArc
 50
0.000748
 51
31.505732
  0
LINE
  5
24E
100
AcDbEntity
  8
001
  6
CONTINUOUS
 62
     7
100
AcDbLine
 10
1194.512939
 20
952.056885
 30
0.0
 11
1178.17627
 21
978.711304
 31
0.0
  0
ARC
  5
24F
100
AcDbEntity
  8
001
  6
CONTINUOUS
 62
     7
100
AcDbCircle
 10
1180.25
 20
990.44572
 30
0.0
 40
10.0
100
AcDbArc
 50
179.999889
 51
237.99504
  0
ARC
  5
250
100
AcDbEntity
  8
001
  6
CONTINUOUS
 62
     7
100
AcDbCircle
 10
1169.650333
 20
973.48556
 30
0.0
 40
10.0
100
AcDbArc
 50
31.505096
 51
57.996298
  0
LINE
  5
251
100
AcDbEntity
  8
001
  6
CONTINUOUS
 62
     7
100
AcDbLine
 10
1030.356201
 20
891.76825
 30
0.0
 11
1035.25
 21
916.073669
 31
0.0
  0
LINE
  5
252
100
AcDbEntity
  8
001
  6
CONTINUOUS
 62
     7
100
AcDbLine
 10
1035.25
 20
916.073669
 30
0.0
 11
1035.25
 21
949.444031
 31
0.0
  0
ARC
  5
253
100
AcDbEntity
  8
001
  6
CONTINUOUS
 62
     7
100
AcDbCircle
 10
1040.25
 20
949.444165
 30
0.0
 40
5.0
100
AcDbArc
 50
148.496945
 51
180.001534
  0
LINE
  5
254
100
AcDbEntity
  8
001
  6
CONTINUOUS
 62
     7
100
AcDbLine
 10
1035.986938
 20
952.056885
 30
0.0
 11
1052.32373
 21
978.711304
 31
0.0
  0
ARC
  5
255
100
AcDbEntity
  8
001
  6
CONTINUOUS
 62
     7
100
AcDbCircle
 10
1050.25
 20
990.445797
 30
0.0
 40
10.0
100
AcDbArc
 50
302.004135
 51
0.0
  0
ARC
  5
256
100
AcDbEntity
  8
001
  6
CONTINUOUS
 62
     7
100
AcDbCircle
 10
1060.849743
 20
973.485683
 30
0.0
 40
10.0
100
AcDbArc
 50
122.005039
 51
148.495735
  0
LINE
  5
257
100
AcDbEntity
  8
001
  6
CONTINUOUS
 62
     7
100
AcDbLine
 10
1190.120972
 20
911.735779
 30
0.0
 11
1040.921875
 21
911.735779
 31
0.0
  0
LINE
  5
258
100
AcDbEntity
  8
001
  6
CONTINUOUS
 62
     7
100
AcDbLine
 10
1060.25
 20
990.44574
 30
0.0
 11
1060.25
 21
1034.735718
 31
0.0
  0
LINE
  5
259
100
AcDbEntity
  8
001
  6
CONTINUOUS
 62
     7
100
AcDbLine
 10
1170.25
 20
990.44574
 30
0.0
 11
1170.25
 21
1034.735718
 31
0.0
  0
LINE
  5
25A
100
AcDbEntity
  8
001
  6
CONTINUOUS
 62
     7
100
AcDbLine
 10
1163.75
 20
1034.735718
 30
0.0
 11
1163.75
 21
1079.735718
 31
0.0
  0
ARC
  5
25B
100
AcDbEntity
  8
001
  6
CONTINUOUS
 62
     7
100
AcDbCircle
 10
1159.75
 20
1079.735718
 30
0.0
 40
4.0
100
AcDbArc
 50
0.0
 51
90.0
  0
LINE
  5
25C
100
AcDbEntity
  8
001
  6
CONTINUOUS
 62
     7
100
AcDbLine
 10
1159.75
 20
1083.735718
 30
0.0
 11
1070.75
 21
1083.735718
 31
0.0
  0
ARC
  5
25D
100
AcDbEntity
  8
001
  6
CONTINUOUS
 62
     7
100
AcDbCircle
 10
1070.75
 20
1079.735718
 30
0.0
 40
4.0
100
AcDbArc
 50
90.0
 51
180.0
  0
LINE
  5
25E
100
AcDbEntity
  8
001
  6
CONTINUOUS
 62
     7
100
AcDbLine
 10
1066.75
 20
1034.735718
 30
0.0
 11
1066.75
 21
1079.735718
 31
0.0
  0
LINE
  5
25F
100
AcDbEntity
  8
001
  6
CONTINUOUS
 62
     7
100
AcDbLine
 10
1051.75
 20
1065.735718
 30
0.0
 11
1051.75
 21
1034.735718
 31
0.0
  0
ARC
  5
260
100
AcDbEntity
  8
001
  6
CONTINUOUS
 62
     7
100
AcDbCircle
 10
1055.75
 20
1065.735718
 30
0.0
 40
4.0
100
AcDbArc
 50
90.0
 51
180.0
  0
ARC
  5
261
100
AcDbEntity
  8
001
  6
CONTINUOUS
 62
     7
100
AcDbCircle
 10
1174.75
 20
1065.735718
 30
0.0
 40
4.0
100
AcDbArc
 50
0.0
 51
90.0
  0
LINE
  5
262
100
AcDbEntity
  8
001
  6
CONTINUOUS
 62
     7
100
AcDbLine
 10
1178.75
 20
1065.735718
 30
0.0
 11
1178.75
 21
1034.735718
 31
0.0
  0
LINE
  5
263
100
AcDbEntity
  8
001
  6
CONTINUOUS
 62
     7
100
AcDbLine
 10
1174.75
 20
1069.735718
 30
0.0
 11
1163.75
 21
1069.735718
 31
0.0
  0
LINE
  5
264
100
AcDbEntity
  8
001
  6
CONTINUOUS
 62
     7
100
AcDbLine
 10
1066.75
 20
1069.735718
 30
0.0
 11
1055.75
 21
1069.735718
 31
0.0
  0
LINE
  5
265
100
AcDbEntity
  8
001
  6
CONTINUOUS
 62
     7
100
AcDbLine
 10
1178.75
 20
1034.735718
 30
0.0
 11
1051.75
 21
1034.735718
 31
0.0
  0
ARC
  5
266
100
AcDbEntity
  8
001
  6
CONTINUOUS
 62
     7
100
AcDbCircle
 10
1167.75
 20
952.833435
 30
0.0
 40
5.0
100
AcDbArc
 50
180.0
 51
270.0
  0
LINE
  5
267
100
AcDbEntity
  8
001
  6
CONTINUOUS
 62
     7
100
AcDbLine
 10
1155.906128
 20
947.833435
 30
0.0
 11
1074.575806
 21
947.833435
 31
0.0
  0
ARC
  5
268
100
AcDbEntity
  8
001
  6
CONTINUOUS
 62
     7
100
AcDbCircle
 10
1062.75
 20
952.833435
 30
0.0
 40
5.0
100
AcDbArc
 50
270.0
 51
0.0
  0
LINE
  5
269
100
AcDbEntity
  8
001
  6
CONTINUOUS
 62
     7
100
AcDbLine
 10
1162.75
 20
952.833435
 30
0.0
 11
1162.75
 21
1034.735718
 31
0.0
  0
LINE
  5
26A
100
AcDbEntity
  8
001
  6
CONTINUOUS
 62
     7
100
AcDbLine
 10
1067.75
 20
952.833435
 30
0.0
 11
1067.75
 21
1034.735718
 31
0.0
  0
LINE
  5
26B
100
AcDbEntity
  8
001
  6
CONTINUOUS
 62
     7
100
AcDbLine
 10
1123.583496
 20
979.735779
 30
0.0
 11
1106.916382
 21
979.735779
 31
0.0
  0
ARC
  5
26C
100
AcDbEntity
  8
001
  6
CONTINUOUS
 62
     7
100
AcDbCircle
 10
1106.916387
 20
981.735779
 30
0.0
 40
2.0
100
AcDbArc
 50
190.395998
 51
269.999855
  0
ARC
  5
26D
100
AcDbEntity
  8
001
  6
CONTINUOUS
 62
     7
100
AcDbCircle
 10
1123.58352
 20
981.735779
 30
0.0
 40
2.0
100
AcDbArc
 50
269.999321
 51
355.51394
  0
ARC
  5
26E
100
AcDbEntity
  8
001
  6
CONTINUOUS
 62
     7
100
AcDbCircle
 10
1131.813296
 20
997.137061
 30
0.0
 40
5.0
100
AcDbArc
 50
137.461997
 51
175.514011
  0
LINE
  5
26F
100
AcDbEntity
  8
001
  6
CONTINUOUS
 62
     7
100
AcDbLine
 10
1127.889771
 20
1011.053223
 30
0.0
 11
1125.577393
 21
981.579346
 31
0.0
  0
ARC
  5
270
100
AcDbEntity
  8
001
  6
CONTINUOUS
 62
     7
100
AcDbCircle
 10
1142.843825
 20
1009.88008
 30
0.0
 40
15.0
100
AcDbArc
 50
156.757736
 51
175.514346
  0
LINE
  5
271
100
AcDbEntity
  8
001
  6
CONTINUOUS
 62
     7
100
AcDbLine
 10
1125.875244
 20
1013.52301
 30
0.0
 11
1104.949219
 21
1013.52301
 31
0.0
  0
LINE
  5
272
100
AcDbEntity
  8
001
  6
CONTINUOUS
 62
     7
100
AcDbLine
 10
1128.12915
 20
1000.517456
 30
0.0
 11
1130.039551
 21
1002.599426
 31
0.0
  0
ARC
  5
273
100
AcDbEntity
  8
001
  6
CONTINUOUS
 62
     7
100
AcDbCircle
 10
1132.25
 20
1000.571148
 30
0.0
 40
3.0
100
AcDbArc
 50
0.00037
 51
137.460924
  0
LINE
  5
274
100
AcDbEntity
  8
001
  6
CONTINUOUS
 62
     7
100
AcDbLine
 10
1135.25
 20
993.976257
 30
0.0
 11
1135.25
 21
1025.346924
 31
0.0
  0
LINE
  5
275
100
AcDbEntity
  8
001
  6
CONTINUOUS
 62
     7
100
AcDbLine
 10
1129.061157
 20
1015.799377
 30
0.0
 11
1134.180176
 21
1027.718262
 31
0.0
  0
ARC
  5
276
100
AcDbEntity
  8
001
  6
CONTINUOUS
 62
     7
100
AcDbCircle
 10
1138.774379
 20
1025.745117
 30
0.0
 40
5.0
100
AcDbArc
 50
90.000994
 51
156.757168
  0
LINE
  5
277
100
AcDbEntity
  8
001
  6
CONTINUOUS
 62
     7
100
AcDbLine
 10
1132.665405
 20
1030.745117
 30
0.0
 11
1099.361084
 21
1030.745117
 31
0.0
  0
ARC
  5
278
100
AcDbEntity
  8
001
  6
CONTINUOUS
 62
     7
100
AcDbCircle
 10
1106.91648
 20
981.735779
 30
0.0
 40
2.0
100
AcDbArc
 50
184.48606
 51
269.997182
  0
ARC
  5
279
100
AcDbEntity
  8
001
  6
CONTINUOUS
 62
     7
100
AcDbCircle
 10
1098.686582
 20
997.137061
 30
0.0
 40
5.0
100
AcDbArc
 50
4.485989
 51
42.538003
  0
LINE
  5
27A
100
AcDbEntity
  8
001
  6
CONTINUOUS
 62
     7
100
AcDbLine
 10
1102.610229
 20
1011.053223
 30
0.0
 11
1104.922607
 21
981.579346
 31
0.0
  0
LINE
  5
27B
100
AcDbEntity
  8
001
  6
CONTINUOUS
 62
     7
100
AcDbLine
 10
1102.370728
 20
1000.517456
 30
0.0
 11
1100.460449
 21
1002.599426
 31
0.0
  0
ARC
  5
27C
100
AcDbEntity
  8
001
  6
CONTINUOUS
 62
     7
100
AcDbCircle
 10
1098.25
 20
1000.571148
 30
0.0
 40
3.0
100
AcDbArc
 50
42.539076
 51
179.99963
  0
LINE
  5
27D
100
AcDbEntity
  8
001
  6
CONTINUOUS
 62
     7
100
AcDbLine
 10
1095.25
 20
993.976257
 30
0.0
 11
1095.25
 21
1025.346924
 31
0.0
  0
ARC
  5
27E
100
AcDbEntity
  8
001
  6
CONTINUOUS
 62
     7
100
AcDbCircle
 10
1087.656175
 20
1009.88008
 30
0.0
 40
15.0
100
AcDbArc
 50
4.485654
 51
23.242264
  0
LINE
  5
27F
100
AcDbEntity
  8
001
  6
CONTINUOUS
 62
     7
100
AcDbLine
 10
1101.438843
 20
1015.799377
 30
0.0
 11
1096.319824
 21
1027.718262
 31
0.0
  0
ARC
  5
280
100
AcDbEntity
  8
001
  6
CONTINUOUS
 62
     7
100
AcDbCircle
 10
1091.725621
 20
1025.745117
 30
0.0
 40
5.0
100
AcDbArc
 50
23.242832
 51
90.000405
  0
LINE
  5
281
100
AcDbEntity
  8
001
  6
CONTINUOUS
 62
     7
100
AcDbLine
 10
1165.853516
 20
904.735901
 30
0.0
 11
1149.853271
 21
904.735901
 31
0.0
  0
ARC
  5
282
100
AcDbEntity
  8
001
  6
CONTINUOUS
 62
     7
100
AcDbCircle
 10
1157.853394
 20
889.735644
 30
0.0
 40
17.000284
100
AcDbArc
 50
61.927558
 51
118.072442
  0
LINE
  5
283
100
AcDbEntity
  8
001
  6
CONTINUOUS
 62
     7
100
AcDbLine
 10
1149.853271
 20
904.735901
 30
0.0
 11
1149.853271
 21
897.735901
 31
0.0
  0
LINE
  5
284
100
AcDbEntity
  8
001
  6
CONTINUOUS
 62
     7
100
AcDbLine
 10
1165.853516
 20
904.735901
 30
0.0
 11
1165.853516
 21
897.735901
 31
0.0
  0
LINE
  5
285
100
AcDbEntity
  8
001
  6
CONTINUOUS
 62
     7
100
AcDbLine
 10
1171.853516
 20
884.735901
 30
0.0
 11
1143.853271
 21
884.735901
 31
0.0
  0
LINE
  5
286
100
AcDbEntity
  8
001
  6
CONTINUOUS
 62
     7
100
AcDbLine
 10
1143.853271
 20
881.735779
 30
0.0
 11
1143.853271
 21
884.735901
 31
0.0
  0
LINE
  5
287
100
AcDbEntity
  8
001
  6
CONTINUOUS
 62
     7
100
AcDbLine
 10
1171.853516
 20
881.977966
 30
0.0
 11
1171.853516
 21
884.735901
 31
0.0
  0
LINE
  5
288
100
AcDbEntity
  8
001
  6
CONTINUOUS
 62
     7
100
AcDbLine
 10
1143.853271
 20
835.485779
 30
0.0
 11
1143.853271
 21
832.485779
 31
0.0
  0
LINE
  5
289
100
AcDbEntity
  8
001
  6
CONTINUOUS
 62
     7
100
AcDbLine
 10
1171.853516
 20
835.485779
 30
0.0
 11
1171.853516
 21
832.485779
 31
0.0
  0
LINE
  5
28A
100
AcDbEntity
  8
001
  6
CONTINUOUS
 62
     7
100
AcDbLine
 10
1171.853516
 20
832.485779
 30
0.0
 11
1143.853271
 21
832.485779
 31
0.0
  0
ARC
  5
28B
100
AcDbEntity
  8
001
  6
CONTINUOUS
 62
     7
100
AcDbCircle
 10
1214.734985
 20
889.735644
 30
0.0
 40
17.000284
100
AcDbArc
 50
61.927558
 51
118.072442
  0
LINE
  5
28C
100
AcDbEntity
  8
001
  6
CONTINUOUS
 62
     7
100
AcDbLine
 10
1206.734863
 20
904.735901
 30
0.0
 11
1206.734863
 21
897.735901
 31
0.0
  0
LINE
  5
28D
100
AcDbEntity
  8
001
  6
CONTINUOUS
 62
     7
100
AcDbLine
 10
1222.735107
 20
904.735901
 30
0.0
 11
1222.735107
 21
897.735901
 31
0.0
  0
LINE
  5
28E
100
AcDbEntity
  8
001
  6
CONTINUOUS
 62
     7
100
AcDbLine
 10
1200.734863
 20
881.735779
 30
0.0
 11
1200.734863
 21
884.735901
 31
0.0
  0
LINE
  5
28F
100
AcDbEntity
  8
001
  6
CONTINUOUS
 62
     7
100
AcDbLine
 10
1228.735107
 20
881.977966
 30
0.0
 11
1228.735107
 21
884.735901
 31
0.0
  0
LINE
  5
290
100
AcDbEntity
  8
001
  6
CONTINUOUS
 62
     7
100
AcDbLine
 10
1200.734863
 20
835.485779
 30
0.0
 11
1200.734863
 21
832.485779
 31
0.0
  0
LINE
  5
291
100
AcDbEntity
  8
001
  6
CONTINUOUS
 62
     7
100
AcDbLine
 10
1228.735107
 20
835.485779
 30
0.0
 11
1228.735107
 21
832.485779
 31
0.0
  0
ARC
  5
292
100
AcDbEntity
  8
001
  6
CONTINUOUS
 62
     7
100
AcDbCircle
 10
1163.853271
 20
880.117031
 30
0.0
 40
17.330189
100
AcDbArc
 50
69.743917
 51
110.256083
  0
ARC
  5
293
100
AcDbEntity
  8
001
  6
CONTINUOUS
 62
     7
100
AcDbCircle
 10
1151.853271
 20
880.117031
 30
0.0
 40
17.330189
100
AcDbArc
 50
69.743917
 51
110.256083
  0
LINE
  5
294
100
AcDbEntity
  8
001
  6
CONTINUOUS
 62
     7
100
AcDbLine
 10
1169.853271
 20
897.447205
 30
0.0
 11
1169.353271
 21
897.735901
 31
0.0
  0
LINE
  5
295
100
AcDbEntity
  8
001
  6
CONTINUOUS
 62
     7
100
AcDbLine
 10
1145.853271
 20
897.447205
 30
0.0
 11
1146.353271
 21
897.735901
 31
0.0
  0
LINE
  5
296
100
AcDbEntity
  8
001
  6
CONTINUOUS
 62
     7
100
AcDbLine
 10
1169.353271
 20
897.735901
 30
0.0
 11
1146.353271
 21
897.735901
 31
0.0
  0
LINE
  5
297
100
AcDbEntity
  8
001
  6
CONTINUOUS
 62
     7
100
AcDbLine
 10
1145.853271
 20
897.447205
 30
0.0
 11
1145.853271
 21
884.735901
 31
0.0
  0
LINE
  5
298
100
AcDbEntity
  8
001
  6
CONTINUOUS
 62
     7
100
AcDbLine
 10
1157.853271
 20
896.375427
 30
0.0
 11
1157.853271
 21
884.735901
 31
0.0
  0
LINE
  5
299
100
AcDbEntity
  8
001
  6
CONTINUOUS
 62
     7
100
AcDbLine
 10
1169.853271
 20
897.447205
 30
0.0
 11
1169.853271
 21
884.735901
 31
0.0
  0
ARC
  5
29A
100
AcDbEntity
  8
001
  6
CONTINUOUS
 62
     7
100
AcDbCircle
 10
1151.853271
 20
840.104648
 30
0.0
 40
17.330189
100
AcDbArc
 50
249.743917
 51
290.256083
  0
ARC
  5
29B
100
AcDbEntity
  8
001
  6
CONTINUOUS
 62
     7
100
AcDbCircle
 10
1163.853271
 20
840.104648
 30
0.0
 40
17.330189
100
AcDbArc
 50
249.743917
 51
290.256083
  0
LINE
  5
29C
100
AcDbEntity
  8
001
  6
CONTINUOUS
 62
     7
100
AcDbLine
 10
1145.853271
 20
822.774414
 30
0.0
 11
1146.353271
 21
822.485779
 31
0.0
  0
LINE
  5
29D
100
AcDbEntity
  8
001
  6
CONTINUOUS
 62
     7
100
AcDbLine
 10
1169.853271
 20
822.774414
 30
0.0
 11
1169.353271
 21
822.485779
 31
0.0
  0
LINE
  5
29E
100
AcDbEntity
  8
001
  6
CONTINUOUS
 62
     7
100
AcDbLine
 10
1146.353271
 20
822.485779
 30
0.0
 11
1169.353271
 21
822.485779
 31
0.0
  0
LINE
  5
29F
100
AcDbEntity
  8
001
  6
CONTINUOUS
 62
     7
100
AcDbLine
 10
1169.853271
 20
822.774414
 30
0.0
 11
1169.853271
 21
832.485779
 31
0.0
  0
LINE
  5
2A0
100
AcDbEntity
  8
001
  6
CONTINUOUS
 62
     7
100
AcDbLine
 10
1157.853271
 20
823.846252
 30
0.0
 11
1157.853271
 21
832.485779
 31
0.0
  0
LINE
  5
2A1
100
AcDbEntity
  8
001
  6
CONTINUOUS
 62
     7
100
AcDbLine
 10
1145.853271
 20
822.774414
 30
0.0
 11
1145.853271
 21
832.485779
 31
0.0
  0
ARC
  5
2A2
100
AcDbEntity
  8
001
  6
CONTINUOUS
 62
     7
100
AcDbCircle
 10
1208.734863
 20
880.117031
 30
0.0
 40
17.330189
100
AcDbArc
 50
69.743917
 51
110.256083
  0
LINE
  5
2A3
100
AcDbEntity
  8
001
  6
CONTINUOUS
 62
     7
100
AcDbLine
 10
1202.734863
 20
897.447205
 30
0.0
 11
1203.234863
 21
897.735901
 31
0.0
  0
LINE
  5
2A4
100
AcDbEntity
  8
001
  6
CONTINUOUS
 62
     7
100
AcDbLine
 10
1226.234863
 20
897.735901
 30
0.0
 11
1203.234863
 21
897.735901
 31
0.0
  0
LINE
  5
2A5
100
AcDbEntity
  8
001
  6
CONTINUOUS
 62
     7
100
AcDbLine
 10
1202.734863
 20
897.447205
 30
0.0
 11
1202.734863
 21
884.735901
 31
0.0
  0
ARC
  5
2A6
100
AcDbEntity
  8
001
  6
CONTINUOUS
 62
     7
100
AcDbCircle
 10
1220.734863
 20
880.117031
 30
0.0
 40
17.330189
100
AcDbArc
 50
69.743917
 51
110.256083
  0
LINE
  5
2A7
100
AcDbEntity
  8
001
  6
CONTINUOUS
 62
     7
100
AcDbLine
 10
1214.734863
 20
896.375427
 30
0.0
 11
1214.734863
 21
884.735901
 31
0.0
  0
LINE
  5
2A8
100
AcDbEntity
  8
001
  6
CONTINUOUS
 62
     7
100
AcDbLine
 10
1226.734863
 20
897.447205
 30
0.0
 11
1226.234863
 21
897.735901
 31
0.0
  0
LINE
  5
2A9
100
AcDbEntity
  8
001
  6
CONTINUOUS
 62
     7
100
AcDbLine
 10
1226.734863
 20
897.447205
 30
0.0
 11
1226.734863
 21
884.735901
 31
0.0
  0
ARC
  5
2AA
100
AcDbEntity
  8
001
  6
CONTINUOUS
 62
     7
100
AcDbCircle
 10
1208.734863
 20
840.104648
 30
0.0
 40
17.330189
100
AcDbArc
 50
249.743917
 51
290.256083
  0
ARC
  5
2AB
100
AcDbEntity
  8
001
  6
CONTINUOUS
 62
     7
100
AcDbCircle
 10
1220.734863
 20
840.104648
 30
0.0
 40
17.330189
100
AcDbArc
 50
249.743917
 51
290.256083
  0
LINE
  5
2AC
100
AcDbEntity
  8
001
  6
CONTINUOUS
 62
     7
100
AcDbLine
 10
1202.734863
 20
822.774414
 30
0.0
 11
1203.234863
 21
822.485779
 31
0.0
  0
LINE
  5
2AD
100
AcDbEntity
  8
001
  6
CONTINUOUS
 62
     7
100
AcDbLine
 10
1226.734863
 20
822.774414
 30
0.0
 11
1226.234863
 21
822.485779
 31
0.0
  0
LINE
  5
2AE
100
AcDbEntity
  8
001
  6
CONTINUOUS
 62
     7
100
AcDbLine
 10
1203.234863
 20
822.485779
 30
0.0
 11
1226.234863
 21
822.485779
 31
0.0
  0
LINE
  5
2AF
100
AcDbEntity
  8
001
  6
CONTINUOUS
 62
     7
100
AcDbLine
 10
1226.734863
 20
822.774414
 30
0.0
 11
1226.734863
 21
832.485779
 31
0.0
  0
LINE
  5
2B0
100
AcDbEntity
  8
001
  6
CONTINUOUS
 62
     7
100
AcDbLine
 10
1214.734863
 20
823.846252
 30
0.0
 11
1214.734863
 21
832.485779
 31
0.0
  0
LINE
  5
2B1
100
AcDbEntity
  8
001
  6
CONTINUOUS
 62
     7
100
AcDbLine
 10
1202.734863
 20
822.774414
 30
0.0
 11
1202.734863
 21
832.485779
 31
0.0
  0
ARC
  5
2B2
100
AcDbEntity
  8
001
  6
CONTINUOUS
 62
     7
100
AcDbCircle
 10
1212.397831
 20
894.235781
 30
0.0
 40
12.500001
100
AcDbArc
 50
191.385105
 51
219.372567
  0
LINE
  5
2B3
100
AcDbEntity
  8
001
  6
CONTINUOUS
 62
     7
100
AcDbLine
 10
1203.112549
 20
822.556396
 30
0.0
 11
1197.25
 21
804.235657
 31
0.0
  0
LINE
  5
2B4
100
AcDbEntity
  8
001
  6
CONTINUOUS
 62
     7
100
AcDbLine
 10
1235.214355
 20
897.447205
 30
0.0
 11
1234.714355
 21
897.735901
 31
0.0
  0
LINE
  5
2B5
100
AcDbEntity
  8
001
  6
CONTINUOUS
 62
     7
100
AcDbLine
 10
1235.214355
 20
897.447205
 30
0.0
 11
1235.214355
 21
884.735901
 31
0.0
  0
LINE
  5
2B6
100
AcDbEntity
  8
001
  6
CONTINUOUS
 62
     7
100
AcDbLine
 10
1231.2146
 20
904.735901
 30
0.0
 11
1231.2146
 21
897.735901
 31
0.0
  0
LINE
  5
2B7
100
AcDbEntity
  8
001
  6
CONTINUOUS
 62
     7
100
AcDbLine
 10
1237.2146
 20
835.485779
 30
0.0
 11
1237.2146
 21
832.485779
 31
0.0
  0
LINE
  5
2B8
100
AcDbEntity
  8
001
  6
CONTINUOUS
 62
     7
100
AcDbLine
 10
1235.214355
 20
822.774414
 30
0.0
 11
1234.714355
 21
822.485779
 31
0.0
  0
LINE
  5
2B9
100
AcDbEntity
  8
001
  6
CONTINUOUS
 62
     7
100
AcDbLine
 10
1235.214355
 20
822.774414
 30
0.0
 11
1235.214355
 21
832.485779
 31
0.0
  0
LINE
  5
2BA
100
AcDbEntity
  8
001
  6
CONTINUOUS
 62
     7
100
AcDbLine
 10
1237.2146
 20
881.977966
 30
0.0
 11
1237.2146
 21
884.735901
 31
0.0
  0
ARC
  5
2BB
100
AcDbEntity
  8
001
  6
CONTINUOUS
 62
     7
100
AcDbCircle
 10
1223.214439
 20
889.735604
 30
0.0
 40
17.000284
100
AcDbArc
 50
61.927409
 51
104.44144
  0
ARC
  5
2BC
100
AcDbEntity
  8
001
  6
CONTINUOUS
 62
     7
100
AcDbCircle
 10
1229.214369
 20
880.117026
 30
0.0
 40
17.330189
100
AcDbArc
 50
69.743965
 51
98.225786
  0
LINE
  5
2BD
100
AcDbEntity
  8
001
  6
CONTINUOUS
 62
     7
100
AcDbLine
 10
1234.714355
 20
897.735901
 30
0.0
 11
1226.234863
 21
897.735901
 31
0.0
  0
LINE
  5
2BE
100
AcDbEntity
  8
001
  6
CONTINUOUS
 62
     7
100
AcDbLine
 10
1237.2146
 20
884.735901
 30
0.0
 11
1200.734863
 21
884.735901
 31
0.0
  0
LINE
  5
2BF
100
AcDbEntity
  8
001
  6
CONTINUOUS
 62
     7
100
AcDbLine
 10
1226.234863
 20
822.485779
 30
0.0
 11
1234.714355
 21
822.485779
 31
0.0
  0
ARC
  5
2C0
100
AcDbEntity
  8
001
  6
CONTINUOUS
 62
     7
100
AcDbCircle
 10
1229.21445
 20
840.104622
 30
0.0
 40
17.330189
100
AcDbArc
 50
261.857121
 51
290.25575
  0
LINE
  5
2C1
100
AcDbEntity
  8
001
  6
CONTINUOUS
 62
     7
100
AcDbLine
 10
1237.2146
 20
832.485779
 30
0.0
 11
1200.734863
 21
832.485779
 31
0.0
  0
LINE
  5
2C2
100
AcDbEntity
  8
001
  6
CONTINUOUS
 62
     7
100
AcDbLine
 10
1086.646606
 20
835.485779
 30
0.0
 11
1086.646606
 21
832.485779
 31
0.0
  0
LINE
  5
2C3
100
AcDbEntity
  8
001
  6
CONTINUOUS
 62
     7
100
AcDbLine
 10
1058.646362
 20
835.485779
 30
0.0
 11
1058.646362
 21
832.485779
 31
0.0
  0
LINE
  5
2C4
100
AcDbEntity
  8
001
  6
CONTINUOUS
 62
     7
100
AcDbLine
 10
1058.646362
 20
832.485779
 30
0.0
 11
1086.646606
 21
832.485779
 31
0.0
  0
ARC
  5
2C5
100
AcDbEntity
  8
001
  6
CONTINUOUS
 62
     7
100
AcDbCircle
 10
1078.646606
 20
840.104648
 30
0.0
 40
17.330189
100
AcDbArc
 50
249.743917
 51
290.256083
  0
ARC
  5
2C6
100
AcDbEntity
  8
001
  6
CONTINUOUS
 62
     7
100
AcDbCircle
 10
1066.646606
 20
840.104648
 30
0.0
 40
17.330189
100
AcDbArc
 50
249.743917
 51
290.256083
  0
LINE
  5
2C7
100
AcDbEntity
  8
001
  6
CONTINUOUS
 62
     7
100
AcDbLine
 10
1084.646606
 20
822.774414
 30
0.0
 11
1084.146606
 21
822.485779
 31
0.0
  0
LINE
  5
2C8
100
AcDbEntity
  8
001
  6
CONTINUOUS
 62
     7
100
AcDbLine
 10
1060.646606
 20
822.774414
 30
0.0
 11
1061.146606
 21
822.485779
 31
0.0
  0
LINE
  5
2C9
100
AcDbEntity
  8
001
  6
CONTINUOUS
 62
     7
100
AcDbLine
 10
1084.146606
 20
822.485779
 30
0.0
 11
1061.146606
 21
822.485779
 31
0.0
  0
LINE
  5
2CA
100
AcDbEntity
  8
001
  6
CONTINUOUS
 62
     7
100
AcDbLine
 10
1060.646606
 20
822.774414
 30
0.0
 11
1060.646606
 21
832.485779
 31
0.0
  0
LINE
  5
2CB
100
AcDbEntity
  8
001
  6
CONTINUOUS
 62
     7
100
AcDbLine
 10
1072.646606
 20
823.846252
 30
0.0
 11
1072.646606
 21
832.485779
 31
0.0
  0
LINE
  5
2CC
100
AcDbEntity
  8
001
  6
CONTINUOUS
 62
     7
100
AcDbLine
 10
1084.646606
 20
822.774414
 30
0.0
 11
1084.646606
 21
832.485779
 31
0.0
  0
LINE
  5
2CD
100
AcDbEntity
  8
001
  6
CONTINUOUS
 62
     7
100
AcDbLine
 10
1064.646362
 20
904.735901
 30
0.0
 11
1080.646606
 21
904.735901
 31
0.0
  0
ARC
  5
2CE
100
AcDbEntity
  8
001
  6
CONTINUOUS
 62
     7
100
AcDbCircle
 10
1072.646484
 20
889.735644
 30
0.0
 40
17.000284
100
AcDbArc
 50
61.927558
 51
118.072442
  0
LINE
  5
2CF
100
AcDbEntity
  8
001
  6
CONTINUOUS
 62
     7
100
AcDbLine
 10
1080.646606
 20
904.735901
 30
0.0
 11
1080.646606
 21
897.735901
 31
0.0
  0
LINE
  5
2D0
100
AcDbEntity
  8
001
  6
CONTINUOUS
 62
     7
100
AcDbLine
 10
1064.646362
 20
904.735901
 30
0.0
 11
1064.646362
 21
897.735901
 31
0.0
  0
LINE
  5
2D1
100
AcDbEntity
  8
001
  6
CONTINUOUS
 62
     7
100
AcDbLine
 10
1058.646362
 20
884.735901
 30
0.0
 11
1086.646606
 21
884.735901
 31
0.0
  0
LINE
  5
2D2
100
AcDbEntity
  8
001
  6
CONTINUOUS
 62
     7
100
AcDbLine
 10
1086.646606
 20
881.735779
 30
0.0
 11
1086.646606
 21
884.735901
 31
0.0
  0
LINE
  5
2D3
100
AcDbEntity
  8
001
  6
CONTINUOUS
 62
     7
100
AcDbLine
 10
1058.646362
 20
881.977966
 30
0.0
 11
1058.646362
 21
884.735901
 31
0.0
  0
ARC
  5
2D4
100
AcDbEntity
  8
001
  6
CONTINUOUS
 62
     7
100
AcDbCircle
 10
1066.646606
 20
880.117031
 30
0.0
 40
17.330189
100
AcDbArc
 50
69.743917
 51
110.256083
  0
ARC
  5
2D5
100
AcDbEntity
  8
001
  6
CONTINUOUS
 62
     7
100
AcDbCircle
 10
1078.646606
 20
880.117031
 30
0.0
 40
17.330189
100
AcDbArc
 50
69.743917
 51
110.256083
  0
LINE
  5
2D6
100
AcDbEntity
  8
001
  6
CONTINUOUS
 62
     7
100
AcDbLine
 10
1060.646606
 20
897.447205
 30
0.0
 11
1061.146606
 21
897.735901
 31
0.0
  0
LINE
  5
2D7
100
AcDbEntity
  8
001
  6
CONTINUOUS
 62
     7
100
AcDbLine
 10
1084.646606
 20
897.447205
 30
0.0
 11
1084.146606
 21
897.735901
 31
0.0
  0
LINE
  5
2D8
100
AcDbEntity
  8
001
  6
CONTINUOUS
 62
     7
100
AcDbLine
 10
1061.146606
 20
897.735901
 30
0.0
 11
1084.146606
 21
897.735901
 31
0.0
  0
LINE
  5
2D9
100
AcDbEntity
  8
001
  6
CONTINUOUS
 62
     7
100
AcDbLine
 10
1084.646606
 20
897.447205
 30
0.0
 11
1084.646606
 21
884.735901
 31
0.0
  0
LINE
  5
2DA
100
AcDbEntity
  8
001
  6
CONTINUOUS
 62
     7
100
AcDbLine
 10
1072.646606
 20
896.375427
 30
0.0
 11
1072.646606
 21
884.735901
 31
0.0
  0
LINE
  5
2DB
100
AcDbEntity
  8
001
  6
CONTINUOUS
 62
     7
100
AcDbLine
 10
1060.646606
 20
897.447205
 30
0.0
 11
1060.646606
 21
884.735901
 31
0.0
  0
ARC
  5
2DC
100
AcDbEntity
  8
001
  6
CONTINUOUS
 62
     7
100
AcDbCircle
 10
1015.765015
 20
889.735644
 30
0.0
 40
17.000284
100
AcDbArc
 50
61.927558
 51
118.072442
  0
LINE
  5
2DD
100
AcDbEntity
  8
001
  6
CONTINUOUS
 62
     7
100
AcDbLine
 10
1023.765137
 20
904.735901
 30
0.0
 11
1023.765137
 21
897.735901
 31
0.0
  0
LINE
  5
2DE
100
AcDbEntity
  8
001
  6
CONTINUOUS
 62
     7
100
AcDbLine
 10
1007.764893
 20
904.735901
 30
0.0
 11
1007.764893
 21
897.735901
 31
0.0
  0
LINE
  5
2DF
100
AcDbEntity
  8
001
  6
CONTINUOUS
 62
     7
100
AcDbLine
 10
1029.765137
 20
881.735779
 30
0.0
 11
1029.765137
 21
884.735901
 31
0.0
  0
LINE
  5
2E0
100
AcDbEntity
  8
001
  6
CONTINUOUS
 62
     7
100
AcDbLine
 10
1001.764893
 20
881.977966
 30
0.0
 11
1001.764893
 21
884.735901
 31
0.0
  0
ARC
  5
2E1
100
AcDbEntity
  8
001
  6
CONTINUOUS
 62
     7
100
AcDbCircle
 10
1021.765137
 20
880.117031
 30
0.0
 40
17.330189
100
AcDbArc
 50
69.743917
 51
110.256083
  0
LINE
  5
2E2
100
AcDbEntity
  8
001
  6
CONTINUOUS
 62
     7
100
AcDbLine
 10
1027.765137
 20
897.447205
 30
0.0
 11
1027.265137
 21
897.735901
 31
0.0
  0
LINE
  5
2E3
100
AcDbEntity
  8
001
  6
CONTINUOUS
 62
     7
100
AcDbLine
 10
1004.265137
 20
897.735901
 30
0.0
 11
1027.265137
 21
897.735901
 31
0.0
  0
LINE
  5
2E4
100
AcDbEntity
  8
001
  6
CONTINUOUS
 62
     7
100
AcDbLine
 10
1027.765137
 20
897.447205
 30
0.0
 11
1027.765137
 21
884.735901
 31
0.0
  0
ARC
  5
2E5
100
AcDbEntity
  8
001
  6
CONTINUOUS
 62
     7
100
AcDbCircle
 10
1009.765137
 20
880.117031
 30
0.0
 40
17.330189
100
AcDbArc
 50
69.743917
 51
110.256083
  0
LINE
  5
2E6
100
AcDbEntity
  8
001
  6
CONTINUOUS
 62
     7
100
AcDbLine
 10
1015.765137
 20
896.375427
 30
0.0
 11
1015.765137
 21
884.735901
 31
0.0
  0
LINE
  5
2E7
100
AcDbEntity
  8
001
  6
CONTINUOUS
 62
     7
100
AcDbLine
 10
1003.765137
 20
897.447205
 30
0.0
 11
1004.265137
 21
897.735901
 31
0.0
  0
LINE
  5
2E8
100
AcDbEntity
  8
001
  6
CONTINUOUS
 62
     7
100
AcDbLine
 10
1003.765137
 20
897.447205
 30
0.0
 11
1003.765137
 21
884.735901
 31
0.0
  0
LINE
  5
2E9
100
AcDbEntity
  8
001
  6
CONTINUOUS
 62
     7
100
AcDbLine
 10
995.285645
 20
897.447205
 30
0.0
 11
995.785645
 21
897.735901
 31
0.0
  0
LINE
  5
2EA
100
AcDbEntity
  8
001
  6
CONTINUOUS
 62
     7
100
AcDbLine
 10
995.285645
 20
897.447205
 30
0.0
 11
995.285645
 21
884.735901
 31
0.0
  0
LINE
  5
2EB
100
AcDbEntity
  8
001
  6
CONTINUOUS
 62
     7
100
AcDbLine
 10
999.2854
 20
904.735901
 30
0.0
 11
999.2854
 21
897.735901
 31
0.0
  0
LINE
  5
2EC
100
AcDbEntity
  8
001
  6
CONTINUOUS
 62
     7
100
AcDbLine
 10
993.2854
 20
881.977966
 30
0.0
 11
993.2854
 21
884.735901
 31
0.0
  0
ARC
  5
2ED
100
AcDbEntity
  8
001
  6
CONTINUOUS
 62
     7
100
AcDbCircle
 10
1007.285561
 20
889.735604
 30
0.0
 40
17.000284
100
AcDbArc
 50
75.55856
 51
118.072591
  0
ARC
  5
2EE
100
AcDbEntity
  8
001
  6
CONTINUOUS
 62
     7
100
AcDbCircle
 10
1001.285631
 20
880.117026
 30
0.0
 40
17.330189
100
AcDbArc
 50
81.774214
 51
110.256035
  0
LINE
  5
2EF
100
AcDbEntity
  8
001
  6
CONTINUOUS
 62
     7
100
AcDbLine
 10
995.785645
 20
897.735901
 30
0.0
 11
1004.265137
 21
897.735901
 31
0.0
  0
LINE
  5
2F0
100
AcDbEntity
  8
001
  6
CONTINUOUS
 62
     7
100
AcDbLine
 10
993.2854
 20
884.735901
 30
0.0
 11
1029.765137
 21
884.735901
 31
0.0
  0
LINE
  5
2F1
100
AcDbEntity
  8
001
  6
CONTINUOUS
 62
     7
100
AcDbLine
 10
1029.765137
 20
835.485779
 30
0.0
 11
1029.765137
 21
832.485779
 31
0.0
  0
LINE
  5
2F2
100
AcDbEntity
  8
001
  6
CONTINUOUS
 62
     7
100
AcDbLine
 10
1001.764893
 20
835.485779
 30
0.0
 11
1001.764893
 21
832.485779
 31
0.0
  0
ARC
  5
2F3
100
AcDbEntity
  8
001
  6
CONTINUOUS
 62
     7
100
AcDbCircle
 10
1021.765137
 20
840.104648
 30
0.0
 40
17.330189
100
AcDbArc
 50
249.743917
 51
290.256083
  0
ARC
  5
2F4
100
AcDbEntity
  8
001
  6
CONTINUOUS
 62
     7
100
AcDbCircle
 10
1009.765137
 20
840.104648
 30
0.0
 40
17.330189
100
AcDbArc
 50
249.743917
 51
290.256083
  0
LINE
  5
2F5
100
AcDbEntity
  8
001
  6
CONTINUOUS
 62
     7
100
AcDbLine
 10
1027.765137
 20
822.774414
 30
0.0
 11
1027.265137
 21
822.485779
 31
0.0
  0
LINE
  5
2F6
100
AcDbEntity
  8
001
  6
CONTINUOUS
 62
     7
100
AcDbLine
 10
1003.765137
 20
822.774414
 30
0.0
 11
1004.265137
 21
822.485779
 31
0.0
  0
LINE
  5
2F7
100
AcDbEntity
  8
001
  6
CONTINUOUS
 62
     7
100
AcDbLine
 10
1027.265137
 20
822.485779
 30
0.0
 11
1004.265137
 21
822.485779
 31
0.0
  0
LINE
  5
2F8
100
AcDbEntity
  8
001
  6
CONTINUOUS
 62
     7
100
AcDbLine
 10
1003.765137
 20
822.774414
 30
0.0
 11
1003.765137
 21
832.485779
 31
0.0
  0
LINE
  5
2F9
100
AcDbEntity
  8
001
  6
CONTINUOUS
 62
     7
100
AcDbLine
 10
1015.765137
 20
823.846252
 30
0.0
 11
1015.765137
 21
832.485779
 31
0.0
  0
LINE
  5
2FA
100
AcDbEntity
  8
001
  6
CONTINUOUS
 62
     7
100
AcDbLine
 10
1027.765137
 20
822.774414
 30
0.0
 11
1027.765137
 21
832.485779
 31
0.0
  0
LINE
  5
2FB
100
AcDbEntity
  8
001
  6
CONTINUOUS
 62
     7
100
AcDbLine
 10
993.2854
 20
835.485779
 30
0.0
 11
993.2854
 21
832.485779
 31
0.0
  0
LINE
  5
2FC
100
AcDbEntity
  8
001
  6
CONTINUOUS
 62
     7
100
AcDbLine
 10
995.285645
 20
822.774414
 30
0.0
 11
995.785645
 21
822.485779
 31
0.0
  0
LINE
  5
2FD
100
AcDbEntity
  8
001
  6
CONTINUOUS
 62
     7
100
AcDbLine
 10
995.285645
 20
822.774414
 30
0.0
 11
995.285645
 21
832.485779
 31
0.0
  0
LINE
  5
2FE
100
AcDbEntity
  8
001
  6
CONTINUOUS
 62
     7
100
AcDbLine
 10
1004.265137
 20
822.485779
 30
0.0
 11
995.785645
 21
822.485779
 31
0.0
  0
ARC
  5
2FF
100
AcDbEntity
  8
001
  6
CONTINUOUS
 62
     7
100
AcDbCircle
 10
1001.285635
 20
840.104652
 30
0.0
 40
17.330189
100
AcDbArc
 50
249.743951
 51
278.142187
  0
LINE
  5
300
100
AcDbEntity
  8
001
  6
CONTINUOUS
 62
     7
100
AcDbLine
 10
993.2854
 20
832.485779
 30
0.0
 11
1029.765137
 21
832.485779
 31
0.0
  0
LINE
  5
301
100
AcDbEntity
  8
001
  6
CONTINUOUS
 62
     7
100
AcDbLine
 10
1027.387451
 20
822.556396
 30
0.0
 11
1033.25
 21
804.235657
 31
0.0
  0
ARC
  5
302
100
AcDbEntity
  8
001
  6
CONTINUOUS
 62
     7
100
AcDbCircle
 10
1018.102169
 20
894.235781
 30
0.0
 40
12.500001
100
AcDbArc
 50
320.627433
 51
348.614895
  0
ARC
  5
303
100
AcDbEntity
  8
001
  6
CONTINUOUS
 62
     7
100
AcDbCircle
 10
1115.25
 20
1085.485479
 30
0.0
 40
5.0
100
AcDbArc
 50
339.515612
 51
200.484388
  0
LINE
  5
304
100
AcDbEntity
  8
001
  6
CONTINUOUS
 62
     7
100
AcDbLine
 10
1117.219238
 20
1083.735718
 30
0.0
 11
1117.75
 21
1084.042236
 31
0.0
  0
LINE
  5
305
100
AcDbEntity
  8
001
  6
CONTINUOUS
 62
     7
100
AcDbLine
 10
1112.75
 20
1084.042236
 30
0.0
 11
1113.280762
 21
1083.735718
 31
0.0
  0
LINE
  5
306
100
AcDbEntity
  8
001
  6
CONTINUOUS
 62
     7
100
AcDbLine
 10
1112.75
 20
1086.928955
 30
0.0
 11
1112.75
 21
1084.042236
 31
0.0
  0
LINE
  5
307
100
AcDbEntity
  8
001
  6
CONTINUOUS
 62
     7
100
AcDbLine
 10
1115.25
 20
1088.372314
 30
0.0
 11
1112.75
 21
1086.928955
 31
0.0
  0
LINE
  5
308
100
AcDbEntity
  8
001
  6
CONTINUOUS
 62
     7
100
AcDbLine
 10
1117.75
 20
1084.042236
 30
0.0
 11
1117.75
 21
1086.928955
 31
0.0
  0
LINE
  5
309
100
AcDbEntity
  8
001
  6
CONTINUOUS
 62
     7
100
AcDbLine
 10
1117.75
 20
1086.928955
 30
0.0
 11
1115.25
 21
1088.372314
 31
0.0
  0
LINE
  5
30A
100
AcDbEntity
  8
001
  6
CONTINUOUS
 62
     7
100
AcDbLine
 10
2044.87561
 20
1029.560181
 30
0.0
 11
2080.661621
 21
1023.250122
 31
0.0
  0
LINE
  5
30B
100
AcDbEntity
  8
001
  6
CONTINUOUS
 62
     7
100
AcDbLine
 10
2063.982422
 20
1010.959045
 30
0.0
 11
2074.745605
 21
1009.06189
 31
0.0
  0
ARC
  5
30C
100
AcDbEntity
  8
001
  6
CONTINUOUS
 62
     7
100
AcDbCircle
 10
2062.593701
 20
1003.080502
 30
0.0
 40
8.0
100
AcDbArc
 50
80.003378
 51
203.387602
  0
ARC
  5
30D
100
AcDbEntity
  8
001
  6
CONTINUOUS
 62
     7
100
AcDbCircle
 10
2045.743885
 20
1034.484213
 30
0.0
 40
5.0
100
AcDbArc
 50
203.387044
 51
259.999606
  0
LINE
  5
30E
100
AcDbEntity
  8
001
  6
CONTINUOUS
 62
     7
100
AcDbLine
 10
1861.62439
 20
1029.560181
 30
0.0
 11
1825.838379
 21
1023.250122
 31
0.0
  0
ARC
  5
30F
100
AcDbEntity
  8
001
  6
CONTINUOUS
 62
     7
100
AcDbCircle
 10
1843.906299
 20
1003.080502
 30
0.0
 40
8.0
100
AcDbArc
 50
336.612398
 51
99.996622
  0
ARC
  5
310
100
AcDbEntity
  8
001
  6
CONTINUOUS
 62
     7
100
AcDbCircle
 10
1860.756115
 20
1034.484213
 30
0.0
 40
5.0
100
AcDbArc
 50
280.000394
 51
336.612956
  0
LINE
  5
311
100
AcDbEntity
  8
001
  6
CONTINUOUS
 62
     7
100
AcDbLine
 10
1842.517578
 20
1010.959045
 30
0.0
 11
1831.754395
 21
1009.06189
 31
0.0
  0
LINE
  5
312
100
AcDbEntity
  8
001
  6
CONTINUOUS
 62
     7
100
AcDbLine
 10
1953.25
 20
1161.485596
 30
0.0
 11
1936.5
 21
1161.485596
 31
0.0
  0
LINE
  5
313
100
AcDbEntity
  8
001
  6
CONTINUOUS
 62
     7
100
AcDbLine
 10
1936.5
 20
1113.485596
 30
0.0
 11
1936.5
 21
1161.485596
 31
0.0
  0
ARC
  5
315
100
AcDbEntity
  8
001
  6
CONTINUOUS
 62
     7
100
AcDbCircle
 10
1938.5
 20
1113.485596
 30
0.0
 40
2.0
100
AcDbArc
 50
180.0
 51
270.0
  0
LINE
  5
317
100
AcDbEntity
  8
001
  6
CONTINUOUS
 62
     7
100
AcDbLine
 10
1132.0
 20
1161.485596
 30
0.0
 11
1115.25
 21
1161.485596
 31
0.0
  0
LINE
  5
318
100
AcDbEntity
  8
001
  6
CONTINUOUS
 62
     7
100
AcDbLine
 10
1132.0
 20
1113.485596
 30
0.0
 11
1132.0
 21
1161.485596
 31
0.0
  0
ARC
  5
319
100
AcDbEntity
  8
001
  6
CONTINUOUS
 62
     7
100
AcDbCircle
 10
1130.0
 20
1113.485596
 30
0.0
 40
2.0
100
AcDbArc
 50
270.0
 51
0.0
  0
LINE
  5
31C
100
AcDbEntity
  8
001
  6
CONTINUOUS
 62
     7
100
AcDbLine
 10
1098.5
 20
1738.485596
 30
0.0
 11
1132.0
 21
1738.485596
 31
0.0
  0
LINE
  5
31D
100
AcDbEntity
  8
001
  6
CONTINUOUS
 62
     7
100
AcDbLine
 10
1134.25
 20
1702.735596
 30
0.0
 11
1134.25
 21
1736.235596
 31
0.0
  0
LINE
  5
31E
100
AcDbEntity
  8
001
  6
CONTINUOUS
 62
     7
100
AcDbLine
 10
1098.5
 20
1700.485596
 30
0.0
 11
1132.0
 21
1700.485596
 31
0.0
  0
LINE
  5
31F
100
AcDbEntity
  8
001
  6
CONTINUOUS
 62
     7
100
AcDbLine
 10
1096.25
 20
1702.735596
 30
0.0
 11
1096.25
 21
1736.235596
 31
0.0
  0
LINE
  5
320
100
AcDbEntity
  8
001
  6
CONTINUOUS
 62
     7
100
AcDbLine
 10
1096.25
 20
1736.235596
 30
0.0
 11
1134.25
 21
1736.235596
 31
0.0
  0
LINE
  5
321
100
AcDbEntity
  8
001
  6
CONTINUOUS
 62
     7
100
AcDbLine
 10
1132.0
 20
1700.485596
 30
0.0
 11
1132.0
 21
1738.485596
 31
0.0
  0
LINE
  5
322
100
AcDbEntity
  8
001
  6
CONTINUOUS
 62
     7
100
AcDbLine
 10
1134.25
 20
1702.735596
 30
0.0
 11
1096.25
 21
1702.735596
 31
0.0
  0
LINE
  5
323
100
AcDbEntity
  8
001
  6
CONTINUOUS
 62
     7
100
AcDbLine
 10
1098.5
 20
1738.485596
 30
0.0
 11
1098.5
 21
1700.485596
 31
0.0
  0
LINE
  5
324
100
AcDbEntity
  8
001
  6
CONTINUOUS
 62
     7
100
AcDbLine
 10
1134.25
 20
1736.235596
 30
0.0
 11
1132.0
 21
1738.485596
 31
0.0
  0
LINE
  5
325
100
AcDbEntity
  8
001
  6
CONTINUOUS
 62
     7
100
AcDbLine
 10
1098.5
 20
1738.485596
 30
0.0
 11
1096.25
 21
1736.235596
 31
0.0
  0
LINE
  5
326
100
AcDbEntity
  8
001
  6
CONTINUOUS
 62
     7
100
AcDbLine
 10
1096.25
 20
1702.735596
 30
0.0
 11
1098.5
 21
1700.485596
 31
0.0
  0
LINE
  5
327
100
AcDbEntity
  8
001
  6
CONTINUOUS
 62
     7
100
AcDbLine
 10
1132.0
 20
1700.485596
 30
0.0
 11
1134.25
 21
1702.735596
 31
0.0
  0
LINE
  5
328
100
AcDbEntity
  8
001
  6
CONTINUOUS
 62
     7
100
AcDbLine
 10
1231.2146
 20
904.735901
 30
0.0
 11
1206.734863
 21
904.735901
 31
0.0
  0
LINE
  5
329
100
AcDbEntity
  8
001
  6
CONTINUOUS
 62
     7
100
AcDbLine
 10
999.2854
 20
904.735901
 30
0.0
 11
1023.765137
 21
904.735901
 31
0.0
  0
LINE
  5
32A
100
AcDbEntity
  8
001
  6
CONTINUOUS
 62
     7
100
AcDbLine
 10
1395.25
 20
747.485596
 30
0.0
 11
1380.25
 21
747.485596
 31
0.0
  0
ARC
  5
32B
100
AcDbEntity
  8
001
  6
CONTINUOUS
 62
     7
100
AcDbCircle
 10
1380.25
 20
740.485596
 30
0.0
 40
7.0
100
AcDbArc
 50
90.0
 51
180.0
  0
LINE
  5
32C
100
AcDbEntity
  8
001
  6
CONTINUOUS
 62
     7
100
AcDbLine
 10
1368.685791
 20
704.710632
 30
0.0
 11
1312.984009
 21
699.837402
 31
0.0
  0
ARC
  5
32D
100
AcDbEntity
  8
001
  6
CONTINUOUS
 62
     7
100
AcDbCircle
 10
1368.25
 20
709.691605
 30
0.0
 40
5.0
100
AcDbArc
 50
275.000142
 51
0.000523
  0
ARC
  5
32E
100
AcDbEntity
  8
001
  6
CONTINUOUS
 62
     7
100
AcDbCircle
 10
1315.25002
 20
673.936337
 30
0.0
 40
26.0
100
AcDbArc
 50
94.999915
 51
124.876607
  0
LINE
  5
32F
100
AcDbEntity
  8
001
  6
CONTINUOUS
 62
     7
100
AcDbLine
 10
1203.239502
 20
686.285645
 30
0.0
 11
1271.792358
 21
686.285645
 31
0.0
  0
ARC
  5
330
100
AcDbEntity
  8
001
  6
CONTINUOUS
 62
     7
100
AcDbCircle
 10
1271.79241
 20
736.285645
 30
0.0
 40
50.0
100
AcDbArc
 50
269.999941
 51
304.876573
  0
ARC
  5
331
100
AcDbEntity
  8
001
  6
CONTINUOUS
 62
     7
100
AcDbCircle
 10
1203.239441
 20
696.285645
 30
0.0
 40
10.0
100
AcDbArc
 50
170.000184
 51
270.000352
  0
CIRCLE
  5
332
100
AcDbEntity
  8
001
  6
CONTINUOUS
 62
     7
100
AcDbCircle
 10
1953.25
 20
550.485596
 30
0.0
 40
125.0
  0
CIRCLE
  5
333
100
AcDbEntity
  8
001
  6
CONTINUOUS
 62
     7
100
AcDbCircle
 10
1953.25
 20
550.485596
 30
0.0
 40
137.550003
  0
CIRCLE
  5
334
100
AcDbEntity
  8
001
  6
CONTINUOUS
 62
     7
100
AcDbCircle
 10
1953.25
 20
550.485596
 30
0.0
 40
141.209579
  0
CIRCLE
  5
335
100
AcDbEntity
  8
001
  6
CONTINUOUS
 62
     7
100
AcDbCircle
 10
1953.25
 20
550.485596
 30
0.0
 40
152.800003
  0
LINE
  5
336
100
AcDbEntity
  8
001
  6
CONTINUOUS
 62
     7
100
AcDbLine
 10
2117.25
 20
740.783142
 30
0.0
 11
2004.199585
 21
740.783142
 31
0.0
  0
LINE
  5
337
100
AcDbEntity
  8
001
  6
CONTINUOUS
 62
     7
100
AcDbLine
 10
1902.300415
 20
740.783142
 30
0.0
 11
1789.25
 21
740.783142
 31
0.0
  0
LINE
  5
338
100
AcDbEntity
  8
001
  6
CONTINUOUS
 62
     7
100
AcDbLine
 10
2149.806641
 20
737.889099
 30
0.0
 11
2013.986572
 21
737.889099
 31
0.0
  0
LINE
  5
339
100
AcDbEntity
  8
001
  6
CONTINUOUS
 62
     7
100
AcDbLine
 10
1892.513428
 20
737.889099
 30
0.0
 11
1756.693359
 21
737.889099
 31
0.0
  0
LINE
  5
33A
100
AcDbEntity
  8
001
  6
CONTINUOUS
 62
     7
100
AcDbLine
 10
2117.25
 20
719.898499
 30
0.0
 11
2053.790039
 21
719.898499
 31
0.0
  0
LINE
  5
33B
100
AcDbEntity
  8
001
  6
CONTINUOUS
 62
     7
100
AcDbLine
 10
1852.710083
 20
719.898499
 30
0.0
 11
1789.25
 21
719.898499
 31
0.0
  0
LINE
  5
33C
100
AcDbEntity
  8
001
  6
CONTINUOUS
 62
     7
100
AcDbLine
 10
2149.806641
 20
722.792664
 30
0.0
 11
2048.744873
 21
722.792664
 31
0.0
  0
LINE
  5
33D
100
AcDbEntity
  8
001
  6
CONTINUOUS
 62
     7
100
AcDbLine
 10
1857.755005
 20
722.792664
 30
0.0
 11
1756.693359
 21
722.792664
 31
0.0
  0
LINE
  5
33E
100
AcDbEntity
  8
001
  6
CONTINUOUS
 62
     7
100
AcDbLine
 10
1395.25
 20
353.485626
 30
0.0
 11
1380.25
 21
353.485626
 31
0.0
  0
ARC
  5
33F
100
AcDbEntity
  8
001
  6
CONTINUOUS
 62
     7
100
AcDbCircle
 10
1380.25
 20
360.485626
 30
0.0
 40
7.0
100
AcDbArc
 50
180.0
 51
270.0
  0
LINE
  5
340
100
AcDbEntity
  8
001
  6
CONTINUOUS
 62
     7
100
AcDbLine
 10
1368.685791
 20
396.26059
 30
0.0
 11
1312.984009
 21
401.133881
 31
0.0
  0
ARC
  5
341
100
AcDbEntity
  8
001
  6
CONTINUOUS
 62
     7
100
AcDbCircle
 10
1368.25
 20
391.279617
 30
0.0
 40
5.0
100
AcDbArc
 50
0.000176
 51
84.999858
  0
ARC
  5
342
100
AcDbEntity
  8
001
  6
CONTINUOUS
 62
     7
100
AcDbCircle
 10
1315.25002
 20
427.034946
 30
0.0
 40
26.0
100
AcDbArc
 50
235.123393
 51
265.000085
  0
ARC
  5
343
100
AcDbEntity
  8
001
  6
CONTINUOUS
 62
     7
100
AcDbCircle
 10
1271.79241
 20
364.685638
 30
0.0
 40
50.0
100
AcDbArc
 50
55.123427
 51
90.000059
  0
LINE
  5
344
100
AcDbEntity
  8
001
  6
CONTINUOUS
 62
     7
100
AcDbLine
 10
1395.25
 20
353.485626
 30
0.0
 11
1395.25
 21
747.485596
 31
0.0
  0
LINE
  5
345
100
AcDbEntity
  8
001
  6
CONTINUOUS
 62
     7
100
AcDbLine
 10
1373.25
 20
740.485596
 30
0.0
 11
1373.25
 21
360.485626
 31
0.0
  0
ARC
  5
346
100
AcDbEntity
  8
001
  6
CONTINUOUS
 62
     7
100
AcDbCircle
 10
1027.260559
 20
696.285645
 30
0.0
 40
10.0
100
AcDbArc
 50
269.999648
 51
9.999816
  0
LINE
  5
347
100
AcDbEntity
  8
001
  6
CONTINUOUS
 62
     7
100
AcDbLine
 10
1305.288574
 20
414.51416
 30
0.0
 11
1305.288574
 21
686.457092
 31
0.0
  0
CIRCLE
  5
348
100
AcDbEntity
  8
001
  6
CONTINUOUS
 62
     7
100
AcDbCircle
 10
1792.494995
 20
617.072571
 30
0.0
 40
11.5
  0
CIRCLE
  5
349
100
AcDbEntity
  8
001
  6
CONTINUOUS
 62
     7
100
AcDbCircle
 10
1886.663086
 20
711.240662
 30
0.0
 40
11.5
  0
CIRCLE
  5
34A
100
AcDbEntity
  8
001
  6
CONTINUOUS
 62
     7
100
AcDbCircle
 10
2019.836914
 20
711.240662
 30
0.0
 40
11.5
  0
CIRCLE
  5
34B
100
AcDbEntity
  8
001
  6
CONTINUOUS
 62
     7
100
AcDbCircle
 10
2114.005127
 20
617.072571
 30
0.0
 40
11.5
  0
CIRCLE
  5
34C
100
AcDbEntity
  8
001
  6
CONTINUOUS
 62
     7
100
AcDbCircle
 10
2114.005127
 20
483.898712
 30
0.0
 40
11.5
  0
CIRCLE
  5
34D
100
AcDbEntity
  8
001
  6
CONTINUOUS
 62
     7
100
AcDbCircle
 10
2019.836914
 20
389.730591
 30
0.0
 40
11.5
  0
CIRCLE
  5
34E
100
AcDbEntity
  8
001
  6
CONTINUOUS
 62
     7
100
AcDbCircle
 10
1886.663086
 20
389.730591
 30
0.0
 40
11.5
  0
CIRCLE
  5
34F
100
AcDbEntity
  8
001
  6
CONTINUOUS
 62
     7
100
AcDbCircle
 10
1792.494995
 20
483.898712
 30
0.0
 40
11.5
  0
LINE
  5
350
100
AcDbEntity
  8
001
  6
CONTINUOUS
 62
     7
100
AcDbLine
 10
1395.25
 20
1522.485596
 30
0.0
 11
1380.25
 21
1522.485596
 31
0.0
  0
ARC
  5
351
100
AcDbEntity
  8
001
  6
CONTINUOUS
 62
     7
100
AcDbCircle
 10
1380.25
 20
1529.485596
 30
0.0
 40
7.0
100
AcDbArc
 50
180.0
 51
270.0
  0
LINE
  5
352
100
AcDbEntity
  8
001
  6
CONTINUOUS
 62
     7
100
AcDbLine
 10
1368.685791
 20
1565.26062
 30
0.0
 11
1312.984009
 21
1570.133911
 31
0.0
  0
ARC
  5
353
100
AcDbEntity
  8
001
  6
CONTINUOUS
 62
     7
100
AcDbCircle
 10
1368.25
 20
1560.279648
 30
0.0
 40
5.0
100
AcDbArc
 50
0.000176
 51
84.999858
  0
ARC
  5
354
100
AcDbEntity
  8
001
  6
CONTINUOUS
 62
     7
100
AcDbCircle
 10
1315.25002
 20
1596.034977
 30
0.0
 40
26.0
100
AcDbArc
 50
235.123393
 51
265.000085
  0
LINE
  5
355
100
AcDbEntity
  8
001
  6
CONTINUOUS
 62
     7
100
AcDbLine
 10
1230.39917
 20
1583.685669
 30
0.0
 11
1271.792358
 21
1583.685669
 31
0.0
  0
ARC
  5
356
100
AcDbEntity
  8
001
  6
CONTINUOUS
 62
     7
100
AcDbCircle
 10
1271.79241
 20
1533.685669
 30
0.0
 40
50.0
100
AcDbArc
 50
55.123427
 51
90.000059
  0
LINE
  5
357
100
AcDbEntity
  8
001
  6
CONTINUOUS
 62
     7
100
AcDbLine
 10
1395.25
 20
1916.485596
 30
0.0
 11
1380.25
 21
1916.485596
 31
0.0
  0
ARC
  5
358
100
AcDbEntity
  8
001
  6
CONTINUOUS
 62
     7
100
AcDbCircle
 10
1380.25
 20
1909.485596
 30
0.0
 40
7.0
100
AcDbArc
 50
90.0
 51
180.0
  0
LINE
  5
359
100
AcDbEntity
  8
001
  6
CONTINUOUS
 62
     7
100
AcDbLine
 10
1368.685791
 20
1873.710693
 30
0.0
 11
1312.984009
 21
1868.837402
 31
0.0
  0
ARC
  5
35A
100
AcDbEntity
  8
001
  6
CONTINUOUS
 62
     7
100
AcDbCircle
 10
1368.25
 20
1878.691666
 30
0.0
 40
5.0
100
AcDbArc
 50
275.000142
 51
0.0
  0
ARC
  5
35B
100
AcDbEntity
  8
001
  6
CONTINUOUS
 62
     7
100
AcDbCircle
 10
1315.25002
 20
1842.936337
 30
0.0
 40
26.0
100
AcDbArc
 50
94.999915
 51
124.876607
  0
ARC
  5
35C
100
AcDbEntity
  8
001
  6
CONTINUOUS
 62
     7
100
AcDbCircle
 10
1271.79241
 20
1905.285645
 30
0.0
 40
50.0
100
AcDbArc
 50
269.999941
 51
304.876573
  0
LINE
  5
35D
100
AcDbEntity
  8
001
  6
CONTINUOUS
 62
     7
100
AcDbLine
 10
1395.25
 20
1916.485596
 30
0.0
 11
1395.25
 21
1522.485596
 31
0.0
  0
LINE
  5
35E
100
AcDbEntity
  8
001
  6
CONTINUOUS
 62
     7
100
AcDbLine
 10
1373.25
 20
1529.485596
 30
0.0
 11
1373.25
 21
1909.485596
 31
0.0
  0
LINE
  5
35F
100
AcDbEntity
  8
001
  6
CONTINUOUS
 62
     7
100
AcDbLine
 10
1305.288574
 20
1855.457031
 30
0.0
 11
1305.288574
 21
1583.51416
 31
0.0
  0
LINE
  5
360
100
AcDbEntity
  8
001
  6
CONTINUOUS
 62
     7
100
AcDbLine
 10
1230.39917
 20
1855.285645
 30
0.0
 11
1271.792358
 21
1855.285645
 31
0.0
  0
LINE
  5
361
100
AcDbEntity
  8
001
  6
CONTINUOUS
 62
     7
100
AcDbLine
 10
2051.25
 20
353.485626
 30
0.0
 11
1855.25
 21
353.485626
 31
0.0
  0
LINE
  5
362
100
AcDbEntity
  8
001
  6
CONTINUOUS
 62
     7
100
AcDbLine
 10
967.25
 20
353.485626
 30
0.0
 11
983.25
 21
353.485626
 31
0.0
  0
LINE
  5
363
100
AcDbEntity
  8
001
  6
CONTINUOUS
 62
     7
100
AcDbLine
 10
1853.25
 20
379.614319
 30
0.0
 11
1853.25
 21
355.485626
 31
0.0
  0
LINE
  5
364
100
AcDbEntity
  8
001
  6
CONTINUOUS
 62
     7
100
AcDbLine
 10
2053.25
 20
379.614319
 30
0.0
 11
2053.25
 21
355.485626
 31
0.0
  0
ARC
  5
365
100
AcDbEntity
  8
001
  6
CONTINUOUS
 62
     7
100
AcDbCircle
 10
1855.25
 20
355.485626
 30
0.0
 40
2.0
100
AcDbArc
 50
180.0
 51
270.0
  0
ARC
  5
366
100
AcDbEntity
  8
001
  6
CONTINUOUS
 62
     7
100
AcDbCircle
 10
2051.25
 20
355.485626
 30
0.0
 40
2.0
100
AcDbArc
 50
270.0
 51
0.0
  0
ARC
  5
367
100
AcDbEntity
  8
001
  6
CONTINUOUS
 62
     7
100
AcDbCircle
 10
2055.25
 20
379.614348
 30
0.0
 40
2.0
100
AcDbArc
 50
120.835385
 51
180.000821
  0
ARC
  5
368
100
AcDbEntity
  8
001
  6
CONTINUOUS
 62
     7
100
AcDbCircle
 10
1953.25
 20
550.485644
 30
0.0
 40
197.0
100
AcDbArc
 50
300.834682
 51
239.165318
  0
ARC
  5
369
100
AcDbEntity
  8
001
  6
CONTINUOUS
 62
     7
100
AcDbCircle
 10
1851.25
 20
379.614348
 30
0.0
 40
2.0
100
AcDbArc
 50
0.0
 51
59.164615
  0
LINE
  5
36A
100
AcDbEntity
  8
001
  6
CONTINUOUS
 62
     7
100
AcDbLine
 10
1376.25
 20
380.753479
 30
0.0
 11
1392.25
 21
380.753479
 31
0.0
  0
LINE
  5
36B
100
AcDbEntity
  8
001
  6
CONTINUOUS
 62
     7
100
AcDbLine
 10
965.25
 20
455.607239
 30
0.0
 11
965.25
 21
355.485626
 31
0.0
  0
LINE
  5
36C
100
AcDbEntity
  8
001
  6
CONTINUOUS
 62
     7
100
AcDbLine
 10
985.25
 20
455.607239
 30
0.0
 11
985.25
 21
355.485626
 31
0.0
  0
LINE
  5
36D
100
AcDbEntity
  8
001
  6
CONTINUOUS
 62
     7
100
AcDbLine
 10
988.25
 20
414.685638
 30
0.0
 11
1271.792358
 21
414.685638
 31
0.0
  0
ARC
  5
36E
100
AcDbEntity
  8
001
  6
CONTINUOUS
 62
     7
100
AcDbCircle
 10
983.25
 20
355.485626
 30
0.0
 40
2.0
100
AcDbArc
 50
270.0
 51
0.0
  0
ARC
  5
36F
100
AcDbEntity
  8
001
  6
CONTINUOUS
 62
     7
100
AcDbCircle
 10
967.25
 20
355.485626
 30
0.0
 40
2.0
100
AcDbArc
 50
180.0
 51
270.0
  0
ARC
  5
370
100
AcDbEntity
  8
001
  6
CONTINUOUS
 62
     7
100
AcDbCircle
 10
962.25
 20
411.685638
 30
0.0
 40
3.0
100
AcDbArc
 50
0.0
 51
90.0
  0
ARC
  5
371
100
AcDbEntity
  8
001
  6
CONTINUOUS
 62
     7
100
AcDbCircle
 10
988.25
 20
411.685638
 30
0.0
 40
3.0
100
AcDbArc
 50
90.0
 51
180.0
  0
ARC
  5
372
100
AcDbEntity
  8
001
  6
CONTINUOUS
 62
     7
100
AcDbCircle
 10
962.25
 20
455.607239
 30
0.0
 40
3.0
100
AcDbArc
 50
0.0
 51
90.0
  0
LINE
  5
373
100
AcDbEntity
  8
001
  6
CONTINUOUS
 62
     7
100
AcDbLine
 10
965.25
 20
458.607239
 30
0.0
 11
985.25
 21
458.607239
 31
0.0
  0
ARC
  5
374
100
AcDbEntity
  8
001
  6
CONTINUOUS
 62
     7
100
AcDbCircle
 10
988.25
 20
455.607239
 30
0.0
 40
3.0
100
AcDbArc
 50
90.0
 51
180.0
  0
LINE
  5
375
100
AcDbEntity
  8
001
  6
CONTINUOUS
 62
     3
100
AcDbLine
 10
2282.0
 20
112.0
 30
0.0
 11
2835.0
 21
112.0
 31
0.0
  0
LINE
  5
376
100
AcDbEntity
  8
001
  6
CONTINUOUS
 62
     2
100
AcDbLine
 10
2835.0
 20
70.0
 30
0.0
 11
2282.0
 21
70.0
 31
0.0
  0
LINE
  5
377
100
AcDbEntity
  8
001
  6
CONTINUOUS
 62
     2
100
AcDbLine
 10
2835.0
 20
248.5
 30
0.0
 11
2835.0
 21
70.0
 31
0.0
  0
LINE
  5
378
100
AcDbEntity
  8
001
  6
CONTINUOUS
 62
     2
100
AcDbLine
 10
2282.0
 20
248.5
 30
0.0
 11
2835.0
 21
248.5
 31
0.0
  0
LINE
  5
379
100
AcDbEntity
  8
001
  6
CONTINUOUS
 62
     2
100
AcDbLine
 10
2282.0
 20
248.5
 30
0.0
 11
2282.0
 21
70.0
 31
0.0
  0
LINE
  5
37A
100
AcDbEntity
  8
001
  6
CONTINUOUS
 62
     7
100
AcDbLine
 10
560.25
 20
686.285645
 30
0.0
 11
1027.260498
 21
686.285645
 31
0.0
  0
LINE
  5
37B
100
AcDbEntity
  8
001
  6
CONTINUOUS
 62
     7
100
AcDbLine
 10
560.25
 20
414.685638
 30
0.0
 11
962.25
 21
414.685638
 31
0.0
  0
LINE
  5
37C
100
AcDbEntity
  8
001
  6
CONTINUOUS
 62
     7
100
AcDbLine
 10
560.25
 20
1855.285645
 30
0.0
 11
1000.100769
 21
1855.285645
 31
0.0
  0
LINE
  5
37D
100
AcDbEntity
  8
001
  6
CONTINUOUS
 62
     7
100
AcDbLine
 10
560.25
 20
1583.685669
 30
0.0
 11
1000.100769
 21
1583.685669
 31
0.0
  0
LINE
  5
37E
100
AcDbEntity
  8
001
  6
CONTINUOUS
 62
     7
100
AcDbLine
 10
560.25
 20
686.285645
 30
0.0
 11
560.25
 21
414.685638
 31
0.0
  0
LINE
  5
37F
100
AcDbEntity
  8
001
  6
CONTINUOUS
 62
     7
100
AcDbLine
 10
560.25
 20
1855.285645
 30
0.0
 11
560.25
 21
1583.685669
 31
0.0
  0
LINE
  5
380
100
AcDbEntity
  8
001
  6
DASHDOT
 62
     1
100
AcDbLine
 10
2185.75
 20
550.485596
 30
0.0
 11
1720.75
 21
550.485596
 31
0.0
  0
LINE
  5
381
100
AcDbEntity
  8
001
  6
DASHDOT
 62
     1
100
AcDbLine
 10
1944.245605
 20
1085.485596
 30
0.0
 11
1920.280762
 21
1085.485596
 31
0.0
  0
LINE
  5
382
100
AcDbEntity
  8
001
  6
DASHDOT
 62
     1
100
AcDbLine
 10
1115.25
 20
1945.041626
 30
0.0
 11
1115.25
 21
1492.23645
 31
0.0
  0
LINE
  5
383
100
AcDbEntity
  8
001
  6
DASHDOT
 62
     1
100
AcDbLine
 10
1240.194458
 20
1675.766113
 30
0.0
 11
1203.237549
 21
1677.551514
 31
0.0
  0
ARC
  5
384
100
AcDbEntity
  8
001
  6
DASHDOT
 62
     1
100
AcDbCircle
 10
1115.250087
 20
1739.485648
 30
0.0
 40
211.0
100
AcDbArc
 50
276.219443
 51
280.434403
  0
ARC
  5
385
100
AcDbEntity
  8
001
  6
DASHDOT
 62
     1
100
AcDbCircle
 10
1139.518588
 20
1607.701582
 30
0.0
 40
77.0
100
AcDbArc
 50
280.434554
 51
298.69932
  0
ARC
  5
386
100
AcDbEntity
  8
001
  6
DASHDOT
 62
     1
100
AcDbCircle
 10
1139.518757
 20
1607.701527
 30
0.0
 40
77.0
100
AcDbArc
 50
332.718386
 51
352.087337
  0
ARC
  5
387
100
AcDbEntity
  8
001
  6
DASHDOT
 62
     1
100
AcDbCircle
 10
335.249882
 20
1719.484262
 30
0.0
 40
889.0
100
AcDbArc
 50
352.087336
 51
352.991743
  0
ARC
  5
388
100
AcDbEntity
  8
001
  6
DASHDOT
 62
     1
100
AcDbCircle
 10
335.250008
 20
1719.484536
 30
0.0
 40
889.0
100
AcDbArc
 50
355.945134
 51
358.523179
  0
LINE
  5
389
100
AcDbEntity
  8
001
  6
DASHDOT
 62
     1
100
AcDbLine
 10
1195.19812
 20
1595.50293
 30
0.0
 11
1231.305786
 21
1587.592163
 31
0.0
  0
LINE
  5
38A
100
AcDbEntity
  8
001
  6
DASHDOT
 62
     1
100
AcDbLine
 10
1161.885986
 20
1516.466919
 30
0.0
 11
1153.091064
 21
1552.341064
 31
0.0
  0
ARC
  5
38B
100
AcDbEntity
  8
001
  6
DASHDOT
 62
     1
100
AcDbCircle
 10
1115.250087
 20
1699.485544
 30
0.0
 40
211.0
100
AcDbArc
 50
79.565597
 51
83.780557
  0
ARC
  5
38C
100
AcDbEntity
  8
001
  6
DASHDOT
 62
     1
100
AcDbCircle
 10
1139.518924
 20
1831.269547
 30
0.0
 40
77.0
100
AcDbArc
 50
61.300965
 51
79.5657
  0
LINE
  5
38D
100
AcDbEntity
  8
001
  6
DASHDOT
 62
     1
100
AcDbLine
 10
1161.885986
 20
1922.504395
 30
0.0
 11
1153.091064
 21
1886.630249
 31
0.0
  0
ARC
  5
38E
100
AcDbEntity
  8
001
  6
DASHDOT
 62
     1
100
AcDbCircle
 10
1139.518757
 20
1831.269786
 30
0.0
 40
77.0
100
AcDbArc
 50
7.912663
 51
27.281614
  0
ARC
  5
38F
100
AcDbEntity
  8
001
  6
DASHDOT
 62
     1
100
AcDbCircle
 10
335.249507
 20
1719.487986
 30
0.0
 40
889.0
100
AcDbArc
 50
7.008188
 51
7.912603
  0
LINE
  5
390
100
AcDbEntity
  8
001
  6
DASHDOT
 62
     1
100
AcDbLine
 10
1240.194458
 20
1763.205078
 30
0.0
 11
1203.237549
 21
1761.419678
 31
0.0
  0
ARC
  5
391
100
AcDbEntity
  8
001
  6
DASHDOT
 62
     1
100
AcDbCircle
 10
335.250008
 20
1719.486656
 30
0.0
 40
889.0
100
AcDbArc
 50
1.476821
 51
4.054866
  0
ARC
  5
392
100
AcDbEntity
  8
001
  6
DASHDOT
 62
     1
100
AcDbCircle
 10
1115.249791
 20
1739.485648
 30
0.0
 40
211.0
100
AcDbArc
 50
259.565597
 51
263.780557
  0
ARC
  5
393
100
AcDbEntity
  8
001
  6
DASHDOT
 62
     1
100
AcDbCircle
 10
1090.98129
 20
1607.701582
 30
0.0
 40
77.0
100
AcDbArc
 50
241.30068
 51
259.565446
  0
LINE
  5
394
100
AcDbEntity
  8
001
  6
DASHDOT
 62
     1
100
AcDbLine
 10
1068.613892
 20
1516.466919
 30
0.0
 11
1077.408813
 21
1552.341064
 31
0.0
  0
ARC
  5
395
100
AcDbEntity
  8
001
  6
DASHDOT
 62
     1
100
AcDbCircle
 10
1090.981076
 20
1607.701851
 30
0.0
 40
77.0
100
AcDbArc
 50
187.912907
 51
207.281885
  0
ARC
  5
396
100
AcDbEntity
  8
001
  6
DASHDOT
 62
     1
100
AcDbCircle
 10
1895.250118
 20
1719.484262
 30
0.0
 40
889.0
100
AcDbArc
 50
187.008257
 51
187.912664
  0
LINE
  5
397
100
AcDbEntity
  8
001
  6
DASHDOT
 62
     1
100
AcDbLine
 10
1035.301758
 20
1595.50293
 30
0.0
 11
999.194092
 21
1587.592163
 31
0.0
  0
LINE
  5
398
100
AcDbEntity
  8
001
  6
DASHDOT
 62
     1
100
AcDbLine
 10
990.30542
 20
1675.766113
 30
0.0
 11
1027.262329
 21
1677.551514
 31
0.0
  0
ARC
  5
399
100
AcDbEntity
  8
001
  6
DASHDOT
 62
     1
100
AcDbCircle
 10
1895.249992
 20
1719.484536
 30
0.0
 40
889.0
100
AcDbArc
 50
181.476821
 51
184.054866
  0
LINE
  5
39A
100
AcDbEntity
  8
001
  6
DASHDOT
 62
     1
100
AcDbLine
 10
990.30542
 20
1763.205078
 30
0.0
 11
1027.262329
 21
1761.419678
 31
0.0
  0
ARC
  5
39B
100
AcDbEntity
  8
001
  6
DASHDOT
 62
     1
100
AcDbCircle
 10
1895.249992
 20
1719.486656
 30
0.0
 40
889.0
100
AcDbArc
 50
175.945134
 51
178.523179
  0
ARC
  5
39C
100
AcDbEntity
  8
001
  6
DASHDOT
 62
     1
100
AcDbCircle
 10
1090.981076
 20
1831.269462
 30
0.0
 40
77.0
100
AcDbArc
 50
152.718115
 51
172.087093
  0
ARC
  5
39D
100
AcDbEntity
  8
001
  6
DASHDOT
 62
     1
100
AcDbCircle
 10
1895.250248
 20
1719.487986
 30
0.0
 40
889.0
100
AcDbArc
 50
172.087397
 51
172.991812
  0
LINE
  5
39E
100
AcDbEntity
  8
001
  6
DASHDOT
 62
     1
100
AcDbLine
 10
1035.301758
 20
1843.468262
 30
0.0
 11
999.194092
 21
1851.379028
 31
0.0
  0
ARC
  5
39F
100
AcDbEntity
  8
001
  6
DASHDOT
 62
     1
100
AcDbCircle
 10
1115.249791
 20
1699.485544
 30
0.0
 40
211.0
100
AcDbArc
 50
96.219443
 51
100.434403
  0
ARC
  5
3A0
100
AcDbEntity
  8
001
  6
DASHDOT
 62
     1
100
AcDbCircle
 10
1090.980954
 20
1831.269547
 30
0.0
 40
77.0
100
AcDbArc
 50
100.4343
 51
118.699035
  0
LINE
  5
3A1
100
AcDbEntity
  8
001
  6
DASHDOT
 62
     1
100
AcDbLine
 10
1068.613892
 20
1922.504395
 30
0.0
 11
1077.408813
 21
1886.630249
 31
0.0
  0
LINE
  5
3A2
100
AcDbEntity
  8
001
  6
DASHDOT
 62
     1
100
AcDbLine
 10
2139.819336
 20
911.352112
 30
0.0
 11
2139.819336
 21
817.485779
 31
0.0
  0
LINE
  5
3A3
100
AcDbEntity
  8
001
  6
DASHDOT
 62
     1
100
AcDbLine
 10
2081.512939
 20
911.352112
 30
0.0
 11
2081.512939
 21
817.485779
 31
0.0
  0
LINE
  5
3A4
100
AcDbEntity
  8
001
  6
DASHDOT
 62
     1
100
AcDbLine
 10
1996.14917
 20
911.352112
 30
0.0
 11
1996.14917
 21
817.485779
 31
0.0
  0
LINE
  5
3A5
100
AcDbEntity
  8
001
  6
DASHDOT
 62
     1
100
AcDbLine
 10
1910.35083
 20
911.352112
 30
0.0
 11
1910.35083
 21
817.485779
 31
0.0
  0
LINE
  5
3A6
100
AcDbEntity
  8
001
  6
DASHDOT
 62
     1
100
AcDbLine
 10
1824.987183
 20
911.352112
 30
0.0
 11
1824.987183
 21
817.485779
 31
0.0
  0
LINE
  5
3A7
100
AcDbEntity
  8
001
  6
DASHDOT
 62
     1
100
AcDbLine
 10
1766.680664
 20
911.352112
 30
0.0
 11
1766.680664
 21
817.485779
 31
0.0
  0
LINE
  5
3A8
100
AcDbEntity
  8
001
  6
DASHDOT
 62
     1
100
AcDbLine
 10
1157.853271
 20
911.352112
 30
0.0
 11
1157.853271
 21
817.485779
 31
0.0
  0
LINE
  5
3A9
100
AcDbEntity
  8
001
  6
DASHDOT
 62
     1
100
AcDbLine
 10
1214.734863
 20
911.352112
 30
0.0
 11
1214.734863
 21
817.485779
 31
0.0
  0
LINE
  5
3AA
100
AcDbEntity
  8
001
  6
DASHDOT
 62
     1
100
AcDbLine
 10
1223.214355
 20
911.352112
 30
0.0
 11
1223.214355
 21
817.485779
 31
0.0
  0
LINE
  5
3AB
100
AcDbEntity
  8
001
  6
DASHDOT
 62
     1
100
AcDbLine
 10
1072.646606
 20
911.352112
 30
0.0
 11
1072.646606
 21
817.485779
 31
0.0
  0
LINE
  5
3AC
100
AcDbEntity
  8
001
  6
DASHDOT
 62
     1
100
AcDbLine
 10
1015.765137
 20
911.352112
 30
0.0
 11
1015.765137
 21
817.485779
 31
0.0
  0
LINE
  5
3AD
100
AcDbEntity
  8
001
  6
DASHDOT
 62
     1
100
AcDbLine
 10
1007.285645
 20
911.352112
 30
0.0
 11
1007.285645
 21
817.485779
 31
0.0
  0
LINE
  5
3AE
100
AcDbEntity
  8
001
  6
DASHDOT
 62
     1
100
AcDbLine
 10
1123.65564
 20
1085.485596
 30
0.0
 11
1106.086548
 21
1085.485596
 31
0.0
  0
LINE
  5
3AF
100
AcDbEntity
  8
001
  6
DASHDOT
 62
     1
100
AcDbLine
 10
1425.25
 20
550.485596
 30
0.0
 11
530.25
 21
550.485596
 31
0.0
  0
LINE
  5
3B0
100
AcDbEntity
  8
001
  6
DASHDOT
 62
     1
100
AcDbLine
 10
1410.25
 20
724.485596
 30
0.0
 11
1358.25
 21
724.485596
 31
0.0
  0
LINE
  5
3B1
100
AcDbEntity
  8
001
  6
DASHDOT
 62
     1
100
AcDbLine
 10
1748.106689
 20
730.340881
 30
0.0
 11
1872.869141
 21
730.340881
 31
0.0
  0
LINE
  5
3B2
100
AcDbEntity
  8
001
  6
DASHDOT
 62
     1
100
AcDbLine
 10
2033.630859
 20
730.340881
 30
0.0
 11
2158.393311
 21
730.340881
 31
0.0
  0
CIRCLE
  5
3B3
100
AcDbEntity
  8
001
  6
DASHDOT
 62
     1
100
AcDbCircle
 10
1953.25
 20
550.485596
 30
0.0
 40
174.0
  0
LINE
  5
3B4
100
AcDbEntity
  8
001
  6
DASHDOT
 62
     1
100
AcDbLine
 10
1410.25
 20
376.485626
 30
0.0
 11
1358.25
 21
376.485626
 31
0.0
  0
LINE
  5
3B5
100
AcDbEntity
  8
001
  6
DASHDOT
 62
     1
100
AcDbLine
 10
1810.048706
 20
609.801575
 30
0.0
 11
1774.941284
 21
624.343506
 31
0.0
  0
LINE
  5
3B6
100
AcDbEntity
  8
001
  6
DASHDOT
 62
     1
100
AcDbLine
 10
1893.934082
 20
693.686951
 30
0.0
 11
1879.39209
 21
728.794373
 31
0.0
  0
LINE
  5
3B7
100
AcDbEntity
  8
001
  6
DASHDOT
 62
     1
100
AcDbLine
 10
2012.565918
 20
693.686951
 30
0.0
 11
2027.10791
 21
728.794373
 31
0.0
  0
LINE
  5
3B8
100
AcDbEntity
  8
001
  6
DASHDOT
 62
     1
100
AcDbLine
 10
2096.451416
 20
609.801575
 30
0.0
 11
2131.558838
 21
624.343506
 31
0.0
  0
LINE
  5
3B9
100
AcDbEntity
  8
001
  6
DASHDOT
 62
     1
100
AcDbLine
 10
2096.451416
 20
491.169708
 30
0.0
 11
2131.558838
 21
476.627716
 31
0.0
  0
LINE
  5
3BA
100
AcDbEntity
  8
001
  6
DASHDOT
 62
     1
100
AcDbLine
 10
2012.565918
 20
407.284302
 30
0.0
 11
2027.10791
 21
372.17688
 31
0.0
  0
LINE
  5
3BB
100
AcDbEntity
  8
001
  6
DASHDOT
 62
     1
100
AcDbLine
 10
1893.934082
 20
407.284302
 30
0.0
 11
1879.39209
 21
372.17688
 31
0.0
  0
LINE
  5
3BC
100
AcDbEntity
  8
001
  6
DASHDOT
 62
     1
100
AcDbLine
 10
1810.048706
 20
491.169708
 30
0.0
 11
1774.941284
 21
476.627716
 31
0.0
  0
LINE
  5
3BD
100
AcDbEntity
  8
001
  6
DASHDOT
 62
     1
100
AcDbLine
 10
1425.25
 20
1719.485596
 30
0.0
 11
530.25
 21
1719.485596
 31
0.0
  0
LINE
  5
3BE
100
AcDbEntity
  8
001
  6
DASHDOT
 62
     1
100
AcDbLine
 10
1410.25
 20
1545.485596
 30
0.0
 11
1358.25
 21
1545.485596
 31
0.0
  0
LINE
  5
3BF
100
AcDbEntity
  8
001
  6
DASHDOT
 62
     1
100
AcDbLine
 10
1410.25
 20
1893.485596
 30
0.0
 11
1358.25
 21
1893.485596
 31
0.0
  0
LINE
  5
3C0
100
AcDbEntity
  8
001
  6
DASHDOT
 62
     1
100
AcDbLine
 10
1953.25
 20
1184.258057
 30
0.0
 11
1953.25
 21
312.458405
 31
0.0
  0
LINE
  5
3C1
100
AcDbEntity
  8
001
  6
DASHDOT
 62
     1
100
AcDbLine
 10
1115.25
 20
1184.258057
 30
0.0
 11
1115.25
 21
385.14328
 31
0.0
  0
CIRCLE
  5
3C2
100
AcDbEntity
  8
001
  6
CONTINUOUS
 62
     1
100
AcDbCircle
 10
1157.853271
 20
1906.054932
 30
0.0
 40
6.92
  0
CIRCLE
  5
3C3
100
AcDbEntity
  8
001
  6
CONTINUOUS
 62
     1
100
AcDbCircle
 10
1214.734741
 20
1847.748535
 30
0.0
 40
6.92
  0
LINE
  5
3C4
100
AcDbEntity
  8
001
  6
DASHDOT
 62
     1
100
AcDbLine
 10
1195.19812
 20
1843.468262
 30
0.0
 11
1231.305786
 21
1851.379028
 31
0.0
  0
CIRCLE
  5
3C5
100
AcDbEntity
  8
001
  6
CONTINUOUS
 62
     1
100
AcDbCircle
 10
1072.646606
 20
1906.054932
 30
0.0
 40
6.92
  0
CIRCLE
  5
3C6
100
AcDbEntity
  8
001
  6
CONTINUOUS
 62
     1
100
AcDbCircle
 10
1015.765137
 20
1847.748535
 30
0.0
 40
6.92
  0
CIRCLE
  5
3C7
100
AcDbEntity
  8
001
  6
CONTINUOUS
 62
     1
100
AcDbCircle
 10
1007.285645
 20
1762.384766
 30
0.0
 40
6.92
  0
CIRCLE
  5
3C8
100
AcDbEntity
  8
001
  6
CONTINUOUS
 62
     1
100
AcDbCircle
 10
1007.285645
 20
1676.586426
 30
0.0
 40
6.92
  0
CIRCLE
  5
3C9
100
AcDbEntity
  8
001
  6
CONTINUOUS
 62
     1
100
AcDbCircle
 10
1015.765137
 20
1591.222778
 30
0.0
 40
6.92
  0
CIRCLE
  5
3CA
100
AcDbEntity
  8
001
  6
CONTINUOUS
 62
     1
100
AcDbCircle
 10
1072.646606
 20
1532.91626
 30
0.0
 40
6.92
  0
CIRCLE
  5
3CB
100
AcDbEntity
  8
001
  6
CONTINUOUS
 62
     1
100
AcDbCircle
 10
1157.853271
 20
1532.91626
 30
0.0
 40
6.92
  0
CIRCLE
  5
3CC
100
AcDbEntity
  8
001
  6
CONTINUOUS
 62
     1
100
AcDbCircle
 10
1214.734741
 20
1591.222778
 30
0.0
 40
6.92
  0
CIRCLE
  5
3CD
100
AcDbEntity
  8
001
  6
CONTINUOUS
 62
     1
100
AcDbCircle
 10
1223.214233
 20
1676.586426
 30
0.0
 40
6.92
  0
CIRCLE
  5
3CE
100
AcDbEntity
  8
001
  6
CONTINUOUS
 62
     1
100
AcDbCircle
 10
1223.214233
 20
1762.384766
 30
0.0
 40
6.92
  0
ARC
  5
3CF
100
AcDbEntity
  8
001
  6
CONTINUOUS
 62
     1
100
AcDbCircle
 10
1115.25
 20
1085.485538
 30
0.0
 40
4.19
100
AcDbArc
 50
335.315699
 51
204.684301
  0
LINE
  5
3D0
100
AcDbEntity
  8
001
  6
CONTINUOUS
 62
     1
100
AcDbLine
 10
1115.25
 20
1136.485656
 30
0.0
 11
1131.526123
 21
1112.192993
 31
0.0
  0
LINE
  5
3D1
100
AcDbEntity
  8
001
  6
CONTINUOUS
 62
     1
100
AcDbLine
 10
1132.0
 20
1161.485596
 30
0.0
 11
1115.25
 21
1136.485656
 31
0.0
  0
LINE
  5
3D2
100
AcDbEntity
  8
001
  6
CONTINUOUS
 62
     1
100
AcDbLine
 10
1230.134521
 20
905.263611
 30
0.0
 11
1230.134521
 21
897.735901
 31
0.0
  0
LINE
  5
3D3
100
AcDbEntity
  8
001
  6
CONTINUOUS
 62
     1
100
AcDbLine
 10
1221.655029
 20
905.263611
 30
0.0
 11
1221.655029
 21
897.735901
 31
0.0
  0
LINE
  5
3D4
100
AcDbEntity
  8
001
  6
CONTINUOUS
 62
     1
100
AcDbLine
 10
1207.814941
 20
905.263611
 30
0.0
 11
1207.814941
 21
897.735901
 31
0.0
  0
LINE
  5
3D5
100
AcDbEntity
  8
001
  6
CONTINUOUS
 62
     1
100
AcDbLine
 10
1164.773438
 20
905.263611
 30
0.0
 11
1164.773438
 21
897.735901
 31
0.0
  0
LINE
  5
3D6
100
AcDbEntity
  8
001
  6
CONTINUOUS
 62
     1
100
AcDbLine
 10
1150.93335
 20
905.263611
 30
0.0
 11
1150.93335
 21
897.735901
 31
0.0
  0
LINE
  5
3D7
100
AcDbEntity
  8
001
  6
CONTINUOUS
 62
     1
100
AcDbLine
 10
1079.566528
 20
905.263611
 30
0.0
 11
1079.566528
 21
897.735901
 31
0.0
  0
LINE
  5
3D8
100
AcDbEntity
  8
001
  6
CONTINUOUS
 62
     1
100
AcDbLine
 10
1065.72644
 20
905.263611
 30
0.0
 11
1065.72644
 21
897.735901
 31
0.0
  0
LINE
  5
3D9
100
AcDbEntity
  8
001
  6
CONTINUOUS
 62
     1
100
AcDbLine
 10
1022.685059
 20
905.263611
 30
0.0
 11
1022.685059
 21
897.735901
 31
0.0
  0
LINE
  5
3DA
100
AcDbEntity
  8
001
  6
CONTINUOUS
 62
     1
100
AcDbLine
 10
1008.844971
 20
905.263611
 30
0.0
 11
1008.844971
 21
897.735901
 31
0.0
  0
LINE
  5
3DB
100
AcDbEntity
  8
001
  6
CONTINUOUS
 62
     1
100
AcDbLine
 10
1000.365479
 20
905.263611
 30
0.0
 11
1000.365479
 21
897.735901
 31
0.0
  0
LINE
  5
3DC
100
AcDbEntity
  8
001
  6
DASHDOT
 62
     1
100
AcDbLine
 10
1245.74353
 20
730.340881
 30
0.0
 11
984.7547
 21
730.340881
 31
0.0
  0
LINE
  5
3DD
100
AcDbEntity
  8
001
  6
CONTINUOUS
 62
     1
100
AcDbLine
 10
2146.739502
 20
905.263611
 30
0.0
 11
2146.739502
 21
897.735901
 31
0.0
  0
LINE
  5
3DE
100
AcDbEntity
  8
001
  6
CONTINUOUS
 62
     1
100
AcDbLine
 10
2132.899414
 20
905.263611
 30
0.0
 11
2132.899414
 21
897.735901
 31
0.0
  0
LINE
  5
3DF
100
AcDbEntity
  8
001
  6
CONTINUOUS
 62
     1
100
AcDbLine
 10
2088.433105
 20
905.263611
 30
0.0
 11
2088.433105
 21
897.735901
 31
0.0
  0
LINE
  5
3E0
100
AcDbEntity
  8
001
  6
CONTINUOUS
 62
     1
100
AcDbLine
 10
2074.593018
 20
905.263611
 30
0.0
 11
2074.593018
 21
897.735901
 31
0.0
  0
LINE
  5
3E1
100
AcDbEntity
  8
001
  6
CONTINUOUS
 62
     1
100
AcDbLine
 10
2003.069336
 20
905.263611
 30
0.0
 11
2003.069336
 21
897.735901
 31
0.0
  0
LINE
  5
3E2
100
AcDbEntity
  8
001
  6
CONTINUOUS
 62
     1
100
AcDbLine
 10
1989.229248
 20
905.263611
 30
0.0
 11
1989.229248
 21
897.735901
 31
0.0
  0
LINE
  5
3E3
100
AcDbEntity
  8
001
  6
CONTINUOUS
 62
     1
100
AcDbLine
 10
1917.270996
 20
905.263611
 30
0.0
 11
1917.270996
 21
897.735901
 31
0.0
  0
LINE
  5
3E4
100
AcDbEntity
  8
001
  6
CONTINUOUS
 62
     1
100
AcDbLine
 10
1903.430908
 20
905.263611
 30
0.0
 11
1903.430908
 21
897.735901
 31
0.0
  0
LINE
  5
3E5
100
AcDbEntity
  8
001
  6
CONTINUOUS
 62
     1
100
AcDbLine
 10
1831.907349
 20
905.263611
 30
0.0
 11
1831.907349
 21
897.735901
 31
0.0
  0
LINE
  5
3E6
100
AcDbEntity
  8
001
  6
CONTINUOUS
 62
     1
100
AcDbLine
 10
1818.067261
 20
905.263611
 30
0.0
 11
1818.067261
 21
897.735901
 31
0.0
  0
LINE
  5
3E7
100
AcDbEntity
  8
001
  6
CONTINUOUS
 62
     1
100
AcDbLine
 10
1773.60083
 20
905.263611
 30
0.0
 11
1773.60083
 21
897.735901
 31
0.0
  0
LINE
  5
3E8
100
AcDbEntity
  8
001
  6
CONTINUOUS
 62
     1
100
AcDbLine
 10
1759.760742
 20
905.263611
 30
0.0
 11
1759.760742
 21
897.735901
 31
0.0
  0
LINE
  5
3E9
100
AcDbEntity
  8
001
  6
CONTINUOUS
 62
     1
100
AcDbLine
 10
1953.25
 20
1136.485656
 30
0.0
 11
1936.973877
 21
1112.192993
 31
0.0
  0
LINE
  5
3EA
100
AcDbEntity
  8
001
  6
CONTINUOUS
 62
     1
100
AcDbLine
 10
1936.5
 20
1161.485596
 30
0.0
 11
1953.25
 21
1136.485656
 31
0.0
  0
TEXT
  5
3EB
100
AcDbEntity
  8
001
 62
     3
100
AcDbText
 10
2296.0
 20
203.0
 30
0.0
 40
31.5
  1
ＪＷＷＡ　Ｂ　１２０準拠　%%c２５０
 41
0.670045
 72
     5
 11
2712.5
 21
203.0
 31
0.0
100
AcDbText
  0
TEXT
  5
3EC
100
AcDbEntity
  8
001
 62
     3
100
AcDbText
 10
2296.0
 20
161.0
 30
0.0
 40
35.0
  1
浅層埋設対応型　ソフトシール仕切弁
 41
0.675497
 72
     5
 11
2772.0
 21
161.0
 31
0.0
100
AcDbText
  0
TEXT
  5
3ED
100
AcDbEntity
  8
001
 62
     3
100
AcDbText
 10
2296.0
 20
126.0
 30
0.0
 40
28.0
  1
Ｋ形受挿し
 41
0.78125
 72
     5
 11
2418.5
 21
126.0
 31
0.0
100
AcDbText
  0
LINE
  5
3F0
100
AcDbEntity
  8
001
  6
CONTINUOUS
 62
     7
100
AcDbLine
 10
1134.294968
 20
1110.485596
 30
0.0
 11
1132.0
 21
1161.485596
 31
0.0
  0
LINE
  5
3F2
100
AcDbEntity
  8
001
  6
CONTINUOUS
 62
     7
100
AcDbLine
 10
1142.75
 20
1109.485596
 30
0.0
 11
1142.75
 21
1083.735718
 31
0.0
  0
LINE
  5
3F3
100
AcDbEntity
  8
001
  6
CONTINUOUS
 62
     7
100
AcDbLine
 10
1087.75
 20
1109.485596
 30
0.0
 11
1087.75
 21
1083.735718
 31
0.0
  0
LINE
  5
3F4
100
AcDbEntity
  8
001
  6
CONTINUOUS
 62
     7
100
AcDbLine
 10
1980.75
 20
1109.485596
 30
0.0
 11
1980.75
 21
1073.485596
 31
0.0
  0
LINE
  5
3F5
100
AcDbEntity
  8
001
  6
CONTINUOUS
 62
     7
100
AcDbLine
 10
1925.75
 20
1109.485596
 30
0.0
 11
1925.75
 21
1073.485596
 31
0.0
  0
LINE
  5
3F6
100
AcDbEntity
  8
001
  6
CONTINUOUS
 62
     7
100
AcDbLine
 10
1934.205032
 20
1110.485596
 30
0.0
 11
1936.5
 21
1161.485596
 31
0.0
  0
CIRCLE
  5
3F8
100
AcDbEntity
  8
001
  6
CONTINUOUS
 62
     7
100
AcDbCircle
 10
1115.25
 20
1719.485596
 30
0.0
 40
50.0
  0
ARC
  5
3F9
100
AcDbEntity
  8
001
  6
CONTINUOUS
 62
     7
100
AcDbCircle
 10
1115.250004
 20
1719.485655
 30
0.0
 40
44.0
100
AcDbArc
 50
314.999941
 51
58.435585
  0
LINE
  5
3FA
100
AcDbEntity
  8
001
  6
CONTINUOUS
 62
     7
100
AcDbLine
 10
1133.36731
 20
1748.463379
 30
0.0
 11
1138.282104
 21
1756.975952
 31
0.0
  0
LINE
  5
3FB
100
AcDbEntity
  8
001
  6
CONTINUOUS
 62
     7
100
AcDbLine
 10
1133.36731
 20
1748.463379
 30
0.0
 11
1128.190918
 21
1767.78186
 31
0.0
  0
ARC
  5
3FC
100
AcDbEntity
  8
001
  6
CONTINUOUS
 62
     7
100
AcDbCircle
 10
1115.249984
 20
1719.485594
 30
0.0
 40
44.0
100
AcDbArc
 50
105.00001
 51
208.435639
  0
LINE
  5
3FD
100
AcDbEntity
  8
001
  6
CONTINUOUS
 62
     7
100
AcDbLine
 10
1103.861938
 20
1761.986328
 30
0.0
 11
1102.309082
 21
1767.78186
 31
0.0
  0
LINE
  5
3FE
100
AcDbEntity
  8
001
  6
CONTINUOUS
 62
     7
100
AcDbLine
 10
1085.071045
 20
1703.44873
 30
0.0
 11
1076.558472
 21
1698.534058
 31
0.0
  0
LINE
  5
3FF
100
AcDbEntity
  8
001
  6
CONTINUOUS
 62
     7
100
AcDbLine
 10
1085.071045
 20
1703.44873
 30
0.0
 11
1079.894653
 21
1684.130249
 31
0.0
  0
ARC
  5
400
100
AcDbEntity
  8
001
  6
CONTINUOUS
 62
     7
100
AcDbCircle
 10
1115.25
 20
1690.485596
 30
0.0
 40
7.0
100
AcDbArc
 50
0.0
 51
180.0
  0
ARC
  5
401
100
AcDbEntity
  8
001
  6
CONTINUOUS
 62
     7
100
AcDbCircle
 10
1115.25
 20
1690.485596
 30
0.0
 40
5.0
100
AcDbArc
 50
0.0
 51
180.0
  0
LINE
  5
402
100
AcDbEntity
  8
001
  6
CONTINUOUS
 62
     7
100
AcDbLine
 10
1146.362671
 20
1688.372925
 30
0.0
 11
1150.605347
 21
1684.130249
 31
0.0
  0
ARC
  5
403
100
AcDbEntity
  8
001
  6
CONTINUOUS
 62
     7
100
AcDbCircle
 10
1115.25
 20
1679.485596
 30
0.0
 40
7.0
100
AcDbArc
 50
180.0
 51
0.0
  0
LINE
  5
404
100
AcDbEntity
  8
001
  6
CONTINUOUS
 62
     7
100
AcDbLine
 10
1122.25
 20
1690.485596
 30
0.0
 11
1122.25
 21
1679.485596
 31
0.0
  0
ARC
  5
405
100
AcDbEntity
  8
001
  6
CONTINUOUS
 62
     7
100
AcDbCircle
 10
1115.25
 20
1679.485596
 30
0.0
 40
5.0
100
AcDbArc
 50
180.0
 51
0.0
  0
LINE
  5
406
100
AcDbEntity
  8
001
  6
CONTINUOUS
 62
     7
100
AcDbLine
 10
1120.25
 20
1679.485596
 30
0.0
 11
1120.25
 21
1690.485596
 31
0.0
  0
LINE
  5
407
100
AcDbEntity
  8
001
  6
CONTINUOUS
 62
     7
100
AcDbLine
 10
1108.25
 20
1690.485596
 30
0.0
 11
1108.25
 21
1679.485596
 31
0.0
  0
LINE
  5
408
100
AcDbEntity
  8
001
  6
CONTINUOUS
 62
     7
100
AcDbLine
 10
1110.25
 20
1690.485596
 30
0.0
 11
1110.25
 21
1679.485596
 31
0.0
  0
ARC
  5
409
100
AcDbEntity
  8
001
  6
CONTINUOUS
 62
     7
100
AcDbCircle
 10
1086.502782
 20
1764.011872
 30
0.0
 40
5.0
100
AcDbArc
 50
228.403041
 51
251.909587
  0
ARC
  5
40A
100
AcDbEntity
  8
001
  6
CONTINUOUS
 62
     7
100
AcDbCircle
 10
1143.997096
 20
1764.011872
 30
0.0
 40
5.0
100
AcDbArc
 50
288.090413
 51
311.596959
  0
ARC
  5
40B
100
AcDbEntity
  8
001
  6
CONTINUOUS
 62
     7
100
AcDbCircle
 10
1143.997313
 20
1674.959249
 30
0.0
 40
5.0
100
AcDbArc
 50
48.406375
 51
71.91221
  0
ARC
  5
40C
100
AcDbEntity
  8
001
  6
CONTINUOUS
 62
     7
100
AcDbCircle
 10
1086.502565
 20
1674.959249
 30
0.0
 40
5.0
100
AcDbArc
 50
108.08779
 51
131.593625
  0
LINE
  5
40D
100
AcDbEntity
  8
001
  6
CONTINUOUS
 62
     7
100
AcDbLine
 10
1088.75
 20
1110.485596
 30
0.0
 11
1141.75
 21
1110.485596
 31
0.0
  0
LINE
  5
41B
100
AcDbEntity
  8
001
  6
CONTINUOUS
 62
     7
100
AcDbLine
 10
1130.0
 20
1111.485596
 30
0.0
 11
1115.25
 21
1111.485596
 31
0.0
  0
LINE
  5
41C
100
AcDbEntity
  8
001
  6
CONTINUOUS
 62
     7
100
AcDbLine
 10
1926.75
 20
1110.485596
 30
0.0
 11
1979.75
 21
1110.485596
 31
0.0
  0
LINE
  5
426
100
AcDbEntity
  8
001
  6
CONTINUOUS
 62
     7
100
AcDbLine
 10
1953.25
 20
1111.485596
 30
0.0
 11
1938.5
 21
1111.485596
 31
0.0
  0
ARC
  5
47E
100
AcDbEntity
  8
001
  6
CONTINUOUS
 62
     7
100
AcDbCircle
 10
1926.75
 20
1109.485596
 30
0.0
 40
1.0
100
AcDbArc
 50
90.0
 51
180.0
  0
ARC
  5
47F
100
AcDbEntity
  8
001
  6
CONTINUOUS
 62
     7
100
AcDbCircle
 10
1979.75
 20
1109.485596
 30
0.0
 40
1.0
100
AcDbArc
 50
0.0
 51
90.0
  0
INSERT
  5
480
100
AcDbEntity
  8
0
  6
CONTINUOUS
100
AcDbBlockReference
  2
A$C4D0D3218
 10
1085.25
 20
1104.841705
 30
0.0
  0
INSERT
  5
481
100
AcDbEntity
  8
0
  6
CONTINUOUS
100
AcDbBlockReference
  2
A$C4D0D3218
 10
1983.25
 20
1104.841705
 30
0.0
 41
-1.0
  0
ARC
  5
482
100
AcDbEntity
  8
001
  6
CONTINUOUS
 62
     7
100
AcDbCircle
 10
1088.75
 20
1109.485596
 30
0.0
 40
1.0
100
AcDbArc
 50
90.0
 51
180.0
  0
ARC
  5
483
100
AcDbEntity
  8
001
  6
CONTINUOUS
 62
     7
100
AcDbCircle
 10
1141.75
 20
1109.485596
 30
0.0
 40
1.0
100
AcDbArc
 50
0.0
 51
90.0
  0
ENDSEC
  0
SECTION
  2
OBJECTS
  0
DICTIONARY
  5
C
100
AcDbDictionary
  3
ACAD_GROUP
350
D
  3
ACAD_MLINESTYLE
350
1B
  0
DICTIONARY
  5
D
102
{ACAD_REACTORS
330
C
102
}
100
AcDbDictionary
  0
DICTIONARY
  5
1B
102
{ACAD_REACTORS
330
C
102
}
100
AcDbDictionary
  3
STANDARD
350
1C
  0
MLINESTYLE
  5
1C
102
{ACAD_REACTORS
330
1B
102
}
100
AcDbMlineStyle
  2
STANDARD
 70
     0
  3

 62
   256
 51
90.0
 52
90.0
 71
     2
 49
0.5
 62
   256
  6
BYLAYER
 49
-0.5
 62
   256
  6
BYLAYER
  0
ENDSEC
  0
EOF
