  0
SECTION
  2
HEADER
  9
$ACADVER
  1
AC1014
  9
$ACADMAINTVER
 70
     0
  9
$DWGCODEPAGE
  3
ANSI_932
  9
$INSBASE
 10
0.0
 20
0.0
 30
0.0
  9
$EXTMIN
 10
445.5
 20
70.0
 30
0.0
  9
$EXTMAX
 10
2835.0
 20
1970.25
 30
0.0
  9
$LIMMIN
 10
-0.000005
 20
0.0
  9
$LIMMAX
 10
2939.999995
 20
2079.0
  9
$ORTHOMODE
 70
     0
  9
$REGENMODE
 70
     1
  9
$FILLMODE
 70
     1
  9
$QTEXTMODE
 70
     0
  9
$MIRRTEXT
 70
     1
  9
$DRAGMODE
 70
     2
  9
$LTSCALE
 40
58.8
  9
$OSMODE
 70
     0
  9
$ATTMODE
 70
     1
  9
$TEXTSIZE
 40
0.2
  9
$TRACEWID
 40
0.05
  9
$TEXTSTYLE
  7
STANDARD
  9
$CLAYER
  8
0
  9
$CELTYPE
  6
CONTINUOUS
  9
$CECOLOR
 62
   256
  9
$CELTSCALE
 40
1.0
  9
$DELOBJ
 70
     1
  9
$DISPSILH
 70
     0
  9
$DIMSCALE
 40
1.0
  9
$DIMASZ
 40
0.18
  9
$DIMEXO
 40
0.0625
  9
$DIMDLI
 40
0.38
  9
$DIMRND
 40
0.0
  9
$DIMDLE
 40
0.0
  9
$DIMEXE
 40
0.18
  9
$DIMTP
 40
0.0
  9
$DIMTM
 40
0.0
  9
$DIMTXT
 40
0.18
  9
$DIMCEN
 40
0.09
  9
$DIMTSZ
 40
0.0
  9
$DIMTOL
 70
     0
  9
$DIMLIM
 70
     0
  9
$DIMTIH
 70
     1
  9
$DIMTOH
 70
     1
  9
$DIMSE1
 70
     0
  9
$DIMSE2
 70
     0
  9
$DIMTAD
 70
     0
  9
$DIMZIN
 70
     0
  9
$DIMBLK
  1

  9
$DIMASO
 70
     1
  9
$DIMSHO
 70
     1
  9
$DIMPOST
  1

  9
$DIMAPOST
  1

  9
$DIMALT
 70
     0
  9
$DIMALTD
 70
     2
  9
$DIMALTF
 40
25.4
  9
$DIMLFAC
 40
1.0
  9
$DIMTOFL
 70
     0
  9
$DIMTVP
 40
0.0
  9
$DIMTIX
 70
     0
  9
$DIMSOXD
 70
     0
  9
$DIMSAH
 70
     0
  9
$DIMBLK1
  1

  9
$DIMBLK2
  1

  9
$DIMSTYLE
  2
STANDARD
  9
$DIMCLRD
 70
     0
  9
$DIMCLRE
 70
     0
  9
$DIMCLRT
 70
     0
  9
$DIMTFAC
 40
1.0
  9
$DIMGAP
 40
0.09
  9
$DIMJUST
 70
     0
  9
$DIMSD1
 70
     0
  9
$DIMSD2
 70
     0
  9
$DIMTOLJ
 70
     1
  9
$DIMTZIN
 70
     0
  9
$DIMALTZ
 70
     0
  9
$DIMALTTZ
 70
     0
  9
$DIMFIT
 70
     3
  9
$DIMUPT
 70
     0
  9
$DIMUNIT
 70
     2
  9
$DIMDEC
 70
     4
  9
$DIMTDEC
 70
     4
  9
$DIMALTU
 70
     2
  9
$DIMALTTD
 70
     2
  9
$DIMTXSTY
  7
STANDARD
  9
$DIMAUNIT
 70
     0
  9
$LUNITS
 70
     2
  9
$LUPREC
 70
     4
  9
$SKETCHINC
 40
0.1
  9
$FILLETRAD
 40
1.0
  9
$AUNITS
 70
     0
  9
$AUPREC
 70
     0
  9
$MENU
  1
acad
  9
$ELEVATION
 40
0.0
  9
$PELEVATION
 40
0.0
  9
$THICKNESS
 40
0.0
  9
$LIMCHECK
 70
     0
  9
$BLIPMODE
 70
     0
  9
$CHAMFERA
 40
0.0
  9
$CHAMFERB
 40
0.0
  9
$CHAMFERC
 40
0.0
  9
$CHAMFERD
 40
0.0
  9
$SKPOLY
 70
     0
  9
$TDCREATE
 40
0.0000000000
  9
$TDUPDATE
 40
0.0000000000
  9
$TDINDWG
 40
0.0000000000
  9
$TDUSRTIMER
 40
0.0000000000
  9
$USRTIMER
 70
     1
  9
$ANGBASE
 50
0.0
  9
$ANGDIR
 70
     0
  9
$PDMODE
 70
     0
  9
$PDSIZE
 40
0.0
  9
$PLINEWID
 40
0.0
  9
$COORDS
 70
     1
  9
$SPLFRAME
 70
     0
  9
$SPLINETYPE
 70
     6
  9
$SPLINESEGS
 70
     8
  9
$ATTDIA
 70
     0
  9
$ATTREQ
 70
     1
  9
$HANDLING
 70
     1
  9
$HANDSEED
  5
498
  9
$SURFTAB1
 70
     6
  9
$SURFTAB2
 70
     6
  9
$SURFTYPE
 70
     6
  9
$SURFU
 70
     6
  9
$SURFV
 70
     6
  9
$UCSNAME
  2

  9
$UCSORG
 10
0.0
 20
0.0
 30
0.0
  9
$UCSXDIR
 10
1.0
 20
0.0
 30
0.0
  9
$UCSYDIR
 10
0.0
 20
1.0
 30
0.0
  9
$PUCSNAME
  2

  9
$PUCSORG
 10
0.0
 20
0.0
 30
0.0
  9
$PUCSXDIR
 10
1.0
 20
0.0
 30
0.0
  9
$PUCSYDIR
 10
0.0
 20
1.0
 30
0.0
  9
$USERI1
 70
     0
  9
$USERI2
 70
     0
  9
$USERI3
 70
     0
  9
$USERI4
 70
     0
  9
$USERI5
 70
     0
  9
$USERR1
 40
0.0
  9
$USERR2
 40
0.0
  9
$USERR3
 40
0.0
  9
$USERR4
 40
0.0
  9
$USERR5
 40
0.0
  9
$WORLDVIEW
 70
     1
  9
$SHADEDGE
 70
     3
  9
$SHADEDIF
 70
    70
  9
$TILEMODE
 70
     1
  9
$MAXACTVP
 70
    48
  9
$PINSBASE
 10
0.0
 20
0.0
 30
0.0
  9
$PLIMCHECK
 70
     0
  9
$PEXTMIN
 10
1.000000E+20
 20
1.000000E+20
 30
1.000000E+20
  9
$PEXTMAX
 10
-1.000000E+20
 20
-1.000000E+20
 30
-1.000000E+20
  9
$PLIMMIN
 10
0.0
 20
0.0
  9
$PLIMMAX
 10
12.0
 20
9.0
  9
$UNITMODE
 70
     0
  9
$VISRETAIN
 70
     1
  9
$PLINEGEN
 70
     0
  9
$PSLTSCALE
 70
     1
  9
$TREEDEPTH
 70
  3020
  9
$PICKSTYLE
 70
     1
  9
$CMLSTYLE
  2
STANDARD
  9
$CMLJUST
 70
     0
  9
$CMLSCALE
 40
1.0
  9
$PROXYGRAPHICS
 70
     1
  9
$MEASUREMENT
 70
     0
  0
ENDSEC
  0
SECTION
  2
CLASSES
  0
CLASS
  1
LWPOLYLINE
  2
AcDbPolyline
  3
"AutoCAD"
 90
        0
280
     0
281
     1
  0
ENDSEC
  0
SECTION
  2
TABLES
  0
TABLE
  2
VPORT
  5
8
100
AcDbSymbolTable
 70
     2
  0
VPORT
  5
497
100
AcDbSymbolTableRecord
100
AcDbViewportTableRecord
  2
*ACTIVE
 70
     0
 10
0.0
 20
0.0
 11
1.0
 21
1.0
 12
1793.040888
 22
1039.5
 13
0.0
 23
0.0
 14
1.0
 24
1.0
 15
0.0
 25
0.0
 16
0.0
 26
0.0
 36
1.0
 17
0.0
 27
0.0
 37
0.0
 40
2079.0
 41
1.724907
 42
50.0
 43
0.0
 44
0.0
 50
0.0
 51
0.0
 71
     0
 72
   100
 73
     1
 74
     1
 75
     0
 76
     0
 77
     0
 78
     0
  0
ENDTAB
  0
TABLE
  2
LTYPE
  5
5
100
AcDbSymbolTable
 70
    25
  0
LTYPE
  5
12
100
AcDbSymbolTableRecord
100
AcDbLinetypeTableRecord
  2
BYBLOCK
 70
     0
  3

 72
    65
 73
     0
 40
0.0
  0
LTYPE
  5
13
100
AcDbSymbolTableRecord
100
AcDbLinetypeTableRecord
  2
BYLAYER
 70
     0
  3

 72
    65
 73
     0
 40
0.0
  0
LTYPE
  5
14
100
AcDbSymbolTableRecord
100
AcDbLinetypeTableRecord
  2
CONTINUOUS
 70
     0
  3
Solid line
 72
    65
 73
     0
 40
0.0
  0
LTYPE
  5
1F
100
AcDbSymbolTableRecord
100
AcDbLinetypeTableRecord
  2
BORDER
 70
     0
  3
__ __ . __ __ . __ __ . __ __ . __ __ . __ __ .
 72
    65
 73
     6
 40
1.75
 49
0.5
 74
     0
 49
-0.25
 74
     0
 49
0.5
 74
     0
 49
-0.25
 74
     0
 49
0.0
 74
     0
 49
-0.25
 74
     0
  0
LTYPE
  5
20
100
AcDbSymbolTableRecord
100
AcDbLinetypeTableRecord
  2
BORDER2
 70
     0
  3
__.__.__.__.__.__.__.__.__.__.__.__.__.__.__.__
 72
    65
 73
     6
 40
0.875
 49
0.25
 74
     0
 49
-0.125
 74
     0
 49
0.25
 74
     0
 49
-0.125
 74
     0
 49
0.0
 74
     0
 49
-0.125
 74
     0
  0
LTYPE
  5
21
100
AcDbSymbolTableRecord
100
AcDbLinetypeTableRecord
  2
BORDERX2
 70
     0
  3
____  ____  .  ____  ____  .  ____  ____  .  __
 72
    65
 73
     6
 40
3.5
 49
1.0
 74
     0
 49
-0.5
 74
     0
 49
1.0
 74
     0
 49
-0.5
 74
     0
 49
0.0
 74
     0
 49
-0.5
 74
     0
  0
LTYPE
  5
22
100
AcDbSymbolTableRecord
100
AcDbLinetypeTableRecord
  2
CENTER
 70
     0
  3
____ _ ____ _ ____ _ ____ _ ____ _ ____ _ ____ 
 72
    65
 73
     4
 40
2.0
 49
1.25
 74
     0
 49
-0.25
 74
     0
 49
0.25
 74
     0
 49
-0.25
 74
     0
  0
LTYPE
  5
23
100
AcDbSymbolTableRecord
100
AcDbLinetypeTableRecord
  2
CENTER2
 70
     0
  3
___ _ ___ _ ___ _ ___ _ ___ _ ___ _ ___ _ ___ _
 72
    65
 73
     4
 40
1.125
 49
0.75
 74
     0
 49
-0.125
 74
     0
 49
0.125
 74
     0
 49
-0.125
 74
     0
  0
LTYPE
  5
24
100
AcDbSymbolTableRecord
100
AcDbLinetypeTableRecord
  2
CENTERX2
 70
     0
  3
________  __  ________  __  ________  __  _____
 72
    65
 73
     4
 40
4.0
 49
2.5
 74
     0
 49
-0.5
 74
     0
 49
0.5
 74
     0
 49
-0.5
 74
     0
  0
LTYPE
  5
25
100
AcDbSymbolTableRecord
100
AcDbLinetypeTableRecord
  2
DASHDOT
 70
     0
  3
__ . __ . __ . __ . __ . __ . __ . __ . __ . __
 72
    65
 73
     4
 40
1.0
 49
0.5
 74
     0
 49
-0.25
 74
     0
 49
0.0
 74
     0
 49
-0.25
 74
     0
  0
LTYPE
  5
26
100
AcDbSymbolTableRecord
100
AcDbLinetypeTableRecord
  2
DASHDOT2
 70
     0
  3
_._._._._._._._._._._._._._._._._._._._._._._._
 72
    65
 73
     4
 40
0.5
 49
0.25
 74
     0
 49
-0.125
 74
     0
 49
0.0
 74
     0
 49
-0.125
 74
     0
  0
LTYPE
  5
27
100
AcDbSymbolTableRecord
100
AcDbLinetypeTableRecord
  2
DASHDOTX2
 70
     0
  3
____  .  ____  .  ____  .  ____  .  ____  .  __
 72
    65
 73
     4
 40
2.0
 49
1.0
 74
     0
 49
-0.5
 74
     0
 49
0.0
 74
     0
 49
-0.5
 74
     0
  0
LTYPE
  5
28
100
AcDbSymbolTableRecord
100
AcDbLinetypeTableRecord
  2
DASHED
 70
     0
  3
__ __ __ __ __ __ __ __ __ __ __ __ __ __ __ __
 72
    65
 73
     2
 40
0.75
 49
0.5
 74
     0
 49
-0.25
 74
     0
  0
LTYPE
  5
29
100
AcDbSymbolTableRecord
100
AcDbLinetypeTableRecord
  2
DASHED2
 70
     0
  3
_ _ _ _ _ _ _ _ _ _ _ _ _ _ _ _ _ _ _ _ _ _ _ _
 72
    65
 73
     2
 40
0.375
 49
0.25
 74
     0
 49
-0.125
 74
     0
  0
LTYPE
  5
2A
100
AcDbSymbolTableRecord
100
AcDbLinetypeTableRecord
  2
DASHEDX2
 70
     0
  3
____  ____  ____  ____  ____  ____  ____  ____ 
 72
    65
 73
     2
 40
1.5
 49
1.0
 74
     0
 49
-0.5
 74
     0
  0
LTYPE
  5
2B
100
AcDbSymbolTableRecord
100
AcDbLinetypeTableRecord
  2
DIVIDE
 70
     0
  3
____ . . ____ . . ____ . . ____ . . ____ . . __
 72
    65
 73
     6
 40
1.25
 49
0.5
 74
     0
 49
-0.25
 74
     0
 49
0.0
 74
     0
 49
-0.25
 74
     0
 49
0.0
 74
     0
 49
-0.25
 74
     0
  0
LTYPE
  5
2C
100
AcDbSymbolTableRecord
100
AcDbLinetypeTableRecord
  2
DIVIDE2
 70
     0
  3
__..__..__..__..__..__..__..__..__..__..__..__.
 72
    65
 73
     6
 40
0.625
 49
0.25
 74
     0
 49
-0.125
 74
     0
 49
0.0
 74
     0
 49
-0.125
 74
     0
 49
0.0
 74
     0
 49
-0.125
 74
     0
  0
LTYPE
  5
2D
100
AcDbSymbolTableRecord
100
AcDbLinetypeTableRecord
  2
DIVIDEX2
 70
     0
  3
________  .  .  ________  .  .  ________  .  . 
 72
    65
 73
     6
 40
2.5
 49
1.0
 74
     0
 49
-0.5
 74
     0
 49
0.0
 74
     0
 49
-0.5
 74
     0
 49
0.0
 74
     0
 49
-0.5
 74
     0
  0
LTYPE
  5
2E
100
AcDbSymbolTableRecord
100
AcDbLinetypeTableRecord
  2
DOT
 70
     0
  3
. . . . . . . . . . . . . . . . . . . . . . . .
 72
    65
 73
     2
 40
0.25
 49
0.0
 74
     0
 49
-0.25
 74
     0
  0
LTYPE
  5
2F
100
AcDbSymbolTableRecord
100
AcDbLinetypeTableRecord
  2
DOT2
 70
     0
  3
...............................................
 72
    65
 73
     2
 40
0.125
 49
0.0
 74
     0
 49
-0.125
 74
     0
  0
LTYPE
  5
30
100
AcDbSymbolTableRecord
100
AcDbLinetypeTableRecord
  2
DOTX2
 70
     0
  3
.  .  .  .  .  .  .  .  .  .  .  .  .  .  .  . 
 72
    65
 73
     2
 40
0.5
 49
0.0
 74
     0
 49
-0.5
 74
     0
  0
LTYPE
  5
31
100
AcDbSymbolTableRecord
100
AcDbLinetypeTableRecord
  2
HIDDEN
 70
     0
  3
__ __ __ __ __ __ __ __ __ __ __ __ __ __ __ __
 72
    65
 73
     2
 40
0.375
 49
0.25
 74
     0
 49
-0.125
 74
     0
  0
LTYPE
  5
32
100
AcDbSymbolTableRecord
100
AcDbLinetypeTableRecord
  2
HIDDEN2
 70
     0
  3
_ _ _ _ _ _ _ _ _ _ _ _ _ _ _ _ _ _ _ _ _ _ _ _
 72
    65
 73
     2
 40
0.1875
 49
0.125
 74
     0
 49
-0.0625
 74
     0
  0
LTYPE
  5
33
100
AcDbSymbolTableRecord
100
AcDbLinetypeTableRecord
  2
HIDDENX2
 70
     0
  3
____ ____ ____ ____ ____ ____ ____ ____ ____ __
 72
    65
 73
     2
 40
0.75
 49
0.5
 74
     0
 49
-0.25
 74
     0
  0
LTYPE
  5
34
100
AcDbSymbolTableRecord
100
AcDbLinetypeTableRecord
  2
PHANTOM
 70
     0
  3
______  __  __  ______  __  __  ______  __  __ 
 72
    65
 73
     6
 40
2.5
 49
1.25
 74
     0
 49
-0.25
 74
     0
 49
0.25
 74
     0
 49
-0.25
 74
     0
 49
0.25
 74
     0
 49
-0.25
 74
     0
  0
LTYPE
  5
35
100
AcDbSymbolTableRecord
100
AcDbLinetypeTableRecord
  2
PHANTOM2
 70
     0
  3
___ _ _ ___ _ _ ___ _ _ ___ _ _ ___ _ _ ___ _ _
 72
    65
 73
     6
 40
1.25
 49
0.625
 74
     0
 49
-0.125
 74
     0
 49
0.125
 74
     0
 49
-0.125
 74
     0
 49
0.125
 74
     0
 49
-0.125
 74
     0
  0
LTYPE
  5
36
100
AcDbSymbolTableRecord
100
AcDbLinetypeTableRecord
  2
PHANTOMX2
 70
     0
  3
____________    ____    ____    ____________   
 72
    65
 73
     6
 40
5.0
 49
2.5
 74
     0
 49
-0.5
 74
     0
 49
0.5
 74
     0
 49
-0.5
 74
     0
 49
0.5
 74
     0
 49
-0.5
 74
     0
  0
ENDTAB
  0
TABLE
  2
LAYER
  5
2
100
AcDbSymbolTable
 70
     5
  0
LAYER
  5
E
100
AcDbSymbolTableRecord
100
AcDbLayerTableRecord
  2
0
 70
     0
 62
     7
  6
CONTINUOUS
  0
LAYER
  5
38
100
AcDbSymbolTableRecord
100
AcDbLayerTableRecord
  2
001
 70
     0
 62
     7
  6
CONTINUOUS
  0
LAYER
  5
486
100
AcDbSymbolTableRecord
100
AcDbLayerTableRecord
  2
BODY
 70
     0
 62
     7
  6
CONTINUOUS
  0
LAYER
  5
487
100
AcDbSymbolTableRecord
100
AcDbLayerTableRecord
  2
SHAFT
 70
     0
 62
     6
  6
CONTINUOUS
  0
LAYER
  5
488
100
AcDbSymbolTableRecord
100
AcDbLayerTableRecord
  2
CENTER
 70
     0
 62
   144
  6
CENTER2
  0
ENDTAB
  0
TABLE
  2
STYLE
  5
3
100
AcDbSymbolTable
 70
     2
  0
STYLE
  5
F
100
AcDbSymbolTableRecord
100
AcDbTextStyleTableRecord
  2
STANDARD
 70
     0
 40
0.0
 41
1.0
 50
0.0
 71
     0
 42
0.2
  3
TXT
  4
BIGFONT
  0
STYLE
  5
37
100
AcDbSymbolTableRecord
100
AcDbTextStyleTableRecord
  2
STANDARD1
 70
     4
 40
0.0
 41
1.0
 50
0.0
 71
     0
 42
0.2
  3
TXT
  4
BIGFONT
  0
ENDTAB
  0
TABLE
  2
VIEW
  5
6
100
AcDbSymbolTable
 70
     0
  0
ENDTAB
  0
TABLE
  2
UCS
  5
7
100
AcDbSymbolTable
 70
     0
  0
ENDTAB
  0
TABLE
  2
APPID
  5
9
100
AcDbSymbolTable
 70
     1
  0
APPID
  5
10
100
AcDbSymbolTableRecord
100
AcDbRegAppTableRecord
  2
ACAD
 70
     0
  0
ENDTAB
  0
TABLE
  2
DIMSTYLE
  5
A
100
AcDbSymbolTable
 70
     1
  0
DIMSTYLE
105
43C
100
AcDbSymbolTableRecord
100
AcDbDimStyleTableRecord
  2
STANDARD
 70
     0
  3

  4

  5

  6

  7

 40
1.0
 41
0.18
 42
0.0625
 43
0.38
 44
0.18
 45
0.0
 46
0.0
 47
0.0
 48
0.0
140
0.18
141
0.09
142
0.0
143
25.4
144
1.0
145
0.0
146
1.0
147
0.09
 71
     0
 72
     0
 73
     1
 74
     1
 75
     0
 76
     0
 77
     0
 78
     0
170
     0
171
     2
172
     0
173
     0
174
     0
175
     0
176
     0
177
     0
178
     0
270
     2
271
     4
272
     4
273
     2
274
     2
340
F
275
     0
280
     0
281
     0
282
     0
283
     1
284
     0
285
     0
286
     0
287
     3
288
     0
  0
ENDTAB
  0
TABLE
  2
BLOCK_RECORD
  5
1
100
AcDbSymbolTable
 70
     2
  0
BLOCK_RECORD
  5
18
100
AcDbSymbolTableRecord
100
AcDbBlockTableRecord
  2
*MODEL_SPACE
  0
BLOCK_RECORD
  5
15
100
AcDbSymbolTableRecord
100
AcDbBlockTableRecord
  2
*PAPER_SPACE
  0
BLOCK_RECORD
  5
43D
100
AcDbSymbolTableRecord
100
AcDbBlockTableRecord
  2
A$C4D0D3218
  0
BLOCK_RECORD
  5
489
100
AcDbSymbolTableRecord
100
AcDbBlockTableRecord
  2
A$C3D2E53C4
  0
ENDTAB
  0
ENDSEC
  0
SECTION
  2
BLOCKS
  0
BLOCK
  5
19
100
AcDbEntity
  8
0
100
AcDbBlockBegin
  2
*MODEL_SPACE
 70
     0
 10
0.0
 20
0.0
 30
0.0
  3
*MODEL_SPACE
  1

  0
ENDBLK
  5
1A
100
AcDbEntity
  8
0
100
AcDbBlockEnd
  0
BLOCK
  5
16
100
AcDbEntity
 67
     1
  8
0
100
AcDbBlockBegin
  2
*PAPER_SPACE
 70
     0
 10
0.0
 20
0.0
 30
0.0
  3
*PAPER_SPACE
  1

  0
ENDBLK
  5
17
100
AcDbEntity
 67
     1
  8
0
100
AcDbBlockEnd
  0
BLOCK
  5
484
100
AcDbEntity
  8
0
100
AcDbBlockBegin
  2
A$C4D0D3218
 70
     0
 10
0.0
 20
0.0
 30
0.0
  3
A$C4D0D3218
  1

  0
LINE
  5
43E
100
AcDbEntity
  8
BODY
100
AcDbLine
 10
47.298566
 20
58.50411
 30
0.0
 11
30.0
 21
33.988262
 31
0.0
  0
LINE
  5
43F
100
AcDbEntity
  8
BODY
100
AcDbLine
 10
47.830578
 20
57.227929
 30
0.0
 11
48.758497
 21
35.164071
 31
0.0
  0
LINE
  5
440
100
AcDbEntity
  8
BODY
100
AcDbLine
 10
60.0
 20
62.643891
 30
0.0
 11
60.0
 21
35.143891
 31
0.0
  0
LINE
  5
441
100
AcDbEntity
  8
BODY
100
AcDbLine
 10
0.0
 20
8.643891
 30
0.0
 11
0.0
 21
62.643891
 31
0.0
  0
LINE
  5
442
100
AcDbEntity
  8
CENTER
100
AcDbLine
 10
30.0
 20
0.0
 30
0.0
 11
30.0
 21
136.35376
 31
0.0
  0
LINE
  5
443
100
AcDbEntity
  8
BODY
100
AcDbLine
 10
57.0
 20
5.643891
 30
0.0
 11
3.0
 21
5.643891
 31
0.0
  0
ARC
  5
444
100
AcDbEntity
  8
BODY
100
AcDbCircle
 10
3.0
 20
8.643891
 30
0.0
 40
3.0
100
AcDbArc
 50
180.0
 51
270.0
  0
ARC
  5
445
100
AcDbEntity
  8
BODY
100
AcDbCircle
 10
51.917656
 20
7.643891
 30
0.0
 40
2.0
100
AcDbArc
 50
182.408216
 51
270.0
  0
LINE
  5
446
100
AcDbEntity
  8
BODY
100
AcDbLine
 10
30.0
 20
33.988262
 30
0.0
 11
50.0
 21
5.643891
 31
0.0
  0
LINE
  5
447
100
AcDbEntity
  8
CENTER
100
AcDbLine
 10
45.826748
 20
30.643891
 30
0.0
 11
72.990715
 21
30.643891
 31
0.0
  0
LINE
  5
448
100
AcDbEntity
  8
BODY
100
AcDbLine
 10
69.138318
 20
35.643891
 30
0.0
 11
48.738318
 21
35.643891
 31
0.0
  0
LINE
  5
449
100
AcDbEntity
  8
BODY
100
AcDbLine
 10
63.238318
 20
35.143891
 30
0.0
 11
48.738318
 21
35.143891
 31
0.0
  0
LINE
  5
44A
100
AcDbEntity
  8
BODY
100
AcDbLine
 10
49.158879
 20
25.643891
 30
0.0
 11
69.138318
 21
25.643891
 31
0.0
  0
LINE
  5
44B
100
AcDbEntity
  8
BODY
100
AcDbLine
 10
49.155391
 20
25.726818
 30
0.0
 11
49.919423
 21
7.559853
 31
0.0
  0
LINE
  5
44C
100
AcDbEntity
  8
BODY
100
AcDbLine
 10
48.738318
 20
26.143891
 30
0.0
 11
63.238318
 21
26.143891
 31
0.0
  0
LWPOLYLINE
  5
44D
100
AcDbEntity
  8
BODY
100
AcDbPolyline
 90
        4
 70
     0
 43
0.0
 10
30.0
 20
39.881496
 10
22.0
 20
35.262693
 10
22.0
 20
26.025089
 10
30.0
 20
21.406287
  0
ARC
  5
44E
100
AcDbEntity
  8
BODY
100
AcDbCircle
 10
30.0
 20
30.643891
 30
0.0
 40
8.0
100
AcDbArc
 50
90.0
 51
270.0
  0
LINE
  5
44F
100
AcDbEntity
  8
CENTER
100
AcDbLine
 10
20.361507
 20
30.643891
 30
0.0
 11
31.763323
 21
30.643891
 31
0.0
  0
LINE
  5
450
100
AcDbEntity
  8
BODY
100
AcDbLine
 10
49.238318
 20
35.643891
 30
0.0
 11
49.238318
 21
25.643891
 31
0.0
  0
LINE
  5
451
100
AcDbEntity
  8
BODY
100
AcDbLine
 10
48.738318
 20
35.143891
 30
0.0
 11
48.738318
 21
26.143891
 31
0.0
  0
LINE
  5
452
100
AcDbEntity
  8
BODY
100
AcDbLine
 10
48.738318
 20
26.143891
 30
0.0
 11
49.238318
 21
25.643891
 31
0.0
  0
LINE
  5
453
100
AcDbEntity
  8
BODY
100
AcDbLine
 10
48.738318
 20
35.143891
 30
0.0
 11
49.238318
 21
35.643891
 31
0.0
  0
LINE
  5
454
100
AcDbEntity
  8
BODY
100
AcDbLine
 10
60.0
 20
26.143891
 30
0.0
 11
60.0
 21
8.643891
 31
0.0
  0
ARC
  5
455
100
AcDbEntity
  8
BODY
100
AcDbCircle
 10
57.0
 20
8.643891
 30
0.0
 40
3.0
100
AcDbArc
 50
270.0
 51
0.0
  0
LINE
  5
456
100
AcDbEntity
  8
BODY
100
AcDbLine
 10
69.138318
 20
21.406287
 30
0.0
 11
63.738318
 21
21.406287
 31
0.0
  0
LINE
  5
457
100
AcDbEntity
  8
BODY
100
AcDbLine
 10
69.138318
 20
39.881496
 30
0.0
 11
63.738318
 21
39.881496
 31
0.0
  0
LINE
  5
458
100
AcDbEntity
  8
BODY
100
AcDbLine
 10
63.238318
 20
35.143891
 30
0.0
 11
63.238318
 21
26.143891
 31
0.0
  0
LINE
  5
459
100
AcDbEntity
  8
BODY
100
AcDbLine
 10
63.738318
 20
39.881496
 30
0.0
 11
63.738318
 21
21.406287
 31
0.0
  0
LINE
  5
45A
100
AcDbEntity
  8
BODY
100
AcDbLine
 10
63.238318
 20
26.143891
 30
0.0
 11
63.738318
 21
25.643891
 31
0.0
  0
LINE
  5
45B
100
AcDbEntity
  8
BODY
100
AcDbLine
 10
63.238318
 20
35.143891
 30
0.0
 11
63.738318
 21
35.643891
 31
0.0
  0
ARC
  5
45C
100
AcDbEntity
  8
BODY
100
AcDbCircle
 10
57.138318
 20
30.643891
 30
0.0
 40
13.0
100
AcDbArc
 50
337.380135
 51
22.619865
  0
LINE
  5
45D
100
AcDbEntity
  8
BODY
100
AcDbLine
 10
70.138318
 20
37.781496
 30
0.0
 11
70.138318
 21
23.506287
 31
0.0
  0
ARC
  5
45E
100
AcDbEntity
  8
BODY
100
AcDbCircle
 10
67.393834
 20
23.525089
 30
0.0
 40
2.744549
100
AcDbArc
 50
309.465831
 51
50.534169
  0
ARC
  5
45F
100
AcDbEntity
  8
BODY
100
AcDbCircle
 10
67.393834
 20
37.762693
 30
0.0
 40
2.744549
100
AcDbArc
 50
309.465831
 51
50.534169
  0
LINE
  5
460
100
AcDbEntity
  8
BODY
100
AcDbLine
 10
15.25
 20
65.643891
 30
0.0
 11
30.0
 21
65.643891
 31
0.0
  0
LINE
  5
461
100
AcDbEntity
  8
SHAFT
100
AcDbLine
 10
30.0
 20
123.315647
 30
0.0
 11
13.25
 21
115.643891
 31
0.0
  0
LINE
  5
462
100
AcDbEntity
  8
SHAFT
100
AcDbLine
 10
14.0
 20
130.643891
 30
0.0
 11
30.0
 21
123.315647
 31
0.0
  0
LINE
  5
463
100
AcDbEntity
  8
BODY
100
AcDbLine
 10
30.0
 20
115.643891
 30
0.0
 11
13.25
 21
115.643891
 31
0.0
  0
LINE
  5
464
100
AcDbEntity
  8
SHAFT
100
AcDbLine
 10
14.0
 20
130.643891
 30
0.0
 11
46.0
 21
130.643891
 31
0.0
  0
LINE
  5
465
100
AcDbEntity
  8
SHAFT
100
AcDbLine
 10
13.25
 20
115.643891
 30
0.0
 11
30.0
 21
115.643891
 31
0.0
  0
LINE
  5
466
100
AcDbEntity
  8
BODY
100
AcDbLine
 10
30.0
 20
90.643891
 30
0.0
 11
13.723903
 21
66.351209
 31
0.0
  0
LINE
  5
467
100
AcDbEntity
  8
BODY
100
AcDbLine
 10
13.25
 20
115.643891
 30
0.0
 11
30.0
 21
90.643891
 31
0.0
  0
LINE
  5
468
100
AcDbEntity
  8
BODY
100
AcDbLine
 10
13.25
 20
115.643891
 30
0.0
 11
13.25
 21
67.643891
 31
0.0
  0
LINE
  5
469
100
AcDbEntity
  8
BODY
100
AcDbLine
 10
13.25
 20
115.643891
 30
0.0
 11
11.085954
 21
67.553982
 31
0.0
  0
ARC
  5
46A
100
AcDbEntity
  8
BODY
100
AcDbCircle
 10
15.25
 20
67.643891
 30
0.0
 40
2.0
100
AcDbArc
 50
180.0
 51
270.0
  0
ARC
  5
46B
100
AcDbEntity
  8
BODY
100
AcDbCircle
 10
9.087976
 20
67.643891
 30
0.0
 40
2.0
100
AcDbArc
 50
270.0
 51
357.423428
  0
ARC
  5
46C
100
AcDbEntity
  8
BODY
100
AcDbCircle
 10
3.0
 20
62.643891
 30
0.0
 40
3.0
100
AcDbArc
 50
90.0
 51
180.0
  0
LINE
  5
46D
100
AcDbEntity
  8
BODY
100
AcDbLine
 10
3.0
 20
65.643891
 30
0.0
 11
9.087976
 21
65.643891
 31
0.0
  0
LINE
  5
46E
100
AcDbEntity
  8
SHAFT
100
AcDbLine
 10
14.0
 20
130.643891
 30
0.0
 11
13.25
 21
115.643891
 31
0.0
  0
LINE
  5
46F
100
AcDbEntity
  8
BODY
100
AcDbLine
 10
46.75
 20
115.643891
 30
0.0
 11
48.914046
 21
67.553982
 31
0.0
  0
ARC
  5
470
100
AcDbEntity
  8
BODY
100
AcDbCircle
 10
50.912024
 20
67.643891
 30
0.0
 40
2.0
100
AcDbArc
 50
182.576572
 51
270.0
  0
LINE
  5
471
100
AcDbEntity
  8
BODY
100
AcDbLine
 10
30.0
 20
59.143891
 30
0.0
 11
45.832345
 21
59.143891
 31
0.0
  0
ARC
  5
472
100
AcDbEntity
  8
BODY
100
AcDbCircle
 10
45.832345
 20
57.143891
 30
0.0
 40
2.0
100
AcDbArc
 50
2.408216
 51
90.0
  0
ARC
  5
473
100
AcDbEntity
  8
BODY
100
AcDbCircle
 10
57.0
 20
62.643891
 30
0.0
 40
3.0
100
AcDbArc
 50
0.0
 51
90.0
  0
LINE
  5
474
100
AcDbEntity
  8
BODY
100
AcDbLine
 10
50.912024
 20
65.643891
 30
0.0
 11
57.0
 21
65.643891
 31
0.0
  0
LINE
  5
475
100
AcDbEntity
  8
BODY
100
AcDbLine
 10
32.0
 20
126.893891
 30
0.0
 11
32.0
 21
106.343891
 31
0.0
  0
LINE
  5
476
100
AcDbEntity
  8
BODY
100
AcDbLine
 10
32.5
 20
127.393891
 30
0.0
 11
32.5
 21
106.643891
 31
0.0
  0
LINE
  5
477
100
AcDbEntity
  8
BODY
100
AcDbLine
 10
32.5
 20
106.643891
 30
0.0
 11
30.0
 21
105.143891
 31
0.0
  0
LINE
  5
478
100
AcDbEntity
  8
BODY
100
AcDbLine
 10
32.5
 20
106.643891
 30
0.0
 11
30.0
 21
106.643891
 31
0.0
  0
LINE
  5
479
100
AcDbEntity
  8
BODY
100
AcDbLine
 10
32.5
 20
111.143891
 30
0.0
 11
32.0
 21
110.643891
 31
0.0
  0
LINE
  5
47A
100
AcDbEntity
  8
BODY
100
AcDbLine
 10
30.0
 20
111.143891
 30
0.0
 11
32.5
 21
111.143891
 31
0.0
  0
LINE
  5
47B
100
AcDbEntity
  8
BODY
100
AcDbLine
 10
30.0
 20
110.643891
 30
0.0
 11
32.5
 21
110.643891
 31
0.0
  0
LINE
  5
47C
100
AcDbEntity
  8
SHAFT
100
AcDbLine
 10
32.0
 20
115.643891
 30
0.0
 11
46.75
 21
115.643891
 31
0.0
  0
LINE
  5
47D
100
AcDbEntity
  8
BODY
100
AcDbLine
 10
35.75
 20
130.643891
 30
0.0
 11
32.0
 21
126.893891
 31
0.0
  0
LINE
  5
47E
100
AcDbEntity
  8
SHAFT
100
AcDbLine
 10
32.75
 20
127.643891
 30
0.0
 11
35.75
 21
130.643891
 31
0.0
  0
LINE
  5
47F
100
AcDbEntity
  8
BODY
100
AcDbLine
 10
46.75
 20
115.643891
 30
0.0
 11
32.0
 21
115.643891
 31
0.0
  0
LINE
  5
480
100
AcDbEntity
  8
SHAFT
100
AcDbLine
 10
32.75
 20
127.643891
 30
0.0
 11
32.75
 21
115.643891
 31
0.0
  0
LINE
  5
481
100
AcDbEntity
  8
BODY
100
AcDbLine
 10
32.0
 20
126.893891
 30
0.0
 11
30.0
 21
126.893891
 31
0.0
  0
LINE
  5
482
100
AcDbEntity
  8
BODY
100
AcDbLine
 10
32.5
 20
127.393891
 30
0.0
 11
30.0
 21
127.393891
 31
0.0
  0
LINE
  5
483
100
AcDbEntity
  8
SHAFT
100
AcDbLine
 10
46.0
 20
130.643891
 30
0.0
 11
46.75
 21
115.643891
 31
0.0
  0
ENDBLK
  5
485
100
AcDbEntity
  8
0
100
AcDbBlockEnd
  0
BLOCK
  5
48C
100
AcDbEntity
  8
0
100
AcDbBlockBegin
  2
A$C3D2E53C4
 70
     0
 10
0.0
 20
0.0
 30
0.0
  3
A$C3D2E53C4
  1

  0
INSERT
  5
48A
100
AcDbEntity
  8
0
  6
CONTINUOUS
100
AcDbBlockReference
  2
A$C4D0D3218
 10
-0.000001
 20
0.000001
 30
0.0
  0
INSERT
  5
48B
100
AcDbEntity
  8
0
  6
CONTINUOUS
100
AcDbBlockReference
  2
A$C4D0D3218
 10
558.499999
 20
0.000001
 30
0.0
 41
-1.0
  0
ENDBLK
  5
48D
100
AcDbEntity
  8
0
100
AcDbBlockEnd
  0
ENDSEC
  0
SECTION
  2
ENTITIES
  0
ARC
  5
3A
100
AcDbEntity
  8
001
  6
CONTINUOUS
 62
     7
100
AcDbCircle
 10
1124.5
 20
1780.526787
 30
0.0
 40
12.0
100
AcDbArc
 50
0.0
 51
70.825862
  0
ARC
  5
3B
100
AcDbEntity
  8
001
  6
CONTINUOUS
 62
     7
100
AcDbCircle
 10
1056.5
 20
1780.526787
 30
0.0
 40
12.0
100
AcDbArc
 50
109.174138
 51
180.000258
  0
ARC
  5
3C
100
AcDbEntity
  8
001
  6
CONTINUOUS
 62
     7
100
AcDbCircle
 10
1056.5
 20
1584.973213
 30
0.0
 40
12.0
100
AcDbArc
 50
179.999742
 51
250.825862
  0
ARC
  5
3D
100
AcDbEntity
  8
001
  6
CONTINUOUS
 62
     7
100
AcDbCircle
 10
1124.5
 20
1584.973213
 30
0.0
 40
12.0
100
AcDbArc
 50
289.174138
 51
0.000258
  0
LINE
  5
3E
100
AcDbEntity
  8
001
  6
CONTINUOUS
 62
     7
100
AcDbLine
 10
1136.5
 20
1602.113403
 30
0.0
 11
1136.5
 21
1584.973267
 31
0.0
  0
LINE
  5
3F
100
AcDbEntity
  8
001
  6
CONTINUOUS
 62
     7
100
AcDbLine
 10
1136.5
 20
1763.386597
 30
0.0
 11
1136.5
 21
1780.526733
 31
0.0
  0
LINE
  5
40
100
AcDbEntity
  8
001
  6
CONTINUOUS
 62
     7
100
AcDbLine
 10
1044.5
 20
1602.113403
 30
0.0
 11
1044.5
 21
1584.973267
 31
0.0
  0
LINE
  5
41
100
AcDbEntity
  8
001
  6
CONTINUOUS
 62
     7
100
AcDbLine
 10
1044.5
 20
1763.386597
 30
0.0
 11
1044.5
 21
1780.526733
 31
0.0
  0
ARC
  5
42
100
AcDbEntity
  8
001
  6
CONTINUOUS
 62
     7
100
AcDbCircle
 10
1090.499967
 20
1682.749985
 30
0.0
 40
115.519539
100
AcDbArc
 50
250.825876
 51
262.203777
  0
ARC
  5
43
100
AcDbEntity
  8
001
  6
CONTINUOUS
 62
     7
100
AcDbCircle
 10
1090.500033
 20
1682.749985
 30
0.0
 40
115.519539
100
AcDbArc
 50
277.796223
 51
289.174124
  0
ARC
  5
44
100
AcDbEntity
  8
001
  6
CONTINUOUS
 62
     7
100
AcDbCircle
 10
1090.500033
 20
1682.750015
 30
0.0
 40
115.519539
100
AcDbArc
 50
70.825876
 51
82.203777
  0
ARC
  5
45
100
AcDbEntity
  8
001
  6
CONTINUOUS
 62
     7
100
AcDbCircle
 10
1090.499967
 20
1682.750015
 30
0.0
 40
115.519539
100
AcDbArc
 50
97.796223
 51
109.174124
  0
LINE
  5
46
100
AcDbEntity
  8
001
  6
CONTINUOUS
 62
     7
100
AcDbLine
 10
1098.878418
 20
1533.770508
 30
0.0
 11
1082.121582
 21
1533.770508
 31
0.0
  0
LINE
  5
47
100
AcDbEntity
  8
001
  6
CONTINUOUS
 62
     7
100
AcDbLine
 10
1108.455566
 20
1585.194214
 30
0.0
 11
1101.85144
 21
1536.368408
 31
0.0
  0
LINE
  5
48
100
AcDbEntity
  8
001
  6
CONTINUOUS
 62
     7
100
AcDbLine
 10
1072.544434
 20
1585.194214
 30
0.0
 11
1079.14856
 21
1536.368408
 31
0.0
  0
ARC
  5
49
100
AcDbEntity
  8
001
  6
CONTINUOUS
 62
     7
100
AcDbCircle
 10
1082.12149
 20
1536.770508
 30
0.0
 40
3.0
100
AcDbArc
 50
187.702718
 51
270.001756
  0
ARC
  5
4A
100
AcDbEntity
  8
001
  6
CONTINUOUS
 62
     7
100
AcDbCircle
 10
1098.87851
 20
1536.770508
 30
0.0
 40
3.0
100
AcDbArc
 50
269.998244
 51
352.297282
  0
LINE
  5
4B
100
AcDbEntity
  8
001
  6
CONTINUOUS
 62
     7
100
AcDbLine
 10
1080.633301
 20
1547.772827
 30
0.0
 11
1100.366699
 21
1547.772827
 31
0.0
  0
LINE
  5
4C
100
AcDbEntity
  8
001
  6
CONTINUOUS
 62
     7
100
AcDbLine
 10
1098.878418
 20
1831.729492
 30
0.0
 11
1082.121582
 21
1831.729492
 31
0.0
  0
LINE
  5
4D
100
AcDbEntity
  8
001
  6
CONTINUOUS
 62
     7
100
AcDbLine
 10
1108.455566
 20
1780.305786
 30
0.0
 11
1101.85144
 21
1829.131592
 31
0.0
  0
ARC
  5
4E
100
AcDbEntity
  8
001
  6
CONTINUOUS
 62
     7
100
AcDbCircle
 10
1098.87851
 20
1828.729492
 30
0.0
 40
3.0
100
AcDbArc
 50
7.702718
 51
90.001756
  0
LINE
  5
4F
100
AcDbEntity
  8
001
  6
CONTINUOUS
 62
     7
100
AcDbLine
 10
1080.633301
 20
1817.727173
 30
0.0
 11
1100.366699
 21
1817.727173
 31
0.0
  0
LINE
  5
50
100
AcDbEntity
  8
001
  6
CONTINUOUS
 62
     7
100
AcDbLine
 10
1072.544434
 20
1780.305786
 30
0.0
 11
1079.14856
 21
1829.131592
 31
0.0
  0
ARC
  5
51
100
AcDbEntity
  8
001
  6
CONTINUOUS
 62
     7
100
AcDbCircle
 10
1082.12149
 20
1828.729492
 30
0.0
 40
3.0
100
AcDbArc
 50
89.998244
 51
172.297282
  0
ARC
  5
52
100
AcDbEntity
  8
001
  6
CONTINUOUS
 62
     7
100
AcDbCircle
 10
1062.634674
 20
1781.646187
 30
0.0
 40
10.0
100
AcDbArc
 50
292.948383
 51
352.296884
  0
ARC
  5
53
100
AcDbEntity
  8
001
  6
CONTINUOUS
 62
     7
100
AcDbCircle
 10
1062.634381
 20
1781.646118
 30
0.0
 40
10.0
100
AcDbArc
 50
270.001506
 51
278.524474
  0
ARC
  5
54
100
AcDbEntity
  8
001
  6
CONTINUOUS
 62
     7
100
AcDbCircle
 10
1118.365619
 20
1781.646118
 30
0.0
 40
10.0
100
AcDbArc
 50
261.475526
 51
269.998494
  0
ARC
  5
55
100
AcDbEntity
  8
001
  6
CONTINUOUS
 62
     7
100
AcDbCircle
 10
1118.365326
 20
1781.646187
 30
0.0
 40
10.0
100
AcDbArc
 50
187.703116
 51
247.051617
  0
ARC
  5
56
100
AcDbEntity
  8
001
  6
CONTINUOUS
 62
     7
100
AcDbCircle
 10
1062.634674
 20
1583.853813
 30
0.0
 40
10.0
100
AcDbArc
 50
7.703116
 51
67.051617
  0
ARC
  5
57
100
AcDbEntity
  8
001
  6
CONTINUOUS
 62
     7
100
AcDbCircle
 10
1062.634381
 20
1583.853882
 30
0.0
 40
10.0
100
AcDbArc
 50
81.475526
 51
89.998494
  0
ARC
  5
58
100
AcDbEntity
  8
001
  6
CONTINUOUS
 62
     7
100
AcDbCircle
 10
1118.365619
 20
1583.853882
 30
0.0
 40
10.0
100
AcDbArc
 50
90.001506
 51
98.524474
  0
ARC
  5
59
100
AcDbEntity
  8
001
  6
CONTINUOUS
 62
     7
100
AcDbCircle
 10
1118.365326
 20
1583.853813
 30
0.0
 40
10.0
100
AcDbArc
 50
112.948383
 51
172.296884
  0
ARC
  5
5A
100
AcDbEntity
  8
001
  6
CONTINUOUS
 62
     7
100
AcDbCircle
 10
1090.5
 20
1682.750015
 30
0.0
 40
92.834541
100
AcDbArc
 50
239.938326
 51
300.061674
  0
ARC
  5
5B
100
AcDbEntity
  8
001
  6
CONTINUOUS
 62
     7
100
AcDbCircle
 10
1090.5
 20
1682.749985
 30
0.0
 40
92.834541
100
AcDbArc
 50
59.938326
 51
120.061674
  0
ARC
  5
5C
100
AcDbEntity
  8
001
  6
CONTINUOUS
 62
     7
100
AcDbCircle
 10
1046.0
 20
1605.864868
 30
0.0
 40
4.0
100
AcDbArc
 50
180.0
 51
239.93739
  0
ARC
  5
5D
100
AcDbEntity
  8
001
  6
CONTINUOUS
 62
     7
100
AcDbCircle
 10
1135.0
 20
1605.864868
 30
0.0
 40
4.0
100
AcDbArc
 50
300.06261
 51
0.0
  0
ARC
  5
5E
100
AcDbEntity
  8
001
  6
CONTINUOUS
 62
     7
100
AcDbCircle
 10
1135.0
 20
1759.635132
 30
0.0
 40
4.0
100
AcDbArc
 50
0.0
 51
59.93739
  0
ARC
  5
5F
100
AcDbEntity
  8
001
  6
CONTINUOUS
 62
     7
100
AcDbCircle
 10
1046.0
 20
1759.635132
 30
0.0
 40
4.0
100
AcDbArc
 50
120.06261
 51
180.0
  0
LINE
  5
60
100
AcDbEntity
  8
001
  6
CONTINUOUS
 62
     7
100
AcDbLine
 10
1042.0
 20
1729.866821
 30
0.0
 11
1042.0
 21
1759.635132
 31
0.0
  0
LINE
  5
61
100
AcDbEntity
  8
001
  6
CONTINUOUS
 62
     7
100
AcDbLine
 10
1042.0
 20
1635.633179
 30
0.0
 11
1042.0
 21
1605.864868
 31
0.0
  0
LINE
  5
62
100
AcDbEntity
  8
001
  6
CONTINUOUS
 62
     7
100
AcDbLine
 10
1139.0
 20
1729.866821
 30
0.0
 11
1139.0
 21
1759.635132
 31
0.0
  0
LINE
  5
63
100
AcDbEntity
  8
001
  6
CONTINUOUS
 62
     7
100
AcDbLine
 10
1139.0
 20
1635.633179
 30
0.0
 11
1139.0
 21
1605.864868
 31
0.0
  0
ARC
  5
64
100
AcDbEntity
  8
001
  6
CONTINUOUS
 62
     7
100
AcDbCircle
 10
1090.499982
 20
1682.75
 30
0.0
 40
63.5
100
AcDbArc
 50
324.681497
 51
35.318503
  0
ARC
  5
65
100
AcDbEntity
  8
001
  6
CONTINUOUS
 62
     7
100
AcDbCircle
 10
1090.500018
 20
1682.75
 30
0.0
 40
63.5
100
AcDbArc
 50
144.681497
 51
215.318503
  0
ARC
  5
66
100
AcDbEntity
  8
001
  6
CONTINUOUS
 62
     7
100
AcDbCircle
 10
1157.0
 20
1729.86685
 30
0.0
 40
18.0
100
AcDbArc
 50
180.000092
 51
215.31841
  0
ARC
  5
67
100
AcDbEntity
  8
001
  6
CONTINUOUS
 62
     7
100
AcDbCircle
 10
1024.0
 20
1729.86685
 30
0.0
 40
18.0
100
AcDbArc
 50
324.68159
 51
0.0
  0
ARC
  5
68
100
AcDbEntity
  8
001
  6
CONTINUOUS
 62
     7
100
AcDbCircle
 10
1024.0
 20
1635.63315
 30
0.0
 40
18.0
100
AcDbArc
 50
0.000092
 51
35.31841
  0
ARC
  5
69
100
AcDbEntity
  8
001
  6
CONTINUOUS
 62
     7
100
AcDbCircle
 10
1157.0
 20
1635.63315
 30
0.0
 40
18.0
100
AcDbArc
 50
144.68159
 51
179.999908
  0
ARC
  5
6A
100
AcDbEntity
  8
001
  6
CONTINUOUS
 62
     7
100
AcDbCircle
 10
1090.5
 20
1682.750055
 30
0.0
 40
75.0
100
AcDbArc
 50
51.188438
 51
128.811562
  0
ARC
  5
6B
100
AcDbEntity
  8
001
  6
CONTINUOUS
 62
     7
100
AcDbCircle
 10
1090.5
 20
1682.749945
 30
0.0
 40
75.0
100
AcDbArc
 50
231.188438
 51
308.811562
  0
ARC
  5
6C
100
AcDbEntity
  8
001
  6
CONTINUOUS
 62
     7
100
AcDbCircle
 10
1135.000029
 20
1627.425923
 30
0.0
 40
4.0
100
AcDbArc
 50
308.811688
 51
39.99995
  0
ARC
  5
6D
100
AcDbEntity
  8
001
  6
CONTINUOUS
 62
     7
100
AcDbCircle
 10
1135.000029
 20
1738.074077
 30
0.0
 40
4.0
100
AcDbArc
 50
320.00005
 51
51.188312
  0
ARC
  5
6E
100
AcDbEntity
  8
001
  6
CONTINUOUS
 62
     7
100
AcDbCircle
 10
1045.999971
 20
1627.425923
 30
0.0
 40
4.0
100
AcDbArc
 50
140.00005
 51
231.188312
  0
ARC
  5
6F
100
AcDbEntity
  8
001
  6
CONTINUOUS
 62
     7
100
AcDbCircle
 10
1045.999971
 20
1738.074077
 30
0.0
 40
4.0
100
AcDbArc
 50
128.811688
 51
219.99995
  0
LINE
  5
70
100
AcDbEntity
  8
001
  6
CONTINUOUS
 62
     7
100
AcDbLine
 10
1055.152344
 20
1644.556274
 30
0.0
 11
1042.935791
 21
1629.99707
 31
0.0
  0
LINE
  5
71
100
AcDbEntity
  8
001
  6
CONTINUOUS
 62
     7
100
AcDbLine
 10
1125.847656
 20
1644.556274
 30
0.0
 11
1138.064209
 21
1629.99707
 31
0.0
  0
LINE
  5
72
100
AcDbEntity
  8
001
  6
CONTINUOUS
 62
     7
100
AcDbLine
 10
1055.152344
 20
1720.943726
 30
0.0
 11
1042.935791
 21
1735.50293
 31
0.0
  0
LINE
  5
73
100
AcDbEntity
  8
001
  6
CONTINUOUS
 62
     7
100
AcDbLine
 10
1125.847656
 20
1720.943726
 30
0.0
 11
1138.064209
 21
1735.50293
 31
0.0
  0
LINE
  5
75
100
AcDbEntity
  8
001
  6
CONTINUOUS
 62
     7
100
AcDbLine
 10
2038.5
 20
1165.25
 30
0.0
 11
1987.5
 21
1165.25
 31
0.0
  0
ARC
  5
76
100
AcDbEntity
  8
001
  6
CONTINUOUS
 62
     7
100
AcDbCircle
 10
1987.5
 20
1167.25
 30
0.0
 40
2.0
100
AcDbArc
 50
180.0
 51
270.0
  0
ARC
  5
77
100
AcDbEntity
  8
001
  6
CONTINUOUS
 62
     7
100
AcDbCircle
 10
2038.5
 20
1167.25
 30
0.0
 40
2.0
100
AcDbArc
 50
270.0
 51
0.0
  0
LINE
  5
78
100
AcDbEntity
  8
001
  6
CONTINUOUS
 62
     7
100
AcDbLine
 10
1999.0
 20
1207.25
 30
0.0
 11
1999.0
 21
1255.25
 31
0.0
  0
ARC
  5
7A
100
AcDbEntity
  8
001
  6
CONTINUOUS
 62
     7
100
AcDbCircle
 10
2001.0
 20
1207.25
 30
0.0
 40
2.0
100
AcDbArc
 50
180.0
 51
270.0
  0
ARC
  5
7C
100
AcDbEntity
  8
001
  6
CONTINUOUS
 62
     7
100
AcDbCircle
 10
1997.941806
 20
1254.25
 30
0.0
 40
1.0
100
AcDbArc
 50
90.001905
 51
176.563831
  0
LINE
  5
7E
100
AcDbEntity
  8
001
  6
CONTINUOUS
 62
     7
100
AcDbLine
 10
1105.558228
 20
1255.25
 30
0.0
 11
1090.5
 21
1255.25
 31
0.0
  0
LINE
  5
7F
100
AcDbEntity
  8
001
  6
CONTINUOUS
 62
     7
100
AcDbLine
 10
1104.5
 20
1207.25
 30
0.0
 11
1104.5
 21
1255.25
 31
0.0
  0
ARC
  5
80
100
AcDbEntity
  8
001
  6
CONTINUOUS
 62
     7
100
AcDbCircle
 10
1102.5
 20
1207.25
 30
0.0
 40
2.0
100
AcDbArc
 50
270.0
 51
0.0
  0
ARC
  5
81
100
AcDbEntity
  8
001
  6
CONTINUOUS
 62
     7
100
AcDbCircle
 10
1105.558194
 20
1254.25
 30
0.0
 40
1.0
100
AcDbArc
 50
3.436169
 51
89.998095
  0
LINE
  5
85
100
AcDbEntity
  8
001
  6
CONTINUOUS
 62
     7
100
AcDbLine
 10
1116.0
 20
1165.25
 30
0.0
 11
1065.0
 21
1165.25
 31
0.0
  0
ARC
  5
86
100
AcDbEntity
  8
001
  6
CONTINUOUS
 62
     7
100
AcDbCircle
 10
1116.0
 20
1167.25
 30
0.0
 40
2.0
100
AcDbArc
 50
270.0
 51
0.0
  0
ARC
  5
87
100
AcDbEntity
  8
001
  6
CONTINUOUS
 62
     7
100
AcDbCircle
 10
1065.0
 20
1167.25
 30
0.0
 40
2.0
100
AcDbArc
 50
180.0
 51
270.0
  0
LINE
  5
88
100
AcDbEntity
  8
001
  6
CONTINUOUS
 62
     7
100
AcDbLine
 10
1993.0
 20
1160.919922
 30
0.0
 11
1995.5
 21
1165.25
 31
0.0
  0
LINE
  5
89
100
AcDbEntity
  8
001
  6
CONTINUOUS
 62
     7
100
AcDbLine
 10
2033.0
 20
1160.919922
 30
0.0
 11
2030.5
 21
1165.25
 31
0.0
  0
LINE
  5
8A
100
AcDbEntity
  8
001
  6
CONTINUOUS
 62
     7
100
AcDbLine
 10
1993.0
 20
1160.919922
 30
0.0
 11
1993.0
 21
1145.25
 31
0.0
  0
LINE
  5
8B
100
AcDbEntity
  8
001
  6
CONTINUOUS
 62
     7
100
AcDbLine
 10
2033.0
 20
1160.919922
 30
0.0
 11
2033.0
 21
1145.25
 31
0.0
  0
LINE
  5
8C
100
AcDbEntity
  8
001
  6
CONTINUOUS
 62
     7
100
AcDbLine
 10
2033.0
 20
1160.919922
 30
0.0
 11
1993.0
 21
1160.919922
 31
0.0
  0
LINE
  5
8D
100
AcDbEntity
  8
001
  6
CONTINUOUS
 62
     7
100
AcDbLine
 10
1110.5
 20
1160.919922
 30
0.0
 11
1108.0
 21
1165.25
 31
0.0
  0
LINE
  5
8E
100
AcDbEntity
  8
001
  6
CONTINUOUS
 62
     7
100
AcDbLine
 10
1110.5
 20
1160.919922
 30
0.0
 11
1070.5
 21
1160.919922
 31
0.0
  0
LINE
  5
8F
100
AcDbEntity
  8
001
  6
CONTINUOUS
 62
     7
100
AcDbLine
 10
1070.5
 20
1160.919922
 30
0.0
 11
1073.0
 21
1165.25
 31
0.0
  0
LINE
  5
90
100
AcDbEntity
  8
001
  6
CONTINUOUS
 62
     7
100
AcDbLine
 10
1070.5
 20
1160.919922
 30
0.0
 11
1070.5
 21
1159.25
 31
0.0
  0
LINE
  5
91
100
AcDbEntity
  8
001
  6
CONTINUOUS
 62
     7
100
AcDbLine
 10
1110.5
 20
1160.919922
 30
0.0
 11
1110.5
 21
1159.25
 31
0.0
  0
CIRCLE
  5
92
100
AcDbEntity
  8
001
  6
CONTINUOUS
 62
     7
100
AcDbCircle
 10
1090.5
 20
1181.25
 30
0.0
 40
5.0
  0
LINE
  5
93
100
AcDbEntity
  8
001
  6
CONTINUOUS
 62
     7
100
AcDbLine
 10
1109.5
 20
1696.75
 30
0.0
 11
1109.5
 21
1668.75
 31
0.0
  0
LINE
  5
94
100
AcDbEntity
  8
001
  6
CONTINUOUS
 62
     7
100
AcDbLine
 10
1076.5
 20
1701.75
 30
0.0
 11
1104.5
 21
1701.75
 31
0.0
  0
LINE
  5
95
100
AcDbEntity
  8
001
  6
CONTINUOUS
 62
     7
100
AcDbLine
 10
1106.5
 20
1696.75
 30
0.0
 11
1106.5
 21
1668.75
 31
0.0
  0
LINE
  5
96
100
AcDbEntity
  8
001
  6
CONTINUOUS
 62
     7
100
AcDbLine
 10
1076.5
 20
1698.75
 30
0.0
 11
1104.5
 21
1698.75
 31
0.0
  0
LINE
  5
97
100
AcDbEntity
  8
001
  6
CONTINUOUS
 62
     7
100
AcDbLine
 10
1104.5
 20
1698.75
 30
0.0
 11
1106.5
 21
1696.75
 31
0.0
  0
LINE
  5
98
100
AcDbEntity
  8
001
  6
CONTINUOUS
 62
     7
100
AcDbLine
 10
1104.5
 20
1701.75
 30
0.0
 11
1109.5
 21
1696.75
 31
0.0
  0
LINE
  5
99
100
AcDbEntity
  8
001
  6
CONTINUOUS
 62
     7
100
AcDbLine
 10
1106.5
 20
1696.75
 30
0.0
 11
1109.5
 21
1696.75
 31
0.0
  0
LINE
  5
9A
100
AcDbEntity
  8
001
  6
CONTINUOUS
 62
     7
100
AcDbLine
 10
1104.5
 20
1698.75
 30
0.0
 11
1104.5
 21
1701.75
 31
0.0
  0
LINE
  5
9B
100
AcDbEntity
  8
001
  6
CONTINUOUS
 62
     7
100
AcDbLine
 10
1084.0
 20
1694.75
 30
0.0
 11
1097.0
 21
1694.75
 31
0.0
  0
LINE
  5
9C
100
AcDbEntity
  8
001
  6
CONTINUOUS
 62
     7
100
AcDbLine
 10
1084.0
 20
1691.75
 30
0.0
 11
1097.0
 21
1691.75
 31
0.0
  0
LINE
  5
9D
100
AcDbEntity
  8
001
  6
CONTINUOUS
 62
     7
100
AcDbLine
 10
1083.833618
 20
1687.754761
 30
0.0
 11
1098.164917
 21
1682.696655
 31
0.0
  0
LINE
  5
9E
100
AcDbEntity
  8
001
  6
CONTINUOUS
 62
     7
100
AcDbLine
 10
1099.5
 20
1688.75
 30
0.0
 11
1098.5
 21
1688.75
 31
0.0
  0
LINE
  5
9F
100
AcDbEntity
  8
001
  6
CONTINUOUS
 62
     7
100
AcDbLine
 10
1100.5
 20
1689.75
 30
0.0
 11
1100.5
 21
1691.25
 31
0.0
  0
LINE
  5
A0
100
AcDbEntity
  8
001
  6
CONTINUOUS
 62
     7
100
AcDbLine
 10
1097.5
 20
1689.75
 30
0.0
 11
1097.5
 21
1691.25
 31
0.0
  0
ARC
  5
A1
100
AcDbEntity
  8
001
  6
CONTINUOUS
 62
     7
100
AcDbCircle
 10
1097.0
 20
1691.25
 30
0.0
 40
3.5
100
AcDbArc
 50
0.0
 51
90.0
  0
ARC
  5
A2
100
AcDbEntity
  8
001
  6
CONTINUOUS
 62
     7
100
AcDbCircle
 10
1097.0
 20
1691.25
 30
0.0
 40
0.5
100
AcDbArc
 50
0.0
 51
90.0
  0
ARC
  5
A3
100
AcDbEntity
  8
001
  6
CONTINUOUS
 62
     7
100
AcDbCircle
 10
1098.5
 20
1689.75
 30
0.0
 40
1.0
100
AcDbArc
 50
180.0
 51
270.0
  0
ARC
  5
A4
100
AcDbEntity
  8
001
  6
CONTINUOUS
 62
     7
100
AcDbCircle
 10
1099.5
 20
1689.75
 30
0.0
 40
1.0
100
AcDbArc
 50
270.0
 51
0.0
  0
LINE
  5
A5
100
AcDbEntity
  8
001
  6
CONTINUOUS
 62
     7
100
AcDbLine
 10
1071.5
 20
1668.75
 30
0.0
 11
1071.5
 21
1696.75
 31
0.0
  0
LINE
  5
A6
100
AcDbEntity
  8
001
  6
CONTINUOUS
 62
     7
100
AcDbLine
 10
1076.5
 20
1663.75
 30
0.0
 11
1104.5
 21
1663.75
 31
0.0
  0
LINE
  5
A7
100
AcDbEntity
  8
001
  6
CONTINUOUS
 62
     7
100
AcDbLine
 10
1076.5
 20
1666.75
 30
0.0
 11
1104.5
 21
1666.75
 31
0.0
  0
LINE
  5
A8
100
AcDbEntity
  8
001
  6
CONTINUOUS
 62
     7
100
AcDbLine
 10
1074.5
 20
1668.75
 30
0.0
 11
1074.5
 21
1696.75
 31
0.0
  0
LINE
  5
A9
100
AcDbEntity
  8
001
  6
CONTINUOUS
 62
     7
100
AcDbLine
 10
1106.5
 20
1668.75
 30
0.0
 11
1104.5
 21
1666.75
 31
0.0
  0
LINE
  5
AA
100
AcDbEntity
  8
001
  6
CONTINUOUS
 62
     7
100
AcDbLine
 10
1109.5
 20
1668.75
 30
0.0
 11
1104.5
 21
1663.75
 31
0.0
  0
LINE
  5
AB
100
AcDbEntity
  8
001
  6
CONTINUOUS
 62
     7
100
AcDbLine
 10
1071.5
 20
1696.75
 30
0.0
 11
1076.5
 21
1701.75
 31
0.0
  0
LINE
  5
AC
100
AcDbEntity
  8
001
  6
CONTINUOUS
 62
     7
100
AcDbLine
 10
1074.5
 20
1696.75
 30
0.0
 11
1076.5
 21
1698.75
 31
0.0
  0
LINE
  5
AD
100
AcDbEntity
  8
001
  6
CONTINUOUS
 62
     7
100
AcDbLine
 10
1076.5
 20
1663.75
 30
0.0
 11
1071.5
 21
1668.75
 31
0.0
  0
LINE
  5
AE
100
AcDbEntity
  8
001
  6
CONTINUOUS
 62
     7
100
AcDbLine
 10
1076.5
 20
1666.75
 30
0.0
 11
1074.5
 21
1668.75
 31
0.0
  0
LINE
  5
AF
100
AcDbEntity
  8
001
  6
CONTINUOUS
 62
     7
100
AcDbLine
 10
1104.5
 20
1666.75
 30
0.0
 11
1104.5
 21
1663.75
 31
0.0
  0
LINE
  5
B0
100
AcDbEntity
  8
001
  6
CONTINUOUS
 62
     7
100
AcDbLine
 10
1106.5
 20
1668.75
 30
0.0
 11
1109.5
 21
1668.75
 31
0.0
  0
LINE
  5
B1
100
AcDbEntity
  8
001
  6
CONTINUOUS
 62
     7
100
AcDbLine
 10
1076.5
 20
1698.75
 30
0.0
 11
1076.5
 21
1701.75
 31
0.0
  0
LINE
  5
B2
100
AcDbEntity
  8
001
  6
CONTINUOUS
 62
     7
100
AcDbLine
 10
1074.5
 20
1696.75
 30
0.0
 11
1071.5
 21
1696.75
 31
0.0
  0
LINE
  5
B3
100
AcDbEntity
  8
001
  6
CONTINUOUS
 62
     7
100
AcDbLine
 10
1074.5
 20
1668.75
 30
0.0
 11
1071.5
 21
1668.75
 31
0.0
  0
LINE
  5
B4
100
AcDbEntity
  8
001
  6
CONTINUOUS
 62
     7
100
AcDbLine
 10
1076.5
 20
1666.75
 30
0.0
 11
1076.5
 21
1663.75
 31
0.0
  0
LINE
  5
B5
100
AcDbEntity
  8
001
  6
CONTINUOUS
 62
     7
100
AcDbLine
 10
1083.5
 20
1688.226318
 30
0.0
 11
1083.5
 21
1691.25
 31
0.0
  0
LINE
  5
B6
100
AcDbEntity
  8
001
  6
CONTINUOUS
 62
     7
100
AcDbLine
 10
1080.5
 20
1688.226318
 30
0.0
 11
1080.5
 21
1691.25
 31
0.0
  0
ARC
  5
B7
100
AcDbEntity
  8
001
  6
CONTINUOUS
 62
     7
100
AcDbCircle
 10
1084.0
 20
1691.25
 30
0.0
 40
3.5
100
AcDbArc
 50
90.0
 51
180.0
  0
ARC
  5
B8
100
AcDbEntity
  8
001
  6
CONTINUOUS
 62
     7
100
AcDbCircle
 10
1084.0
 20
1691.25
 30
0.0
 40
0.5
100
AcDbArc
 50
90.0
 51
180.0
  0
ARC
  5
B9
100
AcDbEntity
  8
001
  6
CONTINUOUS
 62
     7
100
AcDbCircle
 10
1084.0
 20
1688.226231
 30
0.0
 40
3.5
100
AcDbArc
 50
179.99857
 51
250.559157
  0
ARC
  5
BA
100
AcDbEntity
  8
001
  6
CONTINUOUS
 62
     7
100
AcDbCircle
 10
1084.0
 20
1688.226266
 30
0.0
 40
0.5
100
AcDbArc
 50
179.993985
 51
250.563395
  0
LINE
  5
BB
100
AcDbEntity
  8
001
  6
CONTINUOUS
 62
     7
100
AcDbLine
 10
1097.166382
 20
1679.867798
 30
0.0
 11
1082.835083
 21
1684.925781
 31
0.0
  0
LINE
  5
BC
100
AcDbEntity
  8
001
  6
CONTINUOUS
 62
     7
100
AcDbLine
 10
1097.0
 20
1670.75
 30
0.0
 11
1084.0
 21
1670.75
 31
0.0
  0
LINE
  5
BD
100
AcDbEntity
  8
001
  6
CONTINUOUS
 62
     7
100
AcDbLine
 10
1097.0
 20
1673.75
 30
0.0
 11
1084.0
 21
1673.75
 31
0.0
  0
LINE
  5
BE
100
AcDbEntity
  8
001
  6
CONTINUOUS
 62
     7
100
AcDbLine
 10
1100.5
 20
1679.39624
 30
0.0
 11
1100.5
 21
1674.25
 31
0.0
  0
LINE
  5
BF
100
AcDbEntity
  8
001
  6
CONTINUOUS
 62
     7
100
AcDbLine
 10
1097.5
 20
1679.39624
 30
0.0
 11
1097.5
 21
1674.25
 31
0.0
  0
ARC
  5
C0
100
AcDbEntity
  8
001
  6
CONTINUOUS
 62
     7
100
AcDbCircle
 10
1097.0
 20
1674.25
 30
0.0
 40
3.5
100
AcDbArc
 50
270.0
 51
0.0
  0
ARC
  5
C1
100
AcDbEntity
  8
001
  6
CONTINUOUS
 62
     7
100
AcDbCircle
 10
1097.0
 20
1674.25
 30
0.0
 40
0.5
100
AcDbArc
 50
270.0
 51
0.0
  0
ARC
  5
C2
100
AcDbEntity
  8
001
  6
CONTINUOUS
 62
     7
100
AcDbCircle
 10
1097.0
 20
1679.396206
 30
0.0
 40
3.5
100
AcDbArc
 50
0.000568
 51
70.559157
  0
ARC
  5
C3
100
AcDbEntity
  8
001
  6
CONTINUOUS
 62
     7
100
AcDbCircle
 10
1097.0
 20
1679.396293
 30
0.0
 40
0.5
100
AcDbArc
 50
359.993985
 51
70.563395
  0
LINE
  5
C4
100
AcDbEntity
  8
001
  6
CONTINUOUS
 62
     7
100
AcDbLine
 10
1083.5
 20
1674.25
 30
0.0
 11
1083.5
 21
1675.75
 31
0.0
  0
LINE
  5
C5
100
AcDbEntity
  8
001
  6
CONTINUOUS
 62
     7
100
AcDbLine
 10
1080.5
 20
1674.25
 30
0.0
 11
1080.5
 21
1675.75
 31
0.0
  0
LINE
  5
C6
100
AcDbEntity
  8
001
  6
CONTINUOUS
 62
     7
100
AcDbLine
 10
1082.5
 20
1676.75
 30
0.0
 11
1081.5
 21
1676.75
 31
0.0
  0
ARC
  5
C7
100
AcDbEntity
  8
001
  6
CONTINUOUS
 62
     7
100
AcDbCircle
 10
1081.5
 20
1675.75
 30
0.0
 40
1.0
100
AcDbArc
 50
90.0
 51
180.0
  0
ARC
  5
C8
100
AcDbEntity
  8
001
  6
CONTINUOUS
 62
     7
100
AcDbCircle
 10
1082.5
 20
1675.75
 30
0.0
 40
1.0
100
AcDbArc
 50
0.0
 51
90.0
  0
ARC
  5
C9
100
AcDbEntity
  8
001
  6
CONTINUOUS
 62
     7
100
AcDbCircle
 10
1084.0
 20
1674.25
 30
0.0
 40
0.5
100
AcDbArc
 50
180.0
 51
270.0
  0
ARC
  5
CA
100
AcDbEntity
  8
001
  6
CONTINUOUS
 62
     7
100
AcDbCircle
 10
1084.0
 20
1674.25
 30
0.0
 40
3.5
100
AcDbArc
 50
180.0
 51
270.0
  0
LINE
  5
CB
100
AcDbEntity
  8
001
  6
CONTINUOUS
 62
     7
100
AcDbLine
 10
1245.0
 20
905.25
 30
0.0
 11
936.0
 21
905.25
 31
0.0
  0
LINE
  5
CC
100
AcDbEntity
  8
001
  6
CONTINUOUS
 62
     7
100
AcDbLine
 10
933.0
 20
902.25
 30
0.0
 11
933.0
 21
886.25
 31
0.0
  0
LINE
  5
CD
100
AcDbEntity
  8
001
  6
CONTINUOUS
 62
     7
100
AcDbLine
 10
1248.0
 20
886.25
 30
0.0
 11
1248.0
 21
902.25
 31
0.0
  0
LINE
  5
CE
100
AcDbEntity
  8
001
  6
CONTINUOUS
 62
     7
100
AcDbLine
 10
936.0
 20
883.25
 30
0.0
 11
1245.0
 21
883.25
 31
0.0
  0
ARC
  5
CF
100
AcDbEntity
  8
001
  6
CONTINUOUS
 62
     7
100
AcDbCircle
 10
1245.0
 20
902.25
 30
0.0
 40
3.0
100
AcDbArc
 50
0.0
 51
90.0
  0
ARC
  5
D0
100
AcDbEntity
  8
001
  6
CONTINUOUS
 62
     7
100
AcDbCircle
 10
1245.0
 20
886.25
 30
0.0
 40
3.0
100
AcDbArc
 50
270.0
 51
0.0
  0
ARC
  5
D1
100
AcDbEntity
  8
001
  6
CONTINUOUS
 62
     7
100
AcDbCircle
 10
936.0
 20
886.25
 30
0.0
 40
3.0
100
AcDbArc
 50
180.0
 51
270.0
  0
ARC
  5
D2
100
AcDbEntity
  8
001
  6
CONTINUOUS
 62
     7
100
AcDbCircle
 10
936.0
 20
902.25
 30
0.0
 40
3.0
100
AcDbArc
 50
90.0
 51
180.0
  0
LINE
  5
D3
100
AcDbEntity
  8
001
  6
CONTINUOUS
 62
     7
100
AcDbLine
 10
1000.450928
 20
855.25
 30
0.0
 11
1180.549072
 21
855.25
 31
0.0
  0
LINE
  5
D4
100
AcDbEntity
  8
001
  6
CONTINUOUS
 62
     7
100
AcDbLine
 10
985.0
 20
874.5
 30
0.0
 11
990.115234
 21
856.59668
 31
0.0
  0
LINE
  5
D5
100
AcDbEntity
  8
001
  6
CONTINUOUS
 62
     7
100
AcDbLine
 10
1196.0
 20
874.5
 30
0.0
 11
1190.884766
 21
856.59668
 31
0.0
  0
ARC
  5
D6
100
AcDbEntity
  8
001
  6
CONTINUOUS
 62
     7
100
AcDbCircle
 10
980.5
 20
853.849451
 30
0.0
 40
10.0
100
AcDbArc
 50
0.0
 51
15.945502
  0
ARC
  5
D7
100
AcDbEntity
  8
001
  6
CONTINUOUS
 62
     7
100
AcDbCircle
 10
1200.5
 20
853.849451
 30
0.0
 40
10.0
100
AcDbArc
 50
164.054498
 51
180.000139
  0
LINE
  5
D8
100
AcDbEntity
  8
001
  6
CONTINUOUS
 62
     7
100
AcDbLine
 10
945.5
 20
773.848328
 30
0.0
 11
945.5
 21
766.651672
 31
0.0
  0
LINE
  5
D9
100
AcDbEntity
  8
001
  6
CONTINUOUS
 62
     7
100
AcDbLine
 10
1235.5
 20
766.651672
 30
0.0
 11
1235.5
 21
773.848328
 31
0.0
  0
LINE
  5
DA
100
AcDbEntity
  8
001
  6
CONTINUOUS
 62
     7
100
AcDbLine
 10
948.5
 20
763.75
 30
0.0
 11
1232.5
 21
763.75
 31
0.0
  0
LINE
  5
DB
100
AcDbEntity
  8
001
  6
CONTINUOUS
 62
     7
100
AcDbLine
 10
948.5
 20
776.75
 30
0.0
 11
1232.5
 21
776.75
 31
0.0
  0
LINE
  5
DC
100
AcDbEntity
  8
001
  6
CONTINUOUS
 62
     7
100
AcDbLine
 10
1190.5
 20
762.25
 30
0.0
 11
990.5
 21
762.25
 31
0.0
  0
LINE
  5
DD
100
AcDbEntity
  8
001
  6
CONTINUOUS
 62
     7
100
AcDbLine
 10
1190.5
 20
778.25
 30
0.0
 11
990.5
 21
778.25
 31
0.0
  0
LINE
  5
DE
100
AcDbEntity
  8
001
  6
CONTINUOUS
 62
     7
100
AcDbLine
 10
1200.16687
 20
777.927795
 30
0.0
 11
1232.599976
 21
776.84668
 31
0.0
  0
LINE
  5
DF
100
AcDbEntity
  8
001
  6
CONTINUOUS
 62
     7
100
AcDbLine
 10
1232.599976
 20
763.65332
 30
0.0
 11
1200.16687
 21
762.572205
 31
0.0
  0
LINE
  5
E0
100
AcDbEntity
  8
001
  6
CONTINUOUS
 62
     7
100
AcDbLine
 10
980.83313
 20
777.927795
 30
0.0
 11
948.400085
 21
776.84668
 31
0.0
  0
LINE
  5
E1
100
AcDbEntity
  8
001
  6
CONTINUOUS
 62
     7
100
AcDbLine
 10
948.400085
 20
763.65332
 30
0.0
 11
980.83313
 21
762.572205
 31
0.0
  0
ARC
  5
E2
100
AcDbEntity
  8
001
  6
CONTINUOUS
 62
     7
100
AcDbCircle
 10
1232.5
 20
773.848346
 30
0.0
 40
3.0
100
AcDbArc
 50
0.0
 51
88.090253
  0
ARC
  5
E3
100
AcDbEntity
  8
001
  6
CONTINUOUS
 62
     7
100
AcDbCircle
 10
1232.5
 20
766.651654
 30
0.0
 40
3.0
100
AcDbArc
 50
271.909747
 51
0.000351
  0
ARC
  5
E4
100
AcDbEntity
  8
001
  6
CONTINUOUS
 62
     7
100
AcDbCircle
 10
948.5
 20
766.651656
 30
0.0
 40
3.0
100
AcDbArc
 50
179.999688
 51
268.09142
  0
ARC
  5
E5
100
AcDbEntity
  8
001
  6
CONTINUOUS
 62
     7
100
AcDbCircle
 10
948.5
 20
773.848344
 30
0.0
 40
3.0
100
AcDbArc
 50
91.90858
 51
180.000312
  0
LINE
  5
E6
100
AcDbEntity
  8
001
  6
CONTINUOUS
 62
     7
100
AcDbLine
 10
1190.5
 20
787.922241
 30
0.0
 11
1190.5
 21
853.849426
 31
0.0
  0
ARC
  5
E7
100
AcDbEntity
  8
001
  6
CONTINUOUS
 62
     7
100
AcDbCircle
 10
1200.5
 20
787.922245
 30
0.0
 40
10.0
100
AcDbArc
 50
180.000022
 51
268.090953
  0
LINE
  5
E8
100
AcDbEntity
  8
001
  6
CONTINUOUS
 62
     7
100
AcDbLine
 10
990.5
 20
787.922241
 30
0.0
 11
990.5
 21
853.849426
 31
0.0
  0
ARC
  5
E9
100
AcDbEntity
  8
001
  6
CONTINUOUS
 62
     7
100
AcDbCircle
 10
980.5
 20
787.922245
 30
0.0
 40
10.0
100
AcDbArc
 50
271.909047
 51
0.0
  0
LINE
  5
EA
100
AcDbEntity
  8
001
  6
CONTINUOUS
 62
     7
100
AcDbLine
 10
2262.5
 20
905.25
 30
0.0
 11
1763.5
 21
905.25
 31
0.0
  0
LINE
  5
EB
100
AcDbEntity
  8
001
  6
CONTINUOUS
 62
     7
100
AcDbLine
 10
2262.5
 20
883.25
 30
0.0
 11
1763.5
 21
883.25
 31
0.0
  0
LINE
  5
EC
100
AcDbEntity
  8
001
  6
CONTINUOUS
 62
     7
100
AcDbLine
 10
2198.049072
 20
855.25
 30
0.0
 11
1827.950928
 21
855.25
 31
0.0
  0
LINE
  5
ED
100
AcDbEntity
  8
001
  6
CONTINUOUS
 62
     7
100
AcDbLine
 10
1760.5
 20
902.25
 30
0.0
 11
1760.5
 21
886.25
 31
0.0
  0
LINE
  5
EE
100
AcDbEntity
  8
001
  6
CONTINUOUS
 62
     7
100
AcDbLine
 10
2265.5
 20
886.25
 30
0.0
 11
2265.5
 21
902.25
 31
0.0
  0
ARC
  5
EF
100
AcDbEntity
  8
001
  6
CONTINUOUS
 62
     7
100
AcDbCircle
 10
1763.5
 20
886.25
 30
0.0
 40
3.0
100
AcDbArc
 50
180.0
 51
270.0
  0
ARC
  5
F0
100
AcDbEntity
  8
001
  6
CONTINUOUS
 62
     7
100
AcDbCircle
 10
1763.5
 20
902.25
 30
0.0
 40
3.0
100
AcDbArc
 50
90.0
 51
180.0
  0
ARC
  5
F1
100
AcDbEntity
  8
001
  6
CONTINUOUS
 62
     7
100
AcDbCircle
 10
2262.5
 20
902.25
 30
0.0
 40
3.0
100
AcDbArc
 50
0.0
 51
90.0
  0
ARC
  5
F2
100
AcDbEntity
  8
001
  6
CONTINUOUS
 62
     7
100
AcDbCircle
 10
2262.5
 20
886.25
 30
0.0
 40
3.0
100
AcDbArc
 50
270.0
 51
0.0
  0
LINE
  5
F3
100
AcDbEntity
  8
001
  6
CONTINUOUS
 62
     7
100
AcDbLine
 10
1812.072266
 20
875.997192
 30
0.0
 11
1817.615234
 21
856.59668
 31
0.0
  0
LINE
  5
F4
100
AcDbEntity
  8
001
  6
CONTINUOUS
 62
     7
100
AcDbLine
 10
2213.927734
 20
875.997192
 30
0.0
 11
2208.384766
 21
856.59668
 31
0.0
  0
ARC
  5
F5
100
AcDbEntity
  8
001
  6
CONTINUOUS
 62
     7
100
AcDbCircle
 10
1808.0
 20
853.849451
 30
0.0
 40
10.0
100
AcDbArc
 50
0.0
 51
15.945502
  0
ARC
  5
F6
100
AcDbEntity
  8
001
  6
CONTINUOUS
 62
     7
100
AcDbCircle
 10
2218.0
 20
853.849451
 30
0.0
 40
10.0
100
AcDbArc
 50
164.054498
 51
180.000139
  0
ARC
  5
F7
100
AcDbEntity
  8
001
  6
CONTINUOUS
 62
     7
100
AcDbCircle
 10
1802.457032
 20
873.249962
 30
0.0
 40
10.0
100
AcDbArc
 50
15.94551
 51
66.152929
  0
ARC
  5
F8
100
AcDbEntity
  8
001
  6
CONTINUOUS
 62
     7
100
AcDbCircle
 10
2223.542968
 20
873.249962
 30
0.0
 40
10.0
100
AcDbArc
 50
113.847071
 51
164.05449
  0
LINE
  5
F9
100
AcDbEntity
  8
001
  6
CONTINUOUS
 62
     7
100
AcDbLine
 10
1056.602051
 20
520.845886
 30
0.0
 11
1124.397949
 21
520.845886
 31
0.0
  0
LINE
  5
FA
100
AcDbEntity
  8
001
  6
CONTINUOUS
 62
     7
100
AcDbLine
 10
1190.737061
 20
754.742188
 30
0.0
 11
1124.5
 21
455.966187
 31
0.0
  0
LINE
  5
FB
100
AcDbEntity
  8
001
  6
CONTINUOUS
 62
     7
100
AcDbLine
 10
1124.5
 20
437.405823
 30
0.0
 11
1124.5
 21
455.966187
 31
0.0
  0
ARC
  5
FC
100
AcDbEntity
  8
001
  6
CONTINUOUS
 62
     7
100
AcDbCircle
 10
1130.5
 20
437.405823
 30
0.0
 40
6.0
100
AcDbArc
 50
180.0
 51
270.0
  0
ARC
  5
FD
100
AcDbEntity
  8
001
  6
CONTINUOUS
 62
     7
100
AcDbCircle
 10
1124.398025
 20
509.220044
 30
0.0
 40
11.625842
100
AcDbArc
 50
347.500073
 51
90.000371
  0
LINE
  5
FE
100
AcDbEntity
  8
001
  6
CONTINUOUS
 62
     7
100
AcDbLine
 10
990.262939
 20
754.742188
 30
0.0
 11
1056.5
 21
455.966187
 31
0.0
  0
LINE
  5
FF
100
AcDbEntity
  8
001
  6
CONTINUOUS
 62
     7
100
AcDbLine
 10
1056.5
 20
437.405823
 30
0.0
 11
1056.5
 21
455.966187
 31
0.0
  0
ARC
  5
100
100
AcDbEntity
  8
001
  6
CONTINUOUS
 62
     7
100
AcDbCircle
 10
1050.5
 20
437.405823
 30
0.0
 40
6.0
100
AcDbArc
 50
270.0
 51
0.0
  0
ARC
  5
101
100
AcDbEntity
  8
001
  6
CONTINUOUS
 62
     7
100
AcDbCircle
 10
1056.601977
 20
509.220043
 30
0.0
 40
11.625843
100
AcDbArc
 50
89.999634
 51
192.499921
  0
ARC
  5
102
100
AcDbEntity
  8
001
  6
CONTINUOUS
 62
     7
100
AcDbCircle
 10
1200.500013
 20
752.577755
 30
0.0
 40
10.0
100
AcDbArc
 50
91.909119
 51
167.499789
  0
ARC
  5
103
100
AcDbEntity
  8
001
  6
CONTINUOUS
 62
     7
100
AcDbCircle
 10
980.499987
 20
752.577755
 30
0.0
 40
10.0
100
AcDbArc
 50
12.500211
 51
88.090881
  0
LINE
  5
104
100
AcDbEntity
  8
001
  6
CONTINUOUS
 62
     7
100
AcDbLine
 10
1773.0
 20
773.848328
 30
0.0
 11
1773.0
 21
766.651672
 31
0.0
  0
LINE
  5
105
100
AcDbEntity
  8
001
  6
CONTINUOUS
 62
     7
100
AcDbLine
 10
2253.0
 20
773.848328
 30
0.0
 11
2253.0
 21
766.651672
 31
0.0
  0
LINE
  5
106
100
AcDbEntity
  8
001
  6
CONTINUOUS
 62
     7
100
AcDbLine
 10
2208.0
 20
778.25
 30
0.0
 11
1818.0
 21
778.25
 31
0.0
  0
LINE
  5
107
100
AcDbEntity
  8
001
  6
CONTINUOUS
 62
     7
100
AcDbLine
 10
1808.33313
 20
777.927795
 30
0.0
 11
1775.900024
 21
776.84668
 31
0.0
  0
LINE
  5
108
100
AcDbEntity
  8
001
  6
CONTINUOUS
 62
     7
100
AcDbLine
 10
1808.33313
 20
762.572205
 30
0.0
 11
1775.900024
 21
763.65332
 31
0.0
  0
LINE
  5
109
100
AcDbEntity
  8
001
  6
CONTINUOUS
 62
     7
100
AcDbLine
 10
2217.666748
 20
777.927795
 30
0.0
 11
2250.099854
 21
776.84668
 31
0.0
  0
LINE
  5
10A
100
AcDbEntity
  8
001
  6
CONTINUOUS
 62
     7
100
AcDbLine
 10
2217.666748
 20
762.572205
 30
0.0
 11
2250.099854
 21
763.65332
 31
0.0
  0
ARC
  5
10B
100
AcDbEntity
  8
001
  6
CONTINUOUS
 62
     7
100
AcDbCircle
 10
2250.0
 20
766.651658
 30
0.0
 40
3.0
100
AcDbArc
 50
271.907414
 51
0.000273
  0
ARC
  5
10C
100
AcDbEntity
  8
001
  6
CONTINUOUS
 62
     7
100
AcDbCircle
 10
2250.0
 20
773.848342
 30
0.0
 40
3.0
100
AcDbArc
 50
0.0
 51
88.092586
  0
ARC
  5
10D
100
AcDbEntity
  8
001
  6
CONTINUOUS
 62
     7
100
AcDbCircle
 10
1776.0
 20
766.651654
 30
0.0
 40
3.0
100
AcDbArc
 50
179.999649
 51
268.090253
  0
ARC
  5
10E
100
AcDbEntity
  8
001
  6
CONTINUOUS
 62
     7
100
AcDbCircle
 10
1776.0
 20
773.848346
 30
0.0
 40
3.0
100
AcDbArc
 50
91.909747
 51
180.000351
  0
LINE
  5
10F
100
AcDbEntity
  8
001
  6
CONTINUOUS
 62
     7
100
AcDbLine
 10
1818.0
 20
752.577759
 30
0.0
 11
1818.0
 21
652.400574
 31
0.0
  0
LINE
  5
110
100
AcDbEntity
  8
001
  6
CONTINUOUS
 62
     7
100
AcDbLine
 10
1818.0
 20
787.922241
 30
0.0
 11
1818.0
 21
853.849426
 31
0.0
  0
LINE
  5
111
100
AcDbEntity
  8
001
  6
CONTINUOUS
 62
     7
100
AcDbLine
 10
2208.0
 20
787.922241
 30
0.0
 11
2208.0
 21
853.849426
 31
0.0
  0
LINE
  5
112
100
AcDbEntity
  8
001
  6
CONTINUOUS
 62
     7
100
AcDbLine
 10
2208.0
 20
752.577759
 30
0.0
 11
2208.0
 21
652.400574
 31
0.0
  0
ARC
  5
113
100
AcDbEntity
  8
001
  6
CONTINUOUS
 62
     7
100
AcDbCircle
 10
2218.0
 20
787.922241
 30
0.0
 40
10.0
100
AcDbArc
 50
179.999999
 51
268.090253
  0
ARC
  5
114
100
AcDbEntity
  8
001
  6
CONTINUOUS
 62
     7
100
AcDbCircle
 10
2218.0
 20
752.577759
 30
0.0
 40
10.0
100
AcDbArc
 50
91.909747
 51
180.000001
  0
ARC
  5
115
100
AcDbEntity
  8
001
  6
CONTINUOUS
 62
     7
100
AcDbCircle
 10
1808.0
 20
787.922245
 30
0.0
 40
10.0
100
AcDbArc
 50
271.909047
 51
0.0
  0
ARC
  5
116
100
AcDbEntity
  8
001
  6
CONTINUOUS
 62
     7
100
AcDbCircle
 10
1808.0
 20
752.577755
 30
0.0
 40
10.0
100
AcDbArc
 50
0.000022
 51
88.090953
  0
LINE
  5
117
100
AcDbEntity
  8
001
  6
CONTINUOUS
 62
     7
100
AcDbLine
 10
2262.5
 20
924.25
 30
0.0
 11
1763.5
 21
924.25
 31
0.0
  0
LINE
  5
118
100
AcDbEntity
  8
001
  6
CONTINUOUS
 62
     7
100
AcDbLine
 10
1760.5
 20
921.25
 30
0.0
 11
1760.5
 21
908.25
 31
0.0
  0
LINE
  5
119
100
AcDbEntity
  8
001
  6
CONTINUOUS
 62
     7
100
AcDbLine
 10
2265.5
 20
921.25
 30
0.0
 11
2265.5
 21
908.25
 31
0.0
  0
ARC
  5
11A
100
AcDbEntity
  8
001
  6
CONTINUOUS
 62
     7
100
AcDbCircle
 10
1763.5
 20
908.25
 30
0.0
 40
3.0
100
AcDbArc
 50
180.0
 51
270.0
  0
ARC
  5
11B
100
AcDbEntity
  8
001
  6
CONTINUOUS
 62
     7
100
AcDbCircle
 10
1763.5
 20
921.25
 30
0.0
 40
3.0
100
AcDbArc
 50
90.0
 51
180.0
  0
ARC
  5
11C
100
AcDbEntity
  8
001
  6
CONTINUOUS
 62
     7
100
AcDbCircle
 10
2262.5
 20
908.25
 30
0.0
 40
3.0
100
AcDbArc
 50
270.0
 51
0.0
  0
ARC
  5
11D
100
AcDbEntity
  8
001
  6
CONTINUOUS
 62
     7
100
AcDbCircle
 10
2262.5
 20
921.25
 30
0.0
 40
3.0
100
AcDbArc
 50
0.0
 51
90.0
  0
LINE
  5
11E
100
AcDbEntity
  8
001
  6
CONTINUOUS
 62
     7
100
AcDbLine
 10
1816.658447
 20
932.210449
 30
0.0
 11
1820.0
 21
948.25
 31
0.0
  0
LINE
  5
11F
100
AcDbEntity
  8
001
  6
CONTINUOUS
 62
     7
100
AcDbLine
 10
2209.341553
 20
932.210449
 30
0.0
 11
2206.0
 21
948.25
 31
0.0
  0
ARC
  5
120
100
AcDbEntity
  8
001
  6
CONTINUOUS
 62
     7
100
AcDbCircle
 10
2219.131355
 20
934.25
 30
0.0
 40
10.0
100
AcDbArc
 50
191.768337
 51
269.999957
  0
ARC
  5
121
100
AcDbEntity
  8
001
  6
CONTINUOUS
 62
     7
100
AcDbCircle
 10
1806.868645
 20
934.25
 30
0.0
 40
10.0
100
AcDbArc
 50
270.000043
 51
348.231663
  0
LINE
  5
122
100
AcDbEntity
  8
001
  6
CONTINUOUS
 62
     7
100
AcDbLine
 10
2063.279785
 20
1068.25
 30
0.0
 11
1962.720215
 21
1068.25
 31
0.0
  0
ARC
  5
123
100
AcDbEntity
  8
001
  6
CONTINUOUS
 62
     7
100
AcDbCircle
 10
1858.0
 20
972.530253
 30
0.0
 40
38.0
100
AcDbArc
 50
118.862821
 51
180.000061
  0
LINE
  5
124
100
AcDbEntity
  8
001
  6
CONTINUOUS
 62
     7
100
AcDbLine
 10
1820.0
 20
972.530212
 30
0.0
 11
1820.0
 21
948.25
 31
0.0
  0
LINE
  5
125
100
AcDbEntity
  8
001
  6
CONTINUOUS
 62
     7
100
AcDbLine
 10
1944.377075
 20
1063.529541
 30
0.0
 11
1839.65686
 21
1005.809814
 31
0.0
  0
ARC
  5
126
100
AcDbEntity
  8
001
  6
CONTINUOUS
 62
     7
100
AcDbCircle
 10
1962.720252
 20
1030.25
 30
0.0
 40
38.0
100
AcDbArc
 50
90.000057
 51
118.862886
  0
LINE
  5
127
100
AcDbEntity
  8
001
  6
CONTINUOUS
 62
     7
100
AcDbLine
 10
2206.0
 20
972.530212
 30
0.0
 11
2206.0
 21
948.25
 31
0.0
  0
ARC
  5
128
100
AcDbEntity
  8
001
  6
CONTINUOUS
 62
     7
100
AcDbCircle
 10
2168.0
 20
972.530185
 30
0.0
 40
38.0
100
AcDbArc
 50
0.000041
 51
61.137389
  0
LINE
  5
129
100
AcDbEntity
  8
001
  6
CONTINUOUS
 62
     7
100
AcDbLine
 10
2081.622803
 20
1063.529541
 30
0.0
 11
2186.343018
 21
1005.809814
 31
0.0
  0
ARC
  5
12A
100
AcDbEntity
  8
001
  6
CONTINUOUS
 62
     7
100
AcDbCircle
 10
2063.279626
 20
1030.25
 30
0.0
 40
38.0
100
AcDbArc
 50
61.137114
 51
89.999759
  0
LINE
  5
12B
100
AcDbEntity
  8
001
  6
CONTINUOUS
 62
     7
100
AcDbLine
 10
2148.711182
 20
1058.223999
 30
0.0
 11
2141.623779
 21
1077.696289
 31
0.0
  0
LINE
  5
12C
100
AcDbEntity
  8
001
  6
CONTINUOUS
 62
     7
100
AcDbLine
 10
2149.854004
 20
1093.093628
 30
0.0
 11
2161.798584
 21
1060.276001
 31
0.0
  0
LINE
  5
12D
100
AcDbEntity
  8
001
  6
CONTINUOUS
 62
     7
100
AcDbLine
 10
2151.530273
 20
1056.25
 30
0.0
 11
2158.979492
 21
1056.25
 31
0.0
  0
ARC
  5
12E
100
AcDbEntity
  8
001
  6
CONTINUOUS
 62
     7
100
AcDbCircle
 10
2158.979484
 20
1059.25
 30
0.0
 40
3.0
100
AcDbArc
 50
270.000147
 51
19.998792
  0
ARC
  5
12F
100
AcDbEntity
  8
001
  6
CONTINUOUS
 62
     7
100
AcDbCircle
 10
2151.530281
 20
1059.25
 30
0.0
 40
3.0
100
AcDbArc
 50
199.998792
 51
269.999853
  0
ARC
  5
130
100
AcDbEntity
  8
001
  6
CONTINUOUS
 62
     7
100
AcDbCircle
 10
2129.395671
 20
1073.283425
 30
0.0
 40
13.0
100
AcDbArc
 50
19.843432
 51
200.156979
  0
ARC
  5
131
100
AcDbEntity
  8
001
  6
CONTINUOUS
 62
     7
100
AcDbCircle
 10
1051.345104
 20
1530.012074
 30
0.0
 40
97.5
100
AcDbArc
 50
195.542978
 51
263.387038
  0
ARC
  5
132
100
AcDbEntity
  8
001
  6
CONTINUOUS
 62
     7
100
AcDbCircle
 10
1090.5
 20
1867.749981
 30
0.0
 40
437.5
100
AcDbArc
 50
263.387057
 51
276.612943
  0
ARC
  5
133
100
AcDbEntity
  8
001
  6
CONTINUOUS
 62
     7
100
AcDbCircle
 10
1129.654959
 20
1530.012081
 30
0.0
 40
97.5
100
AcDbArc
 50
276.612924
 51
344.457018
  0
ARC
  5
134
100
AcDbEntity
  8
001
  6
CONTINUOUS
 62
     7
100
AcDbCircle
 10
580.500037
 20
1682.75
 30
0.0
 40
667.5
100
AcDbArc
 50
344.457015
 51
15.542985
  0
ARC
  5
135
100
AcDbEntity
  8
001
  6
CONTINUOUS
 62
     7
100
AcDbCircle
 10
1129.654959
 20
1835.487919
 30
0.0
 40
97.5
100
AcDbArc
 50
15.542982
 51
83.387076
  0
ARC
  5
136
100
AcDbEntity
  8
001
  6
CONTINUOUS
 62
     7
100
AcDbCircle
 10
1090.5
 20
1497.750019
 30
0.0
 40
437.5
100
AcDbArc
 50
83.387057
 51
96.612943
  0
ARC
  5
137
100
AcDbEntity
  8
001
  6
CONTINUOUS
 62
     7
100
AcDbCircle
 10
1051.345104
 20
1835.487926
 30
0.0
 40
97.5
100
AcDbArc
 50
96.612962
 51
164.457022
  0
ARC
  5
138
100
AcDbEntity
  8
001
  6
CONTINUOUS
 62
     7
100
AcDbCircle
 10
1600.500024
 20
1682.75
 30
0.0
 40
667.5
100
AcDbArc
 50
164.457015
 51
195.542985
  0
LINE
  5
139
100
AcDbEntity
  8
001
  6
CONTINUOUS
 62
     7
100
AcDbLine
 10
1245.0
 20
924.25
 30
0.0
 11
936.0
 21
924.25
 31
0.0
  0
LINE
  5
13A
100
AcDbEntity
  8
001
  6
CONTINUOUS
 62
     7
100
AcDbLine
 10
933.0
 20
921.25
 30
0.0
 11
933.0
 21
908.25
 31
0.0
  0
LINE
  5
13B
100
AcDbEntity
  8
001
  6
CONTINUOUS
 62
     7
100
AcDbLine
 10
1248.0
 20
908.25
 30
0.0
 11
1248.0
 21
921.25
 31
0.0
  0
ARC
  5
13C
100
AcDbEntity
  8
001
  6
CONTINUOUS
 62
     7
100
AcDbCircle
 10
936.0
 20
908.25
 30
0.0
 40
3.0
100
AcDbArc
 50
180.0
 51
270.0
  0
ARC
  5
13D
100
AcDbEntity
  8
001
  6
CONTINUOUS
 62
     7
100
AcDbCircle
 10
936.0
 20
921.25
 30
0.0
 40
3.0
100
AcDbArc
 50
90.0
 51
180.0
  0
ARC
  5
13E
100
AcDbEntity
  8
001
  6
CONTINUOUS
 62
     7
100
AcDbCircle
 10
1245.0
 20
921.25
 30
0.0
 40
3.0
100
AcDbArc
 50
0.0
 51
90.0
  0
ARC
  5
13F
100
AcDbEntity
  8
001
  6
CONTINUOUS
 62
     7
100
AcDbCircle
 10
1245.0
 20
908.25
 30
0.0
 40
3.0
100
AcDbArc
 50
270.0
 51
0.0
  0
LINE
  5
140
100
AcDbEntity
  8
001
  6
CONTINUOUS
 62
     7
100
AcDbLine
 10
989.158447
 20
932.210449
 30
0.0
 11
992.5
 21
948.25
 31
0.0
  0
LINE
  5
141
100
AcDbEntity
  8
001
  6
CONTINUOUS
 62
     7
100
AcDbLine
 10
1191.841553
 20
932.210449
 30
0.0
 11
1188.5
 21
948.25
 31
0.0
  0
ARC
  5
142
100
AcDbEntity
  8
001
  6
CONTINUOUS
 62
     7
100
AcDbCircle
 10
1201.631338
 20
934.250082
 30
0.0
 40
10.0
100
AcDbArc
 50
191.768818
 51
224.427663
  0
ARC
  5
143
100
AcDbEntity
  8
001
  6
CONTINUOUS
 62
     7
100
AcDbCircle
 10
979.368645
 20
934.250003
 30
0.0
 40
10.0
100
AcDbArc
 50
315.572971
 51
348.231645
  0
ARC
  5
144
100
AcDbEntity
  8
001
  6
CONTINUOUS
 62
     7
100
AcDbCircle
 10
1090.5
 20
1497.749974
 30
0.0
 40
383.0
100
AcDbArc
 50
83.387048
 51
96.612952
  0
ARC
  5
145
100
AcDbEntity
  8
001
  6
CONTINUOUS
 62
     7
100
AcDbCircle
 10
1129.654933
 20
1835.487877
 30
0.0
 40
43.0
100
AcDbArc
 50
15.543045
 51
83.386984
  0
ARC
  5
146
100
AcDbEntity
  8
001
  6
CONTINUOUS
 62
     7
100
AcDbCircle
 10
580.499999
 20
1682.75
 30
0.0
 40
613.0
100
AcDbArc
 50
344.457014
 51
15.542986
  0
ARC
  5
147
100
AcDbEntity
  8
001
  6
CONTINUOUS
 62
     7
100
AcDbCircle
 10
1129.654933
 20
1530.012123
 30
0.0
 40
43.0
100
AcDbArc
 50
276.613016
 51
344.456955
  0
ARC
  5
148
100
AcDbEntity
  8
001
  6
CONTINUOUS
 62
     7
100
AcDbCircle
 10
1090.5
 20
1867.750026
 30
0.0
 40
383.0
100
AcDbArc
 50
263.387048
 51
276.612952
  0
ARC
  5
149
100
AcDbEntity
  8
001
  6
CONTINUOUS
 62
     7
100
AcDbCircle
 10
1051.345067
 20
1530.012123
 30
0.0
 40
43.0
100
AcDbArc
 50
195.543045
 51
263.386984
  0
ARC
  5
14A
100
AcDbEntity
  8
001
  6
CONTINUOUS
 62
     7
100
AcDbCircle
 10
1600.500001
 20
1682.75
 30
0.0
 40
613.0
100
AcDbArc
 50
164.457014
 51
195.542986
  0
ARC
  5
14B
100
AcDbEntity
  8
001
  6
CONTINUOUS
 62
     7
100
AcDbCircle
 10
1051.345067
 20
1835.487877
 30
0.0
 40
43.0
100
AcDbArc
 50
96.613016
 51
164.456955
  0
ARC
  5
14C
100
AcDbEntity
  8
001
  6
CONTINUOUS
 62
     7
100
AcDbCircle
 10
1090.5
 20
1867.749981
 30
0.0
 40
378.0
100
AcDbArc
 50
263.387066
 51
276.612934
  0
ARC
  5
14D
100
AcDbEntity
  8
001
  6
CONTINUOUS
 62
     7
100
AcDbCircle
 10
1129.654919
 20
1530.012076
 30
0.0
 40
38.0
100
AcDbArc
 50
276.612864
 51
344.457079
  0
ARC
  5
14E
100
AcDbEntity
  8
001
  6
CONTINUOUS
 62
     7
100
AcDbCircle
 10
580.499999
 20
1682.75
 30
0.0
 40
608.0
100
AcDbArc
 50
344.457018
 51
15.542982
  0
ARC
  5
14F
100
AcDbEntity
  8
001
  6
CONTINUOUS
 62
     7
100
AcDbCircle
 10
1129.654919
 20
1835.487924
 30
0.0
 40
38.0
100
AcDbArc
 50
15.542921
 51
83.387136
  0
ARC
  5
150
100
AcDbEntity
  8
001
  6
CONTINUOUS
 62
     7
100
AcDbCircle
 10
1090.5
 20
1497.750019
 30
0.0
 40
378.0
100
AcDbArc
 50
83.387066
 51
96.612934
  0
ARC
  5
151
100
AcDbEntity
  8
001
  6
CONTINUOUS
 62
     7
100
AcDbCircle
 10
1051.345081
 20
1835.487924
 30
0.0
 40
38.0
100
AcDbArc
 50
96.612864
 51
164.457079
  0
ARC
  5
152
100
AcDbEntity
  8
001
  6
CONTINUOUS
 62
     7
100
AcDbCircle
 10
1600.500001
 20
1682.75
 30
0.0
 40
608.0
100
AcDbArc
 50
164.457018
 51
195.542982
  0
ARC
  5
153
100
AcDbEntity
  8
001
  6
CONTINUOUS
 62
     7
100
AcDbCircle
 10
1051.345081
 20
1530.012076
 30
0.0
 40
38.0
100
AcDbArc
 50
195.542921
 51
263.387136
  0
LINE
  5
154
100
AcDbEntity
  8
001
  6
CONTINUOUS
 62
     7
100
AcDbLine
 10
2105.513184
 20
1107.656616
 30
0.0
 11
2142.619873
 21
1099.436768
 31
0.0
  0
ARC
  5
155
100
AcDbEntity
  8
001
  6
CONTINUOUS
 62
     7
100
AcDbCircle
 10
2140.457067
 20
1089.673455
 30
0.0
 40
10.0
100
AcDbArc
 50
19.999826
 51
77.509333
  0
LINE
  5
156
100
AcDbEntity
  8
001
  6
CONTINUOUS
 62
     7
100
AcDbLine
 10
1877.288818
 20
1058.223999
 30
0.0
 11
1884.376221
 21
1077.696289
 31
0.0
  0
LINE
  5
157
100
AcDbEntity
  8
001
  6
CONTINUOUS
 62
     7
100
AcDbLine
 10
1876.146118
 20
1093.093628
 30
0.0
 11
1864.201416
 21
1060.276001
 31
0.0
  0
LINE
  5
158
100
AcDbEntity
  8
001
  6
CONTINUOUS
 62
     7
100
AcDbLine
 10
1874.469727
 20
1056.25
 30
0.0
 11
1867.020508
 21
1056.25
 31
0.0
  0
ARC
  5
159
100
AcDbEntity
  8
001
  6
CONTINUOUS
 62
     7
100
AcDbCircle
 10
1867.020516
 20
1059.25
 30
0.0
 40
3.0
100
AcDbArc
 50
160.001208
 51
269.999853
  0
ARC
  5
15A
100
AcDbEntity
  8
001
  6
CONTINUOUS
 62
     7
100
AcDbCircle
 10
1874.469719
 20
1059.25
 30
0.0
 40
3.0
100
AcDbArc
 50
270.000147
 51
340.001208
  0
ARC
  5
15B
100
AcDbEntity
  8
001
  6
CONTINUOUS
 62
     7
100
AcDbCircle
 10
1896.592224
 20
1073.25
 30
0.0
 40
13.000009
100
AcDbArc
 50
339.999886
 51
159.999886
  0
LINE
  5
15C
100
AcDbEntity
  8
001
  6
CONTINUOUS
 62
     7
100
AcDbLine
 10
1920.486816
 20
1107.656616
 30
0.0
 11
1883.380249
 21
1099.436768
 31
0.0
  0
ARC
  5
15D
100
AcDbEntity
  8
001
  6
CONTINUOUS
 62
     7
100
AcDbCircle
 10
1885.543055
 20
1089.673455
 30
0.0
 40
10.0
100
AcDbArc
 50
102.490667
 51
160.000174
  0
LINE
  5
15E
100
AcDbEntity
  8
001
  6
CONTINUOUS
 62
     7
100
AcDbLine
 10
992.5
 20
1022.96283
 30
0.0
 11
992.5
 21
948.25
 31
0.0
  0
LINE
  5
15F
100
AcDbEntity
  8
001
  6
CONTINUOUS
 62
     7
100
AcDbLine
 10
1188.5
 20
1022.96283
 30
0.0
 11
1188.5
 21
948.25
 31
0.0
  0
ARC
  5
160
100
AcDbEntity
  8
001
  6
CONTINUOUS
 62
     7
100
AcDbCircle
 10
1024.5
 20
1078.249988
 30
0.0
 40
10.0
100
AcDbArc
 50
272.023818
 51
0.000069
  0
ARC
  5
161
100
AcDbEntity
  8
001
  6
CONTINUOUS
 62
     7
100
AcDbCircle
 10
1156.5
 20
1078.249988
 30
0.0
 40
10.0
100
AcDbArc
 50
179.999931
 51
267.976182
  0
LINE
  5
162
100
AcDbEntity
  8
001
  6
CONTINUOUS
 62
     7
100
AcDbLine
 10
1169.43811
 20
1060.266235
 30
0.0
 11
1186.356445
 21
1030.962769
 31
0.0
  0
LINE
  5
163
100
AcDbEntity
  8
001
  6
CONTINUOUS
 62
     7
100
AcDbLine
 10
1011.561951
 20
1060.266235
 30
0.0
 11
994.643616
 21
1030.962769
 31
0.0
  0
ARC
  5
164
100
AcDbEntity
  8
001
  6
CONTINUOUS
 62
     7
100
AcDbCircle
 10
1008.5
 20
1022.96273
 30
0.0
 40
16.0
100
AcDbArc
 50
149.999841
 51
179.999644
  0
ARC
  5
165
100
AcDbEntity
  8
001
  6
CONTINUOUS
 62
     7
100
AcDbCircle
 10
1172.5
 20
1022.962836
 30
0.0
 40
16.0
100
AcDbArc
 50
0.0
 51
29.999722
  0
ARC
  5
166
100
AcDbEntity
  8
001
  6
CONTINUOUS
 62
     7
100
AcDbCircle
 10
1155.581719
 20
1052.266209
 30
0.0
 40
16.0
100
AcDbArc
 50
30.000108
 51
87.975851
  0
ARC
  5
167
100
AcDbEntity
  8
001
  6
CONTINUOUS
 62
     7
100
AcDbCircle
 10
1025.418343
 20
1052.266211
 30
0.0
 40
16.0
100
AcDbArc
 50
92.024373
 51
149.999901
  0
ARC
  5
168
100
AcDbEntity
  8
001
  6
CONTINUOUS
 62
     7
100
AcDbCircle
 10
1991.813232
 20
1071.25
 30
0.0
 40
3.0
100
AcDbArc
 50
180.0
 51
270.0
  0
ARC
  5
169
100
AcDbEntity
  8
001
  6
CONTINUOUS
 62
     7
100
AcDbCircle
 10
2034.186768
 20
1071.25
 30
0.0
 40
3.0
100
AcDbArc
 50
270.0
 51
0.0
  0
ARC
  5
16A
100
AcDbEntity
  8
001
  6
CONTINUOUS
 62
     7
100
AcDbCircle
 10
1882.876195
 20
1050.184595
 30
0.0
 40
18.0
100
AcDbArc
 50
298.862425
 51
339.999884
  0
ARC
  5
16B
100
AcDbEntity
  8
001
  6
CONTINUOUS
 62
     7
100
AcDbCircle
 10
2143.123958
 20
1050.184511
 30
0.0
 40
18.0
100
AcDbArc
 50
199.999831
 51
241.13702
  0
ARC
  5
16C
100
AcDbEntity
  8
001
  6
CONTINUOUS
 62
     7
100
AcDbCircle
 10
1039.5
 20
1039.420532
 30
0.0
 40
5.0
100
AcDbArc
 50
270.0
 51
0.0
  0
ARC
  5
16D
100
AcDbEntity
  8
001
  6
CONTINUOUS
 62
     7
100
AcDbCircle
 10
1141.5
 20
1039.420532
 30
0.0
 40
5.0
100
AcDbArc
 50
180.0
 51
270.0
  0
LINE
  5
16E
100
AcDbEntity
  8
001
  6
CONTINUOUS
 62
     7
100
AcDbLine
 10
1136.5
 20
1034.420532
 30
0.0
 11
1044.5
 21
1034.420532
 31
0.0
  0
LINE
  5
16F
100
AcDbEntity
  8
001
  6
CONTINUOUS
 62
     7
100
AcDbLine
 10
1098.92627
 20
1056.25
 30
0.0
 11
1082.07373
 21
1056.25
 31
0.0
  0
LINE
  5
170
100
AcDbEntity
  8
001
  6
CONTINUOUS
 62
     7
100
AcDbLine
 10
1072.407837
 20
1102.348755
 30
0.0
 11
1079.108643
 21
1058.793823
 31
0.0
  0
LINE
  5
171
100
AcDbEntity
  8
001
  6
CONTINUOUS
 62
     7
100
AcDbLine
 10
1108.592163
 20
1102.348755
 30
0.0
 11
1101.891357
 21
1058.793823
 31
0.0
  0
ARC
  5
172
100
AcDbEntity
  8
001
  6
CONTINUOUS
 62
     7
100
AcDbCircle
 10
1082.073757
 20
1059.25
 30
0.0
 40
3.0
100
AcDbArc
 50
188.746263
 51
269.999496
  0
ARC
  5
173
100
AcDbEntity
  8
001
  6
CONTINUOUS
 62
     7
100
AcDbCircle
 10
1098.926243
 20
1059.25
 30
0.0
 40
3.0
100
AcDbArc
 50
270.000504
 51
351.253737
  0
ARC
  5
174
100
AcDbEntity
  8
001
  6
CONTINUOUS
 62
     7
100
AcDbCircle
 10
1062.524121
 20
1100.828175
 30
0.0
 40
10.0
100
AcDbArc
 50
8.746211
 51
70.421376
  0
ARC
  5
175
100
AcDbEntity
  8
001
  6
CONTINUOUS
 62
     7
100
AcDbCircle
 10
1118.475879
 20
1100.828175
 30
0.0
 40
10.0
100
AcDbArc
 50
109.578624
 51
171.253789
  0
LINE
  5
176
100
AcDbEntity
  8
001
  6
CONTINUOUS
 62
     7
100
AcDbLine
 10
1104.92627
 20
1098.25
 30
0.0
 11
1076.07373
 21
1098.25
 31
0.0
  0
ARC
  5
177
100
AcDbEntity
  8
001
  6
CONTINUOUS
 62
     7
100
AcDbCircle
 10
2106.594575
 20
1112.538275
 30
0.0
 40
5.0
100
AcDbArc
 50
207.235892
 51
257.509467
  0
ARC
  5
178
100
AcDbEntity
  8
001
  6
CONTINUOUS
 62
     7
100
AcDbCircle
 10
1919.405425
 20
1112.538275
 30
0.0
 40
5.0
100
AcDbArc
 50
282.490533
 51
332.764108
  0
LINE
  5
179
100
AcDbEntity
  8
001
  6
CONTINUOUS
 62
     7
100
AcDbLine
 10
2105.834473
 20
1110.25
 30
0.0
 11
1920.165405
 21
1110.25
 31
0.0
  0
LINE
  5
17A
100
AcDbEntity
  8
001
  6
CONTINUOUS
 62
     7
100
AcDbLine
 10
1937.042114
 20
1156.618042
 30
0.0
 11
1920.165405
 21
1110.25
 31
0.0
  0
LINE
  5
17B
100
AcDbEntity
  8
001
  6
CONTINUOUS
 62
     7
100
AcDbLine
 10
2066.323975
 20
1145.25
 30
0.0
 11
1959.675903
 21
1145.25
 31
0.0
  0
LINE
  5
17C
100
AcDbEntity
  8
001
  6
CONTINUOUS
 62
     7
100
AcDbLine
 10
1976.235107
 20
1147.25
 30
0.0
 11
1976.235107
 21
1155.25
 31
0.0
  0
LINE
  5
17D
100
AcDbEntity
  8
001
  6
CONTINUOUS
 62
     7
100
AcDbLine
 10
1940.800781
 20
1159.25
 30
0.0
 11
1972.235107
 21
1159.25
 31
0.0
  0
ARC
  5
17E
100
AcDbEntity
  8
001
  6
CONTINUOUS
 62
     7
100
AcDbCircle
 10
1972.235107
 20
1155.25
 30
0.0
 40
4.0
100
AcDbArc
 50
0.0
 51
90.0
  0
ARC
  5
17F
100
AcDbEntity
  8
001
  6
CONTINUOUS
 62
     7
100
AcDbCircle
 10
1978.235107
 20
1147.25
 30
0.0
 40
2.0
100
AcDbArc
 50
180.0
 51
270.0
  0
LINE
  5
180
100
AcDbEntity
  8
001
  6
CONTINUOUS
 62
     7
100
AcDbLine
 10
1957.675903
 20
1147.25
 30
0.0
 11
1957.675903
 21
1155.25
 31
0.0
  0
ARC
  5
181
100
AcDbEntity
  8
001
  6
CONTINUOUS
 62
     7
100
AcDbCircle
 10
1953.675903
 20
1155.25
 30
0.0
 40
4.0
100
AcDbArc
 50
0.0
 51
90.0
  0
ARC
  5
182
100
AcDbEntity
  8
001
  6
CONTINUOUS
 62
     7
100
AcDbCircle
 10
1959.675903
 20
1147.25
 30
0.0
 40
2.0
100
AcDbArc
 50
180.0
 51
270.0
  0
LINE
  5
183
100
AcDbEntity
  8
001
  6
CONTINUOUS
 62
     7
100
AcDbLine
 10
1972.012207
 20
1111.75
 30
0.0
 11
1972.012207
 21
1143.75
 31
0.0
  0
LINE
  5
184
100
AcDbEntity
  8
001
  6
CONTINUOUS
 62
     7
100
AcDbLine
 10
1955.33728
 20
1154.441895
 30
0.0
 11
1933.841919
 21
1110.25
 31
0.0
  0
ARC
  5
185
100
AcDbEntity
  8
001
  6
CONTINUOUS
 62
     7
100
AcDbCircle
 10
1940.800899
 20
1155.25
 30
0.0
 40
4.0
100
AcDbArc
 50
90.001684
 51
160.000588
  0
LINE
  5
186
100
AcDbEntity
  8
001
  6
CONTINUOUS
 62
     7
100
AcDbLine
 10
2088.958008
 20
1156.618042
 30
0.0
 11
2105.834473
 21
1110.25
 31
0.0
  0
LINE
  5
187
100
AcDbEntity
  8
001
  6
CONTINUOUS
 62
     7
100
AcDbLine
 10
2085.199219
 20
1159.25
 30
0.0
 11
2053.764893
 21
1159.25
 31
0.0
  0
LINE
  5
188
100
AcDbEntity
  8
001
  6
CONTINUOUS
 62
     7
100
AcDbLine
 10
2049.764893
 20
1147.25
 30
0.0
 11
2049.764893
 21
1155.25
 31
0.0
  0
ARC
  5
189
100
AcDbEntity
  8
001
  6
CONTINUOUS
 62
     7
100
AcDbCircle
 10
2053.764893
 20
1155.25
 30
0.0
 40
4.0
100
AcDbArc
 50
90.0
 51
180.0
  0
ARC
  5
18A
100
AcDbEntity
  8
001
  6
CONTINUOUS
 62
     7
100
AcDbCircle
 10
2047.764893
 20
1147.25
 30
0.0
 40
2.0
100
AcDbArc
 50
270.0
 51
0.0
  0
LINE
  5
18B
100
AcDbEntity
  8
001
  6
CONTINUOUS
 62
     7
100
AcDbLine
 10
2068.323975
 20
1147.25
 30
0.0
 11
2068.323975
 21
1155.25
 31
0.0
  0
ARC
  5
18C
100
AcDbEntity
  8
001
  6
CONTINUOUS
 62
     7
100
AcDbCircle
 10
2072.323975
 20
1155.25
 30
0.0
 40
4.0
100
AcDbArc
 50
90.0
 51
180.0
  0
ARC
  5
18D
100
AcDbEntity
  8
001
  6
CONTINUOUS
 62
     7
100
AcDbCircle
 10
2066.323975
 20
1147.25
 30
0.0
 40
2.0
100
AcDbArc
 50
270.0
 51
0.0
  0
LINE
  5
18E
100
AcDbEntity
  8
001
  6
CONTINUOUS
 62
     7
100
AcDbLine
 10
2053.987793
 20
1111.75
 30
0.0
 11
2053.987793
 21
1143.75
 31
0.0
  0
LINE
  5
18F
100
AcDbEntity
  8
001
  6
CONTINUOUS
 62
     7
100
AcDbLine
 10
2070.662842
 20
1154.441895
 30
0.0
 11
2092.158203
 21
1110.25
 31
0.0
  0
ARC
  5
190
100
AcDbEntity
  8
001
  6
CONTINUOUS
 62
     7
100
AcDbCircle
 10
2085.199223
 20
1155.25
 30
0.0
 40
4.0
100
AcDbArc
 50
19.999412
 51
90.000065
  0
LINE
  5
191
100
AcDbEntity
  8
001
  6
CONTINUOUS
 62
     7
100
AcDbLine
 10
1988.813232
 20
1071.25
 30
0.0
 11
1988.813232
 21
1110.25
 31
0.0
  0
LINE
  5
192
100
AcDbEntity
  8
001
  6
CONTINUOUS
 62
     7
100
AcDbLine
 10
1972.9375
 20
1068.25
 30
0.0
 11
1972.9375
 21
1110.25
 31
0.0
  0
LINE
  5
193
100
AcDbEntity
  8
001
  6
CONTINUOUS
 62
     7
100
AcDbLine
 10
1899.790649
 20
1044.028198
 30
0.0
 11
1923.893433
 21
1110.25
 31
0.0
  0
LINE
  5
194
100
AcDbEntity
  8
001
  6
CONTINUOUS
 62
     7
100
AcDbLine
 10
1932.661865
 20
1110.25
 30
0.0
 11
1907.03418
 21
1063.929565
 31
0.0
  0
LINE
  5
195
100
AcDbEntity
  8
001
  6
CONTINUOUS
 62
     7
100
AcDbLine
 10
2037.186768
 20
1071.25
 30
0.0
 11
2037.186768
 21
1110.25
 31
0.0
  0
LINE
  5
196
100
AcDbEntity
  8
001
  6
CONTINUOUS
 62
     7
100
AcDbLine
 10
2053.0625
 20
1068.25
 30
0.0
 11
2053.0625
 21
1110.25
 31
0.0
  0
LINE
  5
197
100
AcDbEntity
  8
001
  6
CONTINUOUS
 62
     7
100
AcDbLine
 10
2126.209473
 20
1044.028198
 30
0.0
 11
2102.106689
 21
1110.25
 31
0.0
  0
LINE
  5
198
100
AcDbEntity
  8
001
  6
CONTINUOUS
 62
     7
100
AcDbLine
 10
2093.338135
 20
1110.25
 30
0.0
 11
2118.96582
 21
1063.929565
 31
0.0
  0
LINE
  5
199
100
AcDbEntity
  8
001
  6
CONTINUOUS
 62
     7
100
AcDbLine
 10
1154.0
 20
1110.25
 30
0.0
 11
1027.0
 21
1110.25
 31
0.0
  0
LINE
  5
19A
100
AcDbEntity
  8
001
  6
CONTINUOUS
 62
     7
100
AcDbLine
 10
1135.0
 20
1159.25
 30
0.0
 11
1046.0
 21
1159.25
 31
0.0
  0
ARC
  5
19B
100
AcDbEntity
  8
001
  6
CONTINUOUS
 62
     7
100
AcDbCircle
 10
1031.0
 20
1141.25
 30
0.0
 40
4.0
100
AcDbArc
 50
90.0
 51
180.0
  0
ARC
  5
19C
100
AcDbEntity
  8
001
  6
CONTINUOUS
 62
     7
100
AcDbCircle
 10
1046.0
 20
1155.25
 30
0.0
 40
4.0
100
AcDbArc
 50
90.0
 51
180.0
  0
LINE
  5
19D
100
AcDbEntity
  8
001
  6
CONTINUOUS
 62
     7
100
AcDbLine
 10
1042.0
 20
1155.25
 30
0.0
 11
1042.0
 21
1110.25
 31
0.0
  0
LINE
  5
19E
100
AcDbEntity
  8
001
  6
CONTINUOUS
 62
     7
100
AcDbLine
 10
1027.0
 20
1141.25
 30
0.0
 11
1027.0
 21
1110.25
 31
0.0
  0
LINE
  5
19F
100
AcDbEntity
  8
001
  6
CONTINUOUS
 62
     7
100
AcDbLine
 10
1031.0
 20
1145.25
 30
0.0
 11
1042.0
 21
1145.25
 31
0.0
  0
ARC
  5
1A0
100
AcDbEntity
  8
001
  6
CONTINUOUS
 62
     7
100
AcDbCircle
 10
1150.0
 20
1141.25
 30
0.0
 40
4.0
100
AcDbArc
 50
0.0
 51
90.0
  0
ARC
  5
1A1
100
AcDbEntity
  8
001
  6
CONTINUOUS
 62
     7
100
AcDbCircle
 10
1135.0
 20
1155.25
 30
0.0
 40
4.0
100
AcDbArc
 50
0.0
 51
90.0
  0
LINE
  5
1A2
100
AcDbEntity
  8
001
  6
CONTINUOUS
 62
     7
100
AcDbLine
 10
1139.0
 20
1155.25
 30
0.0
 11
1139.0
 21
1110.25
 31
0.0
  0
LINE
  5
1A3
100
AcDbEntity
  8
001
  6
CONTINUOUS
 62
     7
100
AcDbLine
 10
1154.0
 20
1141.25
 30
0.0
 11
1154.0
 21
1110.25
 31
0.0
  0
LINE
  5
1A4
100
AcDbEntity
  8
001
  6
CONTINUOUS
 62
     7
100
AcDbLine
 10
1139.0
 20
1145.25
 30
0.0
 11
1150.0
 21
1145.25
 31
0.0
  0
LINE
  5
1A5
100
AcDbEntity
  8
001
  6
CONTINUOUS
 62
     7
100
AcDbLine
 10
1034.5
 20
1110.25
 30
0.0
 11
1034.5
 21
1078.25
 31
0.0
  0
LINE
  5
1A6
100
AcDbEntity
  8
001
  6
CONTINUOUS
 62
     7
100
AcDbLine
 10
1044.5
 20
1110.25
 30
0.0
 11
1044.5
 21
1039.420532
 31
0.0
  0
LINE
  5
1A7
100
AcDbEntity
  8
001
  6
CONTINUOUS
 62
     7
100
AcDbLine
 10
1146.5
 20
1110.25
 30
0.0
 11
1146.5
 21
1078.25
 31
0.0
  0
LINE
  5
1A8
100
AcDbEntity
  8
001
  6
CONTINUOUS
 62
     7
100
AcDbLine
 10
1136.5
 20
1110.25
 30
0.0
 11
1136.5
 21
1039.420532
 31
0.0
  0
ARC
  5
1A9
100
AcDbEntity
  8
001
  6
CONTINUOUS
 62
     7
100
AcDbCircle
 10
2249.490262
 20
875.206145
 30
0.0
 40
7.66746
100
AcDbArc
 50
235.615904
 51
295.615859
  0
ARC
  5
1AA
100
AcDbEntity
  8
001
  6
CONTINUOUS
 62
     7
100
AcDbCircle
 10
2236.5
 20
896.198888
 30
0.0
 40
28.660189
100
AcDbArc
 50
252.41221
 51
287.58779
  0
ARC
  5
1AB
100
AcDbEntity
  8
001
  6
CONTINUOUS
 62
     7
100
AcDbCircle
 10
2223.509738
 20
875.206145
 30
0.0
 40
7.66746
100
AcDbArc
 50
244.384141
 51
304.384096
  0
ARC
  5
1AC
100
AcDbEntity
  8
001
  6
CONTINUOUS
 62
     7
100
AcDbCircle
 10
1162.0
 20
889.201355
 30
0.0
 40
21.662682
100
AcDbArc
 50
249.743864
 51
290.256136
  0
ARC
  5
1AD
100
AcDbEntity
  8
001
  6
CONTINUOUS
 62
     7
100
AcDbCircle
 10
1147.0
 20
889.201355
 30
0.0
 40
21.662682
100
AcDbArc
 50
249.743864
 51
290.256136
  0
LINE
  5
1AE
100
AcDbEntity
  8
001
  6
CONTINUOUS
 62
     7
100
AcDbLine
 10
2251.0
 20
867.25
 30
0.0
 11
2253.820557
 21
868.878418
 31
0.0
  0
LINE
  5
1AF
100
AcDbEntity
  8
001
  6
CONTINUOUS
 62
     7
100
AcDbLine
 10
2245.160156
 20
868.878418
 30
0.0
 11
2245.160156
 21
880.25
 31
0.0
  0
LINE
  5
1B0
100
AcDbEntity
  8
001
  6
CONTINUOUS
 62
     7
100
AcDbLine
 10
2227.839844
 20
868.878418
 30
0.0
 11
2227.839844
 21
880.25
 31
0.0
  0
LINE
  5
1B1
100
AcDbEntity
  8
001
  6
CONTINUOUS
 62
     7
100
AcDbLine
 10
2253.820557
 20
868.878418
 30
0.0
 11
2253.820557
 21
880.25
 31
0.0
  0
LINE
  5
1B2
100
AcDbEntity
  8
001
  6
CONTINUOUS
 62
     7
100
AcDbLine
 10
2222.0
 20
867.25
 30
0.0
 11
2219.179443
 21
868.878418
 31
0.0
  0
LINE
  5
1B3
100
AcDbEntity
  8
001
  6
CONTINUOUS
 62
     7
100
AcDbLine
 10
2219.179443
 20
868.878418
 30
0.0
 11
2219.179443
 21
880.25
 31
0.0
  0
LINE
  5
1B4
100
AcDbEntity
  8
001
  6
CONTINUOUS
 62
     7
100
AcDbLine
 10
2251.0
 20
867.25
 30
0.0
 11
2222.0
 21
867.25
 31
0.0
  0
LINE
  5
1B5
100
AcDbEntity
  8
001
  6
CONTINUOUS
 62
     7
100
AcDbLine
 10
1169.5
 20
867.538696
 30
0.0
 11
1169.0
 21
867.25
 31
0.0
  0
LINE
  5
1B6
100
AcDbEntity
  8
001
  6
CONTINUOUS
 62
     7
100
AcDbLine
 10
1139.5
 20
867.538696
 30
0.0
 11
1140.0
 21
867.25
 31
0.0
  0
LINE
  5
1B7
100
AcDbEntity
  8
001
  6
CONTINUOUS
 62
     7
100
AcDbLine
 10
1169.0
 20
867.25
 30
0.0
 11
1140.0
 21
867.25
 31
0.0
  0
LINE
  5
1B8
100
AcDbEntity
  8
001
  6
CONTINUOUS
 62
     7
100
AcDbLine
 10
1169.5
 20
867.538696
 30
0.0
 11
1169.5
 21
880.25
 31
0.0
  0
LINE
  5
1B9
100
AcDbEntity
  8
001
  6
CONTINUOUS
 62
     7
100
AcDbLine
 10
1139.5
 20
867.538696
 30
0.0
 11
1139.5
 21
880.25
 31
0.0
  0
LINE
  5
1BA
100
AcDbEntity
  8
001
  6
CONTINUOUS
 62
     7
100
AcDbLine
 10
1154.5
 20
868.878418
 30
0.0
 11
1154.5
 21
880.25
 31
0.0
  0
ARC
  5
1BB
100
AcDbEntity
  8
001
  6
CONTINUOUS
 62
     7
100
AcDbCircle
 10
2249.490262
 20
935.293855
 30
0.0
 40
7.66746
100
AcDbArc
 50
64.384141
 51
124.384096
  0
ARC
  5
1BC
100
AcDbEntity
  8
001
  6
CONTINUOUS
 62
     7
100
AcDbCircle
 10
2236.5
 20
914.301112
 30
0.0
 40
28.660189
100
AcDbArc
 50
72.41221
 51
107.58779
  0
ARC
  5
1BD
100
AcDbEntity
  8
001
  6
CONTINUOUS
 62
     7
100
AcDbCircle
 10
2223.509738
 20
935.293855
 30
0.0
 40
7.66746
100
AcDbArc
 50
55.615904
 51
115.615859
  0
ARC
  5
1BE
100
AcDbEntity
  8
001
  6
CONTINUOUS
 62
     7
100
AcDbCircle
 10
1162.0
 20
921.298645
 30
0.0
 40
21.662682
100
AcDbArc
 50
69.743864
 51
110.256136
  0
ARC
  5
1BF
100
AcDbEntity
  8
001
  6
CONTINUOUS
 62
     7
100
AcDbCircle
 10
1147.0
 20
921.298645
 30
0.0
 40
21.662682
100
AcDbArc
 50
69.743864
 51
110.256136
  0
LINE
  5
1C0
100
AcDbEntity
  8
001
  6
CONTINUOUS
 62
     7
100
AcDbLine
 10
2251.0
 20
943.25
 30
0.0
 11
2253.820557
 21
941.621582
 31
0.0
  0
LINE
  5
1C1
100
AcDbEntity
  8
001
  6
CONTINUOUS
 62
     7
100
AcDbLine
 10
2222.0
 20
943.25
 30
0.0
 11
2219.179443
 21
941.621582
 31
0.0
  0
LINE
  5
1C2
100
AcDbEntity
  8
001
  6
CONTINUOUS
 62
     7
100
AcDbLine
 10
2251.0
 20
943.25
 30
0.0
 11
2222.0
 21
943.25
 31
0.0
  0
LINE
  5
1C3
100
AcDbEntity
  8
001
  6
CONTINUOUS
 62
     7
100
AcDbLine
 10
1169.5
 20
942.961304
 30
0.0
 11
1169.0
 21
943.25
 31
0.0
  0
LINE
  5
1C4
100
AcDbEntity
  8
001
  6
CONTINUOUS
 62
     7
100
AcDbLine
 10
1139.5
 20
942.961304
 30
0.0
 11
1140.0
 21
943.25
 31
0.0
  0
LINE
  5
1C5
100
AcDbEntity
  8
001
  6
CONTINUOUS
 62
     7
100
AcDbLine
 10
1169.0
 20
943.25
 30
0.0
 11
1140.0
 21
943.25
 31
0.0
  0
LINE
  5
1C6
100
AcDbEntity
  8
001
  6
CONTINUOUS
 62
     7
100
AcDbLine
 10
2245.160156
 20
941.621582
 30
0.0
 11
2245.160156
 21
927.25
 31
0.0
  0
LINE
  5
1C7
100
AcDbEntity
  8
001
  6
CONTINUOUS
 62
     7
100
AcDbLine
 10
2227.839844
 20
941.621582
 30
0.0
 11
2227.839844
 21
927.25
 31
0.0
  0
LINE
  5
1C8
100
AcDbEntity
  8
001
  6
CONTINUOUS
 62
     7
100
AcDbLine
 10
2253.820557
 20
941.621582
 30
0.0
 11
2253.820557
 21
927.25
 31
0.0
  0
LINE
  5
1C9
100
AcDbEntity
  8
001
  6
CONTINUOUS
 62
     7
100
AcDbLine
 10
2219.179443
 20
941.621582
 30
0.0
 11
2219.179443
 21
927.25
 31
0.0
  0
LINE
  5
1CA
100
AcDbEntity
  8
001
  6
CONTINUOUS
 62
     7
100
AcDbLine
 10
1169.5
 20
942.961304
 30
0.0
 11
1169.5
 21
927.25
 31
0.0
  0
LINE
  5
1CB
100
AcDbEntity
  8
001
  6
CONTINUOUS
 62
     7
100
AcDbLine
 10
1139.5
 20
942.961304
 30
0.0
 11
1139.5
 21
927.25
 31
0.0
  0
LINE
  5
1CC
100
AcDbEntity
  8
001
  6
CONTINUOUS
 62
     7
100
AcDbLine
 10
1154.5
 20
941.621582
 30
0.0
 11
1154.5
 21
927.25
 31
0.0
  0
LINE
  5
1CD
100
AcDbEntity
  8
001
  6
CONTINUOUS
 62
     7
100
AcDbLine
 10
2219.5
 20
883.25
 30
0.0
 11
2219.5
 21
880.25
 31
0.0
  0
LINE
  5
1CE
100
AcDbEntity
  8
001
  6
CONTINUOUS
 62
     7
100
AcDbLine
 10
2253.5
 20
883.25
 30
0.0
 11
2253.5
 21
880.25
 31
0.0
  0
LINE
  5
1CF
100
AcDbEntity
  8
001
  6
CONTINUOUS
 62
     7
100
AcDbLine
 10
1171.5
 20
883.25
 30
0.0
 11
1171.5
 21
880.25
 31
0.0
  0
LINE
  5
1D0
100
AcDbEntity
  8
001
  6
CONTINUOUS
 62
     7
100
AcDbLine
 10
1137.5
 20
883.25
 30
0.0
 11
1137.5
 21
880.25
 31
0.0
  0
LINE
  5
1D1
100
AcDbEntity
  8
001
  6
CONTINUOUS
 62
     7
100
AcDbLine
 10
2219.5
 20
924.25
 30
0.0
 11
2219.5
 21
927.25
 31
0.0
  0
LINE
  5
1D2
100
AcDbEntity
  8
001
  6
CONTINUOUS
 62
     7
100
AcDbLine
 10
2253.5
 20
924.25
 30
0.0
 11
2253.5
 21
927.25
 31
0.0
  0
LINE
  5
1D3
100
AcDbEntity
  8
001
  6
CONTINUOUS
 62
     7
100
AcDbLine
 10
1171.5
 20
924.25
 30
0.0
 11
1171.5
 21
927.25
 31
0.0
  0
LINE
  5
1D4
100
AcDbEntity
  8
001
  6
CONTINUOUS
 62
     7
100
AcDbLine
 10
1137.5
 20
924.25
 30
0.0
 11
1137.5
 21
927.25
 31
0.0
  0
LINE
  5
1D5
100
AcDbEntity
  8
001
  6
CONTINUOUS
 62
     7
100
AcDbLine
 10
2253.820557
 20
927.25
 30
0.0
 11
2219.179443
 21
927.25
 31
0.0
  0
LINE
  5
1D6
100
AcDbEntity
  8
001
  6
CONTINUOUS
 62
     7
100
AcDbLine
 10
2219.179443
 20
880.25
 30
0.0
 11
2253.820557
 21
880.25
 31
0.0
  0
LINE
  5
1D7
100
AcDbEntity
  8
001
  6
CONTINUOUS
 62
     7
100
AcDbLine
 10
1171.5
 20
927.25
 30
0.0
 11
1137.5
 21
927.25
 31
0.0
  0
LINE
  5
1D8
100
AcDbEntity
  8
001
  6
CONTINUOUS
 62
     7
100
AcDbLine
 10
1171.5
 20
880.25
 30
0.0
 11
1137.5
 21
880.25
 31
0.0
  0
LINE
  5
1D9
100
AcDbEntity
  8
001
  6
CONTINUOUS
 62
     7
100
AcDbLine
 10
2226.5
 20
952.75
 30
0.0
 11
2246.5
 21
952.75
 31
0.0
  0
ARC
  5
1DA
100
AcDbEntity
  8
001
  6
CONTINUOUS
 62
     7
100
AcDbCircle
 10
2236.5
 20
934.0
 30
0.0
 40
21.25
100
AcDbArc
 50
61.927513
 51
118.072487
  0
LINE
  5
1DB
100
AcDbEntity
  8
001
  6
CONTINUOUS
 62
     7
100
AcDbLine
 10
2226.5
 20
952.75
 30
0.0
 11
2226.5
 21
943.25
 31
0.0
  0
LINE
  5
1DC
100
AcDbEntity
  8
001
  6
CONTINUOUS
 62
     7
100
AcDbLine
 10
2246.5
 20
952.75
 30
0.0
 11
2246.5
 21
943.25
 31
0.0
  0
ARC
  5
1DD
100
AcDbEntity
  8
001
  6
CONTINUOUS
 62
     7
100
AcDbCircle
 10
2160.990262
 20
935.293855
 30
0.0
 40
7.66746
100
AcDbArc
 50
64.384141
 51
124.384096
  0
ARC
  5
1DE
100
AcDbEntity
  8
001
  6
CONTINUOUS
 62
     7
100
AcDbCircle
 10
2148.0
 20
914.301112
 30
0.0
 40
28.660189
100
AcDbArc
 50
72.41221
 51
107.58779
  0
ARC
  5
1DF
100
AcDbEntity
  8
001
  6
CONTINUOUS
 62
     7
100
AcDbCircle
 10
2135.009738
 20
935.293855
 30
0.0
 40
7.66746
100
AcDbArc
 50
55.615904
 51
115.615859
  0
LINE
  5
1E0
100
AcDbEntity
  8
001
  6
CONTINUOUS
 62
     7
100
AcDbLine
 10
2162.5
 20
943.25
 30
0.0
 11
2165.320557
 21
941.621582
 31
0.0
  0
LINE
  5
1E1
100
AcDbEntity
  8
001
  6
CONTINUOUS
 62
     7
100
AcDbLine
 10
2133.5
 20
943.25
 30
0.0
 11
2130.679443
 21
941.621582
 31
0.0
  0
LINE
  5
1E2
100
AcDbEntity
  8
001
  6
CONTINUOUS
 62
     7
100
AcDbLine
 10
2162.5
 20
943.25
 30
0.0
 11
2133.5
 21
943.25
 31
0.0
  0
LINE
  5
1E3
100
AcDbEntity
  8
001
  6
CONTINUOUS
 62
     7
100
AcDbLine
 10
2156.660156
 20
941.621582
 30
0.0
 11
2156.660156
 21
927.25
 31
0.0
  0
LINE
  5
1E4
100
AcDbEntity
  8
001
  6
CONTINUOUS
 62
     7
100
AcDbLine
 10
2139.339844
 20
941.621582
 30
0.0
 11
2139.339844
 21
927.25
 31
0.0
  0
LINE
  5
1E5
100
AcDbEntity
  8
001
  6
CONTINUOUS
 62
     7
100
AcDbLine
 10
2165.320557
 20
941.621582
 30
0.0
 11
2165.320557
 21
927.25
 31
0.0
  0
LINE
  5
1E6
100
AcDbEntity
  8
001
  6
CONTINUOUS
 62
     7
100
AcDbLine
 10
2130.679443
 20
941.621582
 30
0.0
 11
2130.679443
 21
927.25
 31
0.0
  0
LINE
  5
1E7
100
AcDbEntity
  8
001
  6
CONTINUOUS
 62
     7
100
AcDbLine
 10
2131.0
 20
924.25
 30
0.0
 11
2131.0
 21
927.25
 31
0.0
  0
LINE
  5
1E8
100
AcDbEntity
  8
001
  6
CONTINUOUS
 62
     7
100
AcDbLine
 10
2165.0
 20
924.25
 30
0.0
 11
2165.0
 21
927.25
 31
0.0
  0
LINE
  5
1E9
100
AcDbEntity
  8
001
  6
CONTINUOUS
 62
     7
100
AcDbLine
 10
2165.320557
 20
927.25
 30
0.0
 11
2130.679443
 21
927.25
 31
0.0
  0
LINE
  5
1EA
100
AcDbEntity
  8
001
  6
CONTINUOUS
 62
     7
100
AcDbLine
 10
2138.0
 20
952.75
 30
0.0
 11
2158.0
 21
952.75
 31
0.0
  0
ARC
  5
1EB
100
AcDbEntity
  8
001
  6
CONTINUOUS
 62
     7
100
AcDbCircle
 10
2148.0
 20
934.0
 30
0.0
 40
21.25
100
AcDbArc
 50
61.927513
 51
118.072487
  0
LINE
  5
1EC
100
AcDbEntity
  8
001
  6
CONTINUOUS
 62
     7
100
AcDbLine
 10
2138.0
 20
952.75
 30
0.0
 11
2138.0
 21
943.25
 31
0.0
  0
LINE
  5
1ED
100
AcDbEntity
  8
001
  6
CONTINUOUS
 62
     7
100
AcDbLine
 10
2158.0
 20
952.75
 30
0.0
 11
2158.0
 21
943.25
 31
0.0
  0
ARC
  5
1EE
100
AcDbEntity
  8
001
  6
CONTINUOUS
 62
     7
100
AcDbCircle
 10
2160.990262
 20
875.206145
 30
0.0
 40
7.66746
100
AcDbArc
 50
235.615904
 51
295.615859
  0
ARC
  5
1EF
100
AcDbEntity
  8
001
  6
CONTINUOUS
 62
     7
100
AcDbCircle
 10
2148.0
 20
896.198888
 30
0.0
 40
28.660189
100
AcDbArc
 50
252.41221
 51
287.58779
  0
ARC
  5
1F0
100
AcDbEntity
  8
001
  6
CONTINUOUS
 62
     7
100
AcDbCircle
 10
2135.009738
 20
875.206145
 30
0.0
 40
7.66746
100
AcDbArc
 50
244.384141
 51
304.384096
  0
LINE
  5
1F1
100
AcDbEntity
  8
001
  6
CONTINUOUS
 62
     7
100
AcDbLine
 10
2162.5
 20
867.25
 30
0.0
 11
2165.320557
 21
868.878418
 31
0.0
  0
LINE
  5
1F2
100
AcDbEntity
  8
001
  6
CONTINUOUS
 62
     7
100
AcDbLine
 10
2156.660156
 20
868.878418
 30
0.0
 11
2156.660156
 21
880.25
 31
0.0
  0
LINE
  5
1F3
100
AcDbEntity
  8
001
  6
CONTINUOUS
 62
     7
100
AcDbLine
 10
2139.339844
 20
868.878418
 30
0.0
 11
2139.339844
 21
880.25
 31
0.0
  0
LINE
  5
1F4
100
AcDbEntity
  8
001
  6
CONTINUOUS
 62
     7
100
AcDbLine
 10
2165.320557
 20
868.878418
 30
0.0
 11
2165.320557
 21
880.25
 31
0.0
  0
LINE
  5
1F5
100
AcDbEntity
  8
001
  6
CONTINUOUS
 62
     7
100
AcDbLine
 10
2133.5
 20
867.25
 30
0.0
 11
2130.679443
 21
868.878418
 31
0.0
  0
LINE
  5
1F6
100
AcDbEntity
  8
001
  6
CONTINUOUS
 62
     7
100
AcDbLine
 10
2130.679443
 20
868.878418
 30
0.0
 11
2130.679443
 21
880.25
 31
0.0
  0
LINE
  5
1F7
100
AcDbEntity
  8
001
  6
CONTINUOUS
 62
     7
100
AcDbLine
 10
2162.5
 20
867.25
 30
0.0
 11
2133.5
 21
867.25
 31
0.0
  0
LINE
  5
1F8
100
AcDbEntity
  8
001
  6
CONTINUOUS
 62
     7
100
AcDbLine
 10
2131.0
 20
883.25
 30
0.0
 11
2131.0
 21
880.25
 31
0.0
  0
LINE
  5
1F9
100
AcDbEntity
  8
001
  6
CONTINUOUS
 62
     7
100
AcDbLine
 10
2165.0
 20
883.25
 30
0.0
 11
2165.0
 21
880.25
 31
0.0
  0
LINE
  5
1FA
100
AcDbEntity
  8
001
  6
CONTINUOUS
 62
     7
100
AcDbLine
 10
2130.679443
 20
880.25
 30
0.0
 11
2165.320557
 21
880.25
 31
0.0
  0
ARC
  5
1FB
100
AcDbEntity
  8
001
  6
CONTINUOUS
 62
     7
100
AcDbCircle
 10
2074.990262
 20
935.293855
 30
0.0
 40
7.66746
100
AcDbArc
 50
64.384141
 51
124.384096
  0
ARC
  5
1FC
100
AcDbEntity
  8
001
  6
CONTINUOUS
 62
     7
100
AcDbCircle
 10
2062.0
 20
914.301112
 30
0.0
 40
28.660189
100
AcDbArc
 50
72.41221
 51
107.58779
  0
ARC
  5
1FD
100
AcDbEntity
  8
001
  6
CONTINUOUS
 62
     7
100
AcDbCircle
 10
2049.009688
 20
935.29389
 30
0.0
 40
7.66746
100
AcDbArc
 50
55.615449
 51
115.616454
  0
LINE
  5
1FE
100
AcDbEntity
  8
001
  6
CONTINUOUS
 62
     7
100
AcDbLine
 10
2076.5
 20
943.25
 30
0.0
 11
2079.320557
 21
941.621582
 31
0.0
  0
LINE
  5
1FF
100
AcDbEntity
  8
001
  6
CONTINUOUS
 62
     7
100
AcDbLine
 10
2047.5
 20
943.25
 30
0.0
 11
2044.679443
 21
941.621582
 31
0.0
  0
LINE
  5
200
100
AcDbEntity
  8
001
  6
CONTINUOUS
 62
     7
100
AcDbLine
 10
2076.5
 20
943.25
 30
0.0
 11
2047.5
 21
943.25
 31
0.0
  0
LINE
  5
201
100
AcDbEntity
  8
001
  6
CONTINUOUS
 62
     7
100
AcDbLine
 10
2070.660156
 20
941.621582
 30
0.0
 11
2070.660156
 21
927.25
 31
0.0
  0
LINE
  5
202
100
AcDbEntity
  8
001
  6
CONTINUOUS
 62
     7
100
AcDbLine
 10
2053.339844
 20
941.621582
 30
0.0
 11
2053.339844
 21
927.25
 31
0.0
  0
LINE
  5
203
100
AcDbEntity
  8
001
  6
CONTINUOUS
 62
     7
100
AcDbLine
 10
2079.320557
 20
941.621582
 30
0.0
 11
2079.320557
 21
927.25
 31
0.0
  0
LINE
  5
204
100
AcDbEntity
  8
001
  6
CONTINUOUS
 62
     7
100
AcDbLine
 10
2044.679443
 20
941.621582
 30
0.0
 11
2044.679443
 21
927.25
 31
0.0
  0
LINE
  5
205
100
AcDbEntity
  8
001
  6
CONTINUOUS
 62
     7
100
AcDbLine
 10
2045.0
 20
924.25
 30
0.0
 11
2045.0
 21
927.25
 31
0.0
  0
LINE
  5
206
100
AcDbEntity
  8
001
  6
CONTINUOUS
 62
     7
100
AcDbLine
 10
2079.0
 20
924.25
 30
0.0
 11
2079.0
 21
927.25
 31
0.0
  0
LINE
  5
207
100
AcDbEntity
  8
001
  6
CONTINUOUS
 62
     7
100
AcDbLine
 10
2079.320557
 20
927.25
 30
0.0
 11
2044.679443
 21
927.25
 31
0.0
  0
LINE
  5
208
100
AcDbEntity
  8
001
  6
CONTINUOUS
 62
     7
100
AcDbLine
 10
2052.0
 20
952.75
 30
0.0
 11
2072.0
 21
952.75
 31
0.0
  0
ARC
  5
209
100
AcDbEntity
  8
001
  6
CONTINUOUS
 62
     7
100
AcDbCircle
 10
2062.0
 20
934.0
 30
0.0
 40
21.25
100
AcDbArc
 50
61.927513
 51
118.072487
  0
LINE
  5
20A
100
AcDbEntity
  8
001
  6
CONTINUOUS
 62
     7
100
AcDbLine
 10
2052.0
 20
952.75
 30
0.0
 11
2052.0
 21
943.25
 31
0.0
  0
LINE
  5
20B
100
AcDbEntity
  8
001
  6
CONTINUOUS
 62
     7
100
AcDbLine
 10
2072.0
 20
952.75
 30
0.0
 11
2072.0
 21
943.25
 31
0.0
  0
ARC
  5
20C
100
AcDbEntity
  8
001
  6
CONTINUOUS
 62
     7
100
AcDbCircle
 10
2074.990262
 20
875.206145
 30
0.0
 40
7.66746
100
AcDbArc
 50
235.615904
 51
295.615859
  0
ARC
  5
20D
100
AcDbEntity
  8
001
  6
CONTINUOUS
 62
     7
100
AcDbCircle
 10
2062.0
 20
896.198888
 30
0.0
 40
28.660189
100
AcDbArc
 50
252.41221
 51
287.58779
  0
ARC
  5
20E
100
AcDbEntity
  8
001
  6
CONTINUOUS
 62
     7
100
AcDbCircle
 10
2049.009688
 20
875.20611
 30
0.0
 40
7.66746
100
AcDbArc
 50
244.383546
 51
304.384551
  0
LINE
  5
20F
100
AcDbEntity
  8
001
  6
CONTINUOUS
 62
     7
100
AcDbLine
 10
2076.5
 20
867.25
 30
0.0
 11
2079.320557
 21
868.878418
 31
0.0
  0
LINE
  5
210
100
AcDbEntity
  8
001
  6
CONTINUOUS
 62
     7
100
AcDbLine
 10
2070.660156
 20
868.878418
 30
0.0
 11
2070.660156
 21
880.25
 31
0.0
  0
LINE
  5
211
100
AcDbEntity
  8
001
  6
CONTINUOUS
 62
     7
100
AcDbLine
 10
2053.339844
 20
868.878418
 30
0.0
 11
2053.339844
 21
880.25
 31
0.0
  0
LINE
  5
212
100
AcDbEntity
  8
001
  6
CONTINUOUS
 62
     7
100
AcDbLine
 10
2079.320557
 20
868.878418
 30
0.0
 11
2079.320557
 21
880.25
 31
0.0
  0
LINE
  5
213
100
AcDbEntity
  8
001
  6
CONTINUOUS
 62
     7
100
AcDbLine
 10
2047.5
 20
867.25
 30
0.0
 11
2044.679443
 21
868.878418
 31
0.0
  0
LINE
  5
214
100
AcDbEntity
  8
001
  6
CONTINUOUS
 62
     7
100
AcDbLine
 10
2044.679443
 20
868.878418
 30
0.0
 11
2044.679443
 21
880.25
 31
0.0
  0
LINE
  5
215
100
AcDbEntity
  8
001
  6
CONTINUOUS
 62
     7
100
AcDbLine
 10
2076.5
 20
867.25
 30
0.0
 11
2047.5
 21
867.25
 31
0.0
  0
LINE
  5
216
100
AcDbEntity
  8
001
  6
CONTINUOUS
 62
     7
100
AcDbLine
 10
2045.0
 20
883.25
 30
0.0
 11
2045.0
 21
880.25
 31
0.0
  0
LINE
  5
217
100
AcDbEntity
  8
001
  6
CONTINUOUS
 62
     7
100
AcDbLine
 10
2079.0
 20
883.25
 30
0.0
 11
2079.0
 21
880.25
 31
0.0
  0
LINE
  5
218
100
AcDbEntity
  8
001
  6
CONTINUOUS
 62
     7
100
AcDbLine
 10
2044.679443
 20
880.25
 30
0.0
 11
2079.320557
 21
880.25
 31
0.0
  0
ARC
  5
219
100
AcDbEntity
  8
001
  6
CONTINUOUS
 62
     7
100
AcDbCircle
 10
1976.990384
 20
935.293855
 30
0.0
 40
7.66746
100
AcDbArc
 50
64.384141
 51
124.384096
  0
ARC
  5
21A
100
AcDbEntity
  8
001
  6
CONTINUOUS
 62
     7
100
AcDbCircle
 10
1964.0
 20
914.30115
 30
0.0
 40
28.660189
100
AcDbArc
 50
72.411954
 51
107.588046
  0
ARC
  5
21B
100
AcDbEntity
  8
001
  6
CONTINUOUS
 62
     7
100
AcDbCircle
 10
1951.009616
 20
935.293855
 30
0.0
 40
7.66746
100
AcDbArc
 50
55.615904
 51
115.615859
  0
LINE
  5
21C
100
AcDbEntity
  8
001
  6
CONTINUOUS
 62
     7
100
AcDbLine
 10
1978.5
 20
943.25
 30
0.0
 11
1981.320557
 21
941.621582
 31
0.0
  0
LINE
  5
21D
100
AcDbEntity
  8
001
  6
CONTINUOUS
 62
     7
100
AcDbLine
 10
1949.5
 20
943.25
 30
0.0
 11
1946.679443
 21
941.621582
 31
0.0
  0
LINE
  5
21E
100
AcDbEntity
  8
001
  6
CONTINUOUS
 62
     7
100
AcDbLine
 10
1978.5
 20
943.25
 30
0.0
 11
1949.5
 21
943.25
 31
0.0
  0
LINE
  5
21F
100
AcDbEntity
  8
001
  6
CONTINUOUS
 62
     7
100
AcDbLine
 10
1972.660278
 20
941.621582
 30
0.0
 11
1972.660278
 21
927.25
 31
0.0
  0
LINE
  5
220
100
AcDbEntity
  8
001
  6
CONTINUOUS
 62
     7
100
AcDbLine
 10
1955.339722
 20
941.621582
 30
0.0
 11
1955.339722
 21
927.25
 31
0.0
  0
LINE
  5
221
100
AcDbEntity
  8
001
  6
CONTINUOUS
 62
     7
100
AcDbLine
 10
1981.320557
 20
941.621582
 30
0.0
 11
1981.320557
 21
927.25
 31
0.0
  0
LINE
  5
222
100
AcDbEntity
  8
001
  6
CONTINUOUS
 62
     7
100
AcDbLine
 10
1946.679443
 20
941.621582
 30
0.0
 11
1946.679443
 21
927.25
 31
0.0
  0
LINE
  5
223
100
AcDbEntity
  8
001
  6
CONTINUOUS
 62
     7
100
AcDbLine
 10
1947.0
 20
924.25
 30
0.0
 11
1947.0
 21
927.25
 31
0.0
  0
LINE
  5
224
100
AcDbEntity
  8
001
  6
CONTINUOUS
 62
     7
100
AcDbLine
 10
1981.0
 20
924.25
 30
0.0
 11
1981.0
 21
927.25
 31
0.0
  0
LINE
  5
225
100
AcDbEntity
  8
001
  6
CONTINUOUS
 62
     7
100
AcDbLine
 10
1981.320557
 20
927.25
 30
0.0
 11
1946.679443
 21
927.25
 31
0.0
  0
LINE
  5
226
100
AcDbEntity
  8
001
  6
CONTINUOUS
 62
     7
100
AcDbLine
 10
1954.0
 20
952.75
 30
0.0
 11
1974.0
 21
952.75
 31
0.0
  0
ARC
  5
227
100
AcDbEntity
  8
001
  6
CONTINUOUS
 62
     7
100
AcDbCircle
 10
1964.0
 20
934.0
 30
0.0
 40
21.25
100
AcDbArc
 50
61.927513
 51
118.072487
  0
LINE
  5
228
100
AcDbEntity
  8
001
  6
CONTINUOUS
 62
     7
100
AcDbLine
 10
1954.0
 20
952.75
 30
0.0
 11
1954.0
 21
943.25
 31
0.0
  0
LINE
  5
229
100
AcDbEntity
  8
001
  6
CONTINUOUS
 62
     7
100
AcDbLine
 10
1974.0
 20
952.75
 30
0.0
 11
1974.0
 21
943.25
 31
0.0
  0
ARC
  5
22A
100
AcDbEntity
  8
001
  6
CONTINUOUS
 62
     7
100
AcDbCircle
 10
1976.990384
 20
875.206145
 30
0.0
 40
7.66746
100
AcDbArc
 50
235.615904
 51
295.615859
  0
ARC
  5
22B
100
AcDbEntity
  8
001
  6
CONTINUOUS
 62
     7
100
AcDbCircle
 10
1964.0
 20
896.19885
 30
0.0
 40
28.660189
100
AcDbArc
 50
252.411954
 51
287.588046
  0
ARC
  5
22C
100
AcDbEntity
  8
001
  6
CONTINUOUS
 62
     7
100
AcDbCircle
 10
1951.009616
 20
875.206145
 30
0.0
 40
7.66746
100
AcDbArc
 50
244.384141
 51
304.384096
  0
LINE
  5
22D
100
AcDbEntity
  8
001
  6
CONTINUOUS
 62
     7
100
AcDbLine
 10
1978.5
 20
867.25
 30
0.0
 11
1981.320557
 21
868.878418
 31
0.0
  0
LINE
  5
22E
100
AcDbEntity
  8
001
  6
CONTINUOUS
 62
     7
100
AcDbLine
 10
1972.660278
 20
868.878418
 30
0.0
 11
1972.660278
 21
880.25
 31
0.0
  0
LINE
  5
22F
100
AcDbEntity
  8
001
  6
CONTINUOUS
 62
     7
100
AcDbLine
 10
1955.339722
 20
868.878418
 30
0.0
 11
1955.339722
 21
880.25
 31
0.0
  0
LINE
  5
230
100
AcDbEntity
  8
001
  6
CONTINUOUS
 62
     7
100
AcDbLine
 10
1981.320557
 20
868.878418
 30
0.0
 11
1981.320557
 21
880.25
 31
0.0
  0
LINE
  5
231
100
AcDbEntity
  8
001
  6
CONTINUOUS
 62
     7
100
AcDbLine
 10
1949.5
 20
867.25
 30
0.0
 11
1946.679443
 21
868.878418
 31
0.0
  0
LINE
  5
232
100
AcDbEntity
  8
001
  6
CONTINUOUS
 62
     7
100
AcDbLine
 10
1946.679443
 20
868.878418
 30
0.0
 11
1946.679443
 21
880.25
 31
0.0
  0
LINE
  5
233
100
AcDbEntity
  8
001
  6
CONTINUOUS
 62
     7
100
AcDbLine
 10
1978.5
 20
867.25
 30
0.0
 11
1949.5
 21
867.25
 31
0.0
  0
LINE
  5
234
100
AcDbEntity
  8
001
  6
CONTINUOUS
 62
     7
100
AcDbLine
 10
1947.0
 20
883.25
 30
0.0
 11
1947.0
 21
880.25
 31
0.0
  0
LINE
  5
235
100
AcDbEntity
  8
001
  6
CONTINUOUS
 62
     7
100
AcDbLine
 10
1981.0
 20
883.25
 30
0.0
 11
1981.0
 21
880.25
 31
0.0
  0
LINE
  5
236
100
AcDbEntity
  8
001
  6
CONTINUOUS
 62
     7
100
AcDbLine
 10
1946.679443
 20
880.25
 30
0.0
 11
1981.320557
 21
880.25
 31
0.0
  0
ARC
  5
237
100
AcDbEntity
  8
001
  6
CONTINUOUS
 62
     7
100
AcDbCircle
 10
1890.990384
 20
935.293855
 30
0.0
 40
7.66746
100
AcDbArc
 50
64.384141
 51
124.384096
  0
ARC
  5
238
100
AcDbEntity
  8
001
  6
CONTINUOUS
 62
     7
100
AcDbCircle
 10
1878.0
 20
914.30115
 30
0.0
 40
28.660189
100
AcDbArc
 50
72.411954
 51
107.588046
  0
ARC
  5
239
100
AcDbEntity
  8
001
  6
CONTINUOUS
 62
     7
100
AcDbCircle
 10
1865.009616
 20
935.293855
 30
0.0
 40
7.66746
100
AcDbArc
 50
55.615904
 51
115.615859
  0
LINE
  5
23A
100
AcDbEntity
  8
001
  6
CONTINUOUS
 62
     7
100
AcDbLine
 10
1892.5
 20
943.25
 30
0.0
 11
1895.320557
 21
941.621582
 31
0.0
  0
LINE
  5
23B
100
AcDbEntity
  8
001
  6
CONTINUOUS
 62
     7
100
AcDbLine
 10
1863.5
 20
943.25
 30
0.0
 11
1860.679443
 21
941.621582
 31
0.0
  0
LINE
  5
23C
100
AcDbEntity
  8
001
  6
CONTINUOUS
 62
     7
100
AcDbLine
 10
1892.5
 20
943.25
 30
0.0
 11
1863.5
 21
943.25
 31
0.0
  0
LINE
  5
23D
100
AcDbEntity
  8
001
  6
CONTINUOUS
 62
     7
100
AcDbLine
 10
1886.660278
 20
941.621582
 30
0.0
 11
1886.660278
 21
927.25
 31
0.0
  0
LINE
  5
23E
100
AcDbEntity
  8
001
  6
CONTINUOUS
 62
     7
100
AcDbLine
 10
1869.339722
 20
941.621582
 30
0.0
 11
1869.339722
 21
927.25
 31
0.0
  0
LINE
  5
23F
100
AcDbEntity
  8
001
  6
CONTINUOUS
 62
     7
100
AcDbLine
 10
1895.320557
 20
941.621582
 30
0.0
 11
1895.320557
 21
927.25
 31
0.0
  0
LINE
  5
240
100
AcDbEntity
  8
001
  6
CONTINUOUS
 62
     7
100
AcDbLine
 10
1860.679443
 20
941.621582
 30
0.0
 11
1860.679443
 21
927.25
 31
0.0
  0
LINE
  5
241
100
AcDbEntity
  8
001
  6
CONTINUOUS
 62
     7
100
AcDbLine
 10
1861.0
 20
924.25
 30
0.0
 11
1861.0
 21
927.25
 31
0.0
  0
LINE
  5
242
100
AcDbEntity
  8
001
  6
CONTINUOUS
 62
     7
100
AcDbLine
 10
1895.0
 20
924.25
 30
0.0
 11
1895.0
 21
927.25
 31
0.0
  0
LINE
  5
243
100
AcDbEntity
  8
001
  6
CONTINUOUS
 62
     7
100
AcDbLine
 10
1895.320557
 20
927.25
 30
0.0
 11
1860.679443
 21
927.25
 31
0.0
  0
LINE
  5
244
100
AcDbEntity
  8
001
  6
CONTINUOUS
 62
     7
100
AcDbLine
 10
1868.0
 20
952.75
 30
0.0
 11
1888.0
 21
952.75
 31
0.0
  0
ARC
  5
245
100
AcDbEntity
  8
001
  6
CONTINUOUS
 62
     7
100
AcDbCircle
 10
1878.0
 20
934.0
 30
0.0
 40
21.25
100
AcDbArc
 50
61.927513
 51
118.072487
  0
LINE
  5
246
100
AcDbEntity
  8
001
  6
CONTINUOUS
 62
     7
100
AcDbLine
 10
1868.0
 20
952.75
 30
0.0
 11
1868.0
 21
943.25
 31
0.0
  0
LINE
  5
247
100
AcDbEntity
  8
001
  6
CONTINUOUS
 62
     7
100
AcDbLine
 10
1888.0
 20
952.75
 30
0.0
 11
1888.0
 21
943.25
 31
0.0
  0
ARC
  5
248
100
AcDbEntity
  8
001
  6
CONTINUOUS
 62
     7
100
AcDbCircle
 10
1890.990384
 20
875.206145
 30
0.0
 40
7.66746
100
AcDbArc
 50
235.615904
 51
295.615859
  0
ARC
  5
249
100
AcDbEntity
  8
001
  6
CONTINUOUS
 62
     7
100
AcDbCircle
 10
1878.0
 20
896.19885
 30
0.0
 40
28.660189
100
AcDbArc
 50
252.411954
 51
287.588046
  0
ARC
  5
24A
100
AcDbEntity
  8
001
  6
CONTINUOUS
 62
     7
100
AcDbCircle
 10
1865.009616
 20
875.206145
 30
0.0
 40
7.66746
100
AcDbArc
 50
244.384141
 51
304.384096
  0
LINE
  5
24B
100
AcDbEntity
  8
001
  6
CONTINUOUS
 62
     7
100
AcDbLine
 10
1892.5
 20
867.25
 30
0.0
 11
1895.320557
 21
868.878418
 31
0.0
  0
LINE
  5
24C
100
AcDbEntity
  8
001
  6
CONTINUOUS
 62
     7
100
AcDbLine
 10
1886.660278
 20
868.878418
 30
0.0
 11
1886.660278
 21
880.25
 31
0.0
  0
LINE
  5
24D
100
AcDbEntity
  8
001
  6
CONTINUOUS
 62
     7
100
AcDbLine
 10
1869.339722
 20
868.878418
 30
0.0
 11
1869.339722
 21
880.25
 31
0.0
  0
LINE
  5
24E
100
AcDbEntity
  8
001
  6
CONTINUOUS
 62
     7
100
AcDbLine
 10
1895.320557
 20
868.878418
 30
0.0
 11
1895.320557
 21
880.25
 31
0.0
  0
LINE
  5
24F
100
AcDbEntity
  8
001
  6
CONTINUOUS
 62
     7
100
AcDbLine
 10
1863.5
 20
867.25
 30
0.0
 11
1860.679443
 21
868.878418
 31
0.0
  0
LINE
  5
250
100
AcDbEntity
  8
001
  6
CONTINUOUS
 62
     7
100
AcDbLine
 10
1860.679443
 20
868.878418
 30
0.0
 11
1860.679443
 21
880.25
 31
0.0
  0
LINE
  5
251
100
AcDbEntity
  8
001
  6
CONTINUOUS
 62
     7
100
AcDbLine
 10
1892.5
 20
867.25
 30
0.0
 11
1863.5
 21
867.25
 31
0.0
  0
LINE
  5
252
100
AcDbEntity
  8
001
  6
CONTINUOUS
 62
     7
100
AcDbLine
 10
1861.0
 20
883.25
 30
0.0
 11
1861.0
 21
880.25
 31
0.0
  0
LINE
  5
253
100
AcDbEntity
  8
001
  6
CONTINUOUS
 62
     7
100
AcDbLine
 10
1895.0
 20
883.25
 30
0.0
 11
1895.0
 21
880.25
 31
0.0
  0
LINE
  5
254
100
AcDbEntity
  8
001
  6
CONTINUOUS
 62
     7
100
AcDbLine
 10
1860.679443
 20
880.25
 30
0.0
 11
1895.320557
 21
880.25
 31
0.0
  0
ARC
  5
255
100
AcDbEntity
  8
001
  6
CONTINUOUS
 62
     7
100
AcDbCircle
 10
1802.490384
 20
935.293855
 30
0.0
 40
7.66746
100
AcDbArc
 50
64.384141
 51
124.384096
  0
ARC
  5
256
100
AcDbEntity
  8
001
  6
CONTINUOUS
 62
     7
100
AcDbCircle
 10
1789.5
 20
914.30115
 30
0.0
 40
28.660189
100
AcDbArc
 50
72.411954
 51
107.588046
  0
ARC
  5
257
100
AcDbEntity
  8
001
  6
CONTINUOUS
 62
     7
100
AcDbCircle
 10
1776.509616
 20
935.293855
 30
0.0
 40
7.66746
100
AcDbArc
 50
55.615904
 51
115.615859
  0
LINE
  5
258
100
AcDbEntity
  8
001
  6
CONTINUOUS
 62
     7
100
AcDbLine
 10
1804.0
 20
943.25
 30
0.0
 11
1806.820557
 21
941.621582
 31
0.0
  0
LINE
  5
259
100
AcDbEntity
  8
001
  6
CONTINUOUS
 62
     7
100
AcDbLine
 10
1775.0
 20
943.25
 30
0.0
 11
1772.179443
 21
941.621582
 31
0.0
  0
LINE
  5
25A
100
AcDbEntity
  8
001
  6
CONTINUOUS
 62
     7
100
AcDbLine
 10
1804.0
 20
943.25
 30
0.0
 11
1775.0
 21
943.25
 31
0.0
  0
LINE
  5
25B
100
AcDbEntity
  8
001
  6
CONTINUOUS
 62
     7
100
AcDbLine
 10
1798.160278
 20
941.621582
 30
0.0
 11
1798.160278
 21
927.25
 31
0.0
  0
LINE
  5
25C
100
AcDbEntity
  8
001
  6
CONTINUOUS
 62
     7
100
AcDbLine
 10
1780.839722
 20
941.621582
 30
0.0
 11
1780.839722
 21
927.25
 31
0.0
  0
LINE
  5
25D
100
AcDbEntity
  8
001
  6
CONTINUOUS
 62
     7
100
AcDbLine
 10
1806.820557
 20
941.621582
 30
0.0
 11
1806.820557
 21
927.25
 31
0.0
  0
LINE
  5
25E
100
AcDbEntity
  8
001
  6
CONTINUOUS
 62
     7
100
AcDbLine
 10
1772.179443
 20
941.621582
 30
0.0
 11
1772.179443
 21
927.25
 31
0.0
  0
LINE
  5
25F
100
AcDbEntity
  8
001
  6
CONTINUOUS
 62
     7
100
AcDbLine
 10
1772.5
 20
924.25
 30
0.0
 11
1772.5
 21
927.25
 31
0.0
  0
LINE
  5
260
100
AcDbEntity
  8
001
  6
CONTINUOUS
 62
     7
100
AcDbLine
 10
1806.5
 20
924.25
 30
0.0
 11
1806.5
 21
927.25
 31
0.0
  0
LINE
  5
261
100
AcDbEntity
  8
001
  6
CONTINUOUS
 62
     7
100
AcDbLine
 10
1806.820557
 20
927.25
 30
0.0
 11
1772.179443
 21
927.25
 31
0.0
  0
LINE
  5
262
100
AcDbEntity
  8
001
  6
CONTINUOUS
 62
     7
100
AcDbLine
 10
1779.5
 20
952.75
 30
0.0
 11
1799.5
 21
952.75
 31
0.0
  0
ARC
  5
263
100
AcDbEntity
  8
001
  6
CONTINUOUS
 62
     7
100
AcDbCircle
 10
1789.5
 20
934.0
 30
0.0
 40
21.25
100
AcDbArc
 50
61.927513
 51
118.072487
  0
LINE
  5
264
100
AcDbEntity
  8
001
  6
CONTINUOUS
 62
     7
100
AcDbLine
 10
1779.5
 20
952.75
 30
0.0
 11
1779.5
 21
943.25
 31
0.0
  0
LINE
  5
265
100
AcDbEntity
  8
001
  6
CONTINUOUS
 62
     7
100
AcDbLine
 10
1799.5
 20
952.75
 30
0.0
 11
1799.5
 21
943.25
 31
0.0
  0
ARC
  5
266
100
AcDbEntity
  8
001
  6
CONTINUOUS
 62
     7
100
AcDbCircle
 10
1802.490384
 20
875.206145
 30
0.0
 40
7.66746
100
AcDbArc
 50
235.615904
 51
295.615859
  0
ARC
  5
267
100
AcDbEntity
  8
001
  6
CONTINUOUS
 62
     7
100
AcDbCircle
 10
1789.5
 20
896.19885
 30
0.0
 40
28.660189
100
AcDbArc
 50
252.411954
 51
287.588046
  0
ARC
  5
268
100
AcDbEntity
  8
001
  6
CONTINUOUS
 62
     7
100
AcDbCircle
 10
1776.509616
 20
875.206145
 30
0.0
 40
7.66746
100
AcDbArc
 50
244.384141
 51
304.384096
  0
LINE
  5
269
100
AcDbEntity
  8
001
  6
CONTINUOUS
 62
     7
100
AcDbLine
 10
1804.0
 20
867.25
 30
0.0
 11
1806.820557
 21
868.878418
 31
0.0
  0
LINE
  5
26A
100
AcDbEntity
  8
001
  6
CONTINUOUS
 62
     7
100
AcDbLine
 10
1798.160278
 20
868.878418
 30
0.0
 11
1798.160278
 21
880.25
 31
0.0
  0
LINE
  5
26B
100
AcDbEntity
  8
001
  6
CONTINUOUS
 62
     7
100
AcDbLine
 10
1780.839722
 20
868.878418
 30
0.0
 11
1780.839722
 21
880.25
 31
0.0
  0
LINE
  5
26C
100
AcDbEntity
  8
001
  6
CONTINUOUS
 62
     7
100
AcDbLine
 10
1806.820557
 20
868.878418
 30
0.0
 11
1806.820557
 21
880.25
 31
0.0
  0
LINE
  5
26D
100
AcDbEntity
  8
001
  6
CONTINUOUS
 62
     7
100
AcDbLine
 10
1775.0
 20
867.25
 30
0.0
 11
1772.179443
 21
868.878418
 31
0.0
  0
LINE
  5
26E
100
AcDbEntity
  8
001
  6
CONTINUOUS
 62
     7
100
AcDbLine
 10
1772.179443
 20
868.878418
 30
0.0
 11
1772.179443
 21
880.25
 31
0.0
  0
LINE
  5
26F
100
AcDbEntity
  8
001
  6
CONTINUOUS
 62
     7
100
AcDbLine
 10
1804.0
 20
867.25
 30
0.0
 11
1775.0
 21
867.25
 31
0.0
  0
LINE
  5
270
100
AcDbEntity
  8
001
  6
CONTINUOUS
 62
     7
100
AcDbLine
 10
1772.5
 20
883.25
 30
0.0
 11
1772.5
 21
880.25
 31
0.0
  0
LINE
  5
271
100
AcDbEntity
  8
001
  6
CONTINUOUS
 62
     7
100
AcDbLine
 10
1806.5
 20
883.25
 30
0.0
 11
1806.5
 21
880.25
 31
0.0
  0
LINE
  5
272
100
AcDbEntity
  8
001
  6
CONTINUOUS
 62
     7
100
AcDbLine
 10
1772.179443
 20
880.25
 30
0.0
 11
1806.820557
 21
880.25
 31
0.0
  0
LINE
  5
273
100
AcDbEntity
  8
001
  6
CONTINUOUS
 62
     7
100
AcDbLine
 10
2206.0
 20
948.25
 30
0.0
 11
2158.0
 21
948.25
 31
0.0
  0
LINE
  5
274
100
AcDbEntity
  8
001
  6
CONTINUOUS
 62
     7
100
AcDbLine
 10
2138.0
 20
948.25
 30
0.0
 11
2072.0
 21
948.25
 31
0.0
  0
LINE
  5
275
100
AcDbEntity
  8
001
  6
CONTINUOUS
 62
     7
100
AcDbLine
 10
2052.0
 20
948.25
 30
0.0
 11
1974.0
 21
948.25
 31
0.0
  0
LINE
  5
276
100
AcDbEntity
  8
001
  6
CONTINUOUS
 62
     7
100
AcDbLine
 10
1954.0
 20
948.25
 30
0.0
 11
1888.0
 21
948.25
 31
0.0
  0
LINE
  5
277
100
AcDbEntity
  8
001
  6
CONTINUOUS
 62
     7
100
AcDbLine
 10
1868.0
 20
948.25
 30
0.0
 11
1820.0
 21
948.25
 31
0.0
  0
LINE
  5
278
100
AcDbEntity
  8
001
  6
CONTINUOUS
 62
     7
100
AcDbLine
 10
1144.5
 20
952.75
 30
0.0
 11
1164.5
 21
952.75
 31
0.0
  0
ARC
  5
279
100
AcDbEntity
  8
001
  6
CONTINUOUS
 62
     7
100
AcDbCircle
 10
1154.5
 20
934.0
 30
0.0
 40
21.25
100
AcDbArc
 50
61.927513
 51
118.072487
  0
LINE
  5
27A
100
AcDbEntity
  8
001
  6
CONTINUOUS
 62
     7
100
AcDbLine
 10
1164.5
 20
952.75
 30
0.0
 11
1164.5
 21
943.25
 31
0.0
  0
LINE
  5
27B
100
AcDbEntity
  8
001
  6
CONTINUOUS
 62
     7
100
AcDbLine
 10
1144.5
 20
952.75
 30
0.0
 11
1144.5
 21
943.25
 31
0.0
  0
LINE
  5
27C
100
AcDbEntity
  8
001
  6
CONTINUOUS
 62
     7
100
AcDbLine
 10
1188.5
 20
948.25
 30
0.0
 11
1164.5
 21
948.25
 31
0.0
  0
ARC
  5
27D
100
AcDbEntity
  8
001
  6
CONTINUOUS
 62
     7
100
AcDbCircle
 10
1230.999994
 20
889.201353
 30
0.0
 40
21.662682
100
AcDbArc
 50
256.655152
 51
290.256152
  0
LINE
  5
27E
100
AcDbEntity
  8
001
  6
CONTINUOUS
 62
     7
100
AcDbLine
 10
1238.5
 20
867.538696
 30
0.0
 11
1238.0
 21
867.25
 31
0.0
  0
LINE
  5
27F
100
AcDbEntity
  8
001
  6
CONTINUOUS
 62
     7
100
AcDbLine
 10
1238.5
 20
867.538696
 30
0.0
 11
1238.5
 21
880.25
 31
0.0
  0
LINE
  5
280
100
AcDbEntity
  8
001
  6
CONTINUOUS
 62
     7
100
AcDbLine
 10
1240.5
 20
883.25
 30
0.0
 11
1240.5
 21
880.25
 31
0.0
  0
ARC
  5
281
100
AcDbEntity
  8
001
  6
CONTINUOUS
 62
     7
100
AcDbCircle
 10
1230.999994
 20
921.298647
 30
0.0
 40
21.662682
100
AcDbArc
 50
69.743848
 51
103.344848
  0
LINE
  5
282
100
AcDbEntity
  8
001
  6
CONTINUOUS
 62
     7
100
AcDbLine
 10
1238.5
 20
942.961304
 30
0.0
 11
1238.0
 21
943.25
 31
0.0
  0
LINE
  5
283
100
AcDbEntity
  8
001
  6
CONTINUOUS
 62
     7
100
AcDbLine
 10
1238.5
 20
942.961304
 30
0.0
 11
1238.5
 21
927.25
 31
0.0
  0
LINE
  5
284
100
AcDbEntity
  8
001
  6
CONTINUOUS
 62
     7
100
AcDbLine
 10
1240.5
 20
924.25
 30
0.0
 11
1240.5
 21
927.25
 31
0.0
  0
LINE
  5
285
100
AcDbEntity
  8
001
  6
CONTINUOUS
 62
     7
100
AcDbLine
 10
1233.5
 20
952.75
 30
0.0
 11
1233.5
 21
943.25
 31
0.0
  0
ARC
  5
286
100
AcDbEntity
  8
001
  6
CONTINUOUS
 62
     7
100
AcDbCircle
 10
1223.499972
 20
934.000015
 30
0.0
 40
21.25
100
AcDbArc
 50
61.927427
 51
107.104556
  0
ARC
  5
287
100
AcDbEntity
  8
001
  6
CONTINUOUS
 62
     7
100
AcDbCircle
 10
1218.5
 20
889.201355
 30
0.0
 40
21.662682
100
AcDbArc
 50
249.743864
 51
290.256136
  0
ARC
  5
288
100
AcDbEntity
  8
001
  6
CONTINUOUS
 62
     7
100
AcDbCircle
 10
1203.5
 20
889.201355
 30
0.0
 40
21.662682
100
AcDbArc
 50
249.743864
 51
290.256136
  0
LINE
  5
289
100
AcDbEntity
  8
001
  6
CONTINUOUS
 62
     7
100
AcDbLine
 10
1226.0
 20
867.538696
 30
0.0
 11
1225.5
 21
867.25
 31
0.0
  0
LINE
  5
28A
100
AcDbEntity
  8
001
  6
CONTINUOUS
 62
     7
100
AcDbLine
 10
1196.0
 20
867.538696
 30
0.0
 11
1196.5
 21
867.25
 31
0.0
  0
LINE
  5
28B
100
AcDbEntity
  8
001
  6
CONTINUOUS
 62
     7
100
AcDbLine
 10
1226.0
 20
867.538696
 30
0.0
 11
1226.0
 21
880.25
 31
0.0
  0
LINE
  5
28C
100
AcDbEntity
  8
001
  6
CONTINUOUS
 62
     7
100
AcDbLine
 10
1196.0
 20
867.538696
 30
0.0
 11
1196.0
 21
880.25
 31
0.0
  0
LINE
  5
28D
100
AcDbEntity
  8
001
  6
CONTINUOUS
 62
     7
100
AcDbLine
 10
1211.0
 20
868.878418
 30
0.0
 11
1211.0
 21
880.25
 31
0.0
  0
LINE
  5
28E
100
AcDbEntity
  8
001
  6
CONTINUOUS
 62
     7
100
AcDbLine
 10
1228.0
 20
883.25
 30
0.0
 11
1228.0
 21
880.25
 31
0.0
  0
LINE
  5
28F
100
AcDbEntity
  8
001
  6
CONTINUOUS
 62
     7
100
AcDbLine
 10
1194.0
 20
883.25
 30
0.0
 11
1194.0
 21
880.25
 31
0.0
  0
ARC
  5
290
100
AcDbEntity
  8
001
  6
CONTINUOUS
 62
     7
100
AcDbCircle
 10
1218.5
 20
921.298645
 30
0.0
 40
21.662682
100
AcDbArc
 50
69.743864
 51
110.256136
  0
ARC
  5
291
100
AcDbEntity
  8
001
  6
CONTINUOUS
 62
     7
100
AcDbCircle
 10
1203.5
 20
921.298645
 30
0.0
 40
21.662682
100
AcDbArc
 50
69.743864
 51
110.256136
  0
LINE
  5
292
100
AcDbEntity
  8
001
  6
CONTINUOUS
 62
     7
100
AcDbLine
 10
1226.0
 20
942.961304
 30
0.0
 11
1225.5
 21
943.25
 31
0.0
  0
LINE
  5
293
100
AcDbEntity
  8
001
  6
CONTINUOUS
 62
     7
100
AcDbLine
 10
1196.0
 20
942.961304
 30
0.0
 11
1196.5
 21
943.25
 31
0.0
  0
LINE
  5
294
100
AcDbEntity
  8
001
  6
CONTINUOUS
 62
     7
100
AcDbLine
 10
1226.0
 20
942.961304
 30
0.0
 11
1226.0
 21
927.25
 31
0.0
  0
LINE
  5
295
100
AcDbEntity
  8
001
  6
CONTINUOUS
 62
     7
100
AcDbLine
 10
1196.0
 20
942.961304
 30
0.0
 11
1196.0
 21
927.25
 31
0.0
  0
LINE
  5
296
100
AcDbEntity
  8
001
  6
CONTINUOUS
 62
     7
100
AcDbLine
 10
1211.0
 20
941.621582
 30
0.0
 11
1211.0
 21
927.25
 31
0.0
  0
LINE
  5
297
100
AcDbEntity
  8
001
  6
CONTINUOUS
 62
     7
100
AcDbLine
 10
1228.0
 20
924.25
 30
0.0
 11
1228.0
 21
927.25
 31
0.0
  0
LINE
  5
298
100
AcDbEntity
  8
001
  6
CONTINUOUS
 62
     7
100
AcDbLine
 10
1194.0
 20
924.25
 30
0.0
 11
1194.0
 21
927.25
 31
0.0
  0
LINE
  5
299
100
AcDbEntity
  8
001
  6
CONTINUOUS
 62
     7
100
AcDbLine
 10
1221.0
 20
952.75
 30
0.0
 11
1221.0
 21
943.25
 31
0.0
  0
LINE
  5
29A
100
AcDbEntity
  8
001
  6
CONTINUOUS
 62
     7
100
AcDbLine
 10
1201.0
 20
952.75
 30
0.0
 11
1201.0
 21
943.25
 31
0.0
  0
ARC
  5
29B
100
AcDbEntity
  8
001
  6
CONTINUOUS
 62
     7
100
AcDbCircle
 10
1211.0
 20
934.0
 30
0.0
 40
21.25
100
AcDbArc
 50
61.927513
 51
118.072487
  0
ARC
  5
29C
100
AcDbEntity
  8
001
  6
CONTINUOUS
 62
     7
100
AcDbCircle
 10
1034.0
 20
889.201355
 30
0.0
 40
21.662682
100
AcDbArc
 50
249.743864
 51
290.256136
  0
ARC
  5
29D
100
AcDbEntity
  8
001
  6
CONTINUOUS
 62
     7
100
AcDbCircle
 10
1019.0
 20
889.201355
 30
0.0
 40
21.662682
100
AcDbArc
 50
249.743864
 51
290.256136
  0
LINE
  5
29E
100
AcDbEntity
  8
001
  6
CONTINUOUS
 62
     7
100
AcDbLine
 10
1041.5
 20
867.538696
 30
0.0
 11
1041.0
 21
867.25
 31
0.0
  0
LINE
  5
29F
100
AcDbEntity
  8
001
  6
CONTINUOUS
 62
     7
100
AcDbLine
 10
1011.5
 20
867.538696
 30
0.0
 11
1012.0
 21
867.25
 31
0.0
  0
LINE
  5
2A0
100
AcDbEntity
  8
001
  6
CONTINUOUS
 62
     7
100
AcDbLine
 10
1041.0
 20
867.25
 30
0.0
 11
1012.0
 21
867.25
 31
0.0
  0
LINE
  5
2A1
100
AcDbEntity
  8
001
  6
CONTINUOUS
 62
     7
100
AcDbLine
 10
1041.5
 20
867.538696
 30
0.0
 11
1041.5
 21
880.25
 31
0.0
  0
LINE
  5
2A2
100
AcDbEntity
  8
001
  6
CONTINUOUS
 62
     7
100
AcDbLine
 10
1011.5
 20
867.538696
 30
0.0
 11
1011.5
 21
880.25
 31
0.0
  0
LINE
  5
2A3
100
AcDbEntity
  8
001
  6
CONTINUOUS
 62
     7
100
AcDbLine
 10
1026.5
 20
868.878418
 30
0.0
 11
1026.5
 21
880.25
 31
0.0
  0
LINE
  5
2A4
100
AcDbEntity
  8
001
  6
CONTINUOUS
 62
     7
100
AcDbLine
 10
1043.5
 20
883.25
 30
0.0
 11
1043.5
 21
880.25
 31
0.0
  0
LINE
  5
2A5
100
AcDbEntity
  8
001
  6
CONTINUOUS
 62
     7
100
AcDbLine
 10
1009.5
 20
883.25
 30
0.0
 11
1009.5
 21
880.25
 31
0.0
  0
LINE
  5
2A6
100
AcDbEntity
  8
001
  6
CONTINUOUS
 62
     7
100
AcDbLine
 10
1043.5
 20
880.25
 30
0.0
 11
1009.5
 21
880.25
 31
0.0
  0
ARC
  5
2A7
100
AcDbEntity
  8
001
  6
CONTINUOUS
 62
     7
100
AcDbCircle
 10
1034.0
 20
921.298645
 30
0.0
 40
21.662682
100
AcDbArc
 50
69.743864
 51
110.256136
  0
ARC
  5
2A8
100
AcDbEntity
  8
001
  6
CONTINUOUS
 62
     7
100
AcDbCircle
 10
1019.0
 20
921.298645
 30
0.0
 40
21.662682
100
AcDbArc
 50
69.743864
 51
110.256136
  0
LINE
  5
2A9
100
AcDbEntity
  8
001
  6
CONTINUOUS
 62
     7
100
AcDbLine
 10
1041.5
 20
942.961304
 30
0.0
 11
1041.0
 21
943.25
 31
0.0
  0
LINE
  5
2AA
100
AcDbEntity
  8
001
  6
CONTINUOUS
 62
     7
100
AcDbLine
 10
1011.5
 20
942.961304
 30
0.0
 11
1012.0
 21
943.25
 31
0.0
  0
LINE
  5
2AB
100
AcDbEntity
  8
001
  6
CONTINUOUS
 62
     7
100
AcDbLine
 10
1041.0
 20
943.25
 30
0.0
 11
1012.0
 21
943.25
 31
0.0
  0
LINE
  5
2AC
100
AcDbEntity
  8
001
  6
CONTINUOUS
 62
     7
100
AcDbLine
 10
1041.5
 20
942.961304
 30
0.0
 11
1041.5
 21
927.25
 31
0.0
  0
LINE
  5
2AD
100
AcDbEntity
  8
001
  6
CONTINUOUS
 62
     7
100
AcDbLine
 10
1011.5
 20
942.961304
 30
0.0
 11
1011.5
 21
927.25
 31
0.0
  0
LINE
  5
2AE
100
AcDbEntity
  8
001
  6
CONTINUOUS
 62
     7
100
AcDbLine
 10
1026.5
 20
941.621582
 30
0.0
 11
1026.5
 21
927.25
 31
0.0
  0
LINE
  5
2AF
100
AcDbEntity
  8
001
  6
CONTINUOUS
 62
     7
100
AcDbLine
 10
1043.5
 20
924.25
 30
0.0
 11
1043.5
 21
927.25
 31
0.0
  0
LINE
  5
2B0
100
AcDbEntity
  8
001
  6
CONTINUOUS
 62
     7
100
AcDbLine
 10
1009.5
 20
924.25
 30
0.0
 11
1009.5
 21
927.25
 31
0.0
  0
LINE
  5
2B1
100
AcDbEntity
  8
001
  6
CONTINUOUS
 62
     7
100
AcDbLine
 10
1043.5
 20
927.25
 30
0.0
 11
1009.5
 21
927.25
 31
0.0
  0
LINE
  5
2B2
100
AcDbEntity
  8
001
  6
CONTINUOUS
 62
     7
100
AcDbLine
 10
1036.5
 20
952.75
 30
0.0
 11
1036.5
 21
943.25
 31
0.0
  0
LINE
  5
2B3
100
AcDbEntity
  8
001
  6
CONTINUOUS
 62
     7
100
AcDbLine
 10
1016.5
 20
952.75
 30
0.0
 11
1016.5
 21
943.25
 31
0.0
  0
LINE
  5
2B4
100
AcDbEntity
  8
001
  6
CONTINUOUS
 62
     7
100
AcDbLine
 10
1016.5
 20
952.75
 30
0.0
 11
1036.5
 21
952.75
 31
0.0
  0
ARC
  5
2B5
100
AcDbEntity
  8
001
  6
CONTINUOUS
 62
     7
100
AcDbCircle
 10
1026.5
 20
934.0
 30
0.0
 40
21.25
100
AcDbArc
 50
61.927513
 51
118.072487
  0
ARC
  5
2B6
100
AcDbEntity
  8
001
  6
CONTINUOUS
 62
     7
100
AcDbCircle
 10
977.5
 20
889.201355
 30
0.0
 40
21.662682
100
AcDbArc
 50
249.743864
 51
290.256136
  0
ARC
  5
2B7
100
AcDbEntity
  8
001
  6
CONTINUOUS
 62
     7
100
AcDbCircle
 10
962.5
 20
889.201355
 30
0.0
 40
21.662682
100
AcDbArc
 50
249.743864
 51
290.256136
  0
LINE
  5
2B8
100
AcDbEntity
  8
001
  6
CONTINUOUS
 62
     7
100
AcDbLine
 10
985.0
 20
867.538696
 30
0.0
 11
984.5
 21
867.25
 31
0.0
  0
LINE
  5
2B9
100
AcDbEntity
  8
001
  6
CONTINUOUS
 62
     7
100
AcDbLine
 10
955.0
 20
867.538696
 30
0.0
 11
955.5
 21
867.25
 31
0.0
  0
LINE
  5
2BA
100
AcDbEntity
  8
001
  6
CONTINUOUS
 62
     7
100
AcDbLine
 10
985.0
 20
867.538696
 30
0.0
 11
985.0
 21
880.25
 31
0.0
  0
LINE
  5
2BB
100
AcDbEntity
  8
001
  6
CONTINUOUS
 62
     7
100
AcDbLine
 10
955.0
 20
867.538696
 30
0.0
 11
955.0
 21
880.25
 31
0.0
  0
LINE
  5
2BC
100
AcDbEntity
  8
001
  6
CONTINUOUS
 62
     7
100
AcDbLine
 10
970.0
 20
868.878418
 30
0.0
 11
970.0
 21
880.25
 31
0.0
  0
LINE
  5
2BD
100
AcDbEntity
  8
001
  6
CONTINUOUS
 62
     7
100
AcDbLine
 10
987.0
 20
883.25
 30
0.0
 11
987.0
 21
880.25
 31
0.0
  0
LINE
  5
2BE
100
AcDbEntity
  8
001
  6
CONTINUOUS
 62
     7
100
AcDbLine
 10
953.0
 20
883.25
 30
0.0
 11
953.0
 21
880.25
 31
0.0
  0
ARC
  5
2BF
100
AcDbEntity
  8
001
  6
CONTINUOUS
 62
     7
100
AcDbCircle
 10
977.5
 20
921.298645
 30
0.0
 40
21.662682
100
AcDbArc
 50
69.743864
 51
110.256136
  0
ARC
  5
2C0
100
AcDbEntity
  8
001
  6
CONTINUOUS
 62
     7
100
AcDbCircle
 10
962.5
 20
921.298645
 30
0.0
 40
21.662682
100
AcDbArc
 50
69.743864
 51
110.256136
  0
LINE
  5
2C1
100
AcDbEntity
  8
001
  6
CONTINUOUS
 62
     7
100
AcDbLine
 10
985.0
 20
942.961304
 30
0.0
 11
984.5
 21
943.25
 31
0.0
  0
LINE
  5
2C2
100
AcDbEntity
  8
001
  6
CONTINUOUS
 62
     7
100
AcDbLine
 10
955.0
 20
942.961304
 30
0.0
 11
955.5
 21
943.25
 31
0.0
  0
LINE
  5
2C3
100
AcDbEntity
  8
001
  6
CONTINUOUS
 62
     7
100
AcDbLine
 10
985.0
 20
942.961304
 30
0.0
 11
985.0
 21
927.25
 31
0.0
  0
LINE
  5
2C4
100
AcDbEntity
  8
001
  6
CONTINUOUS
 62
     7
100
AcDbLine
 10
955.0
 20
942.961304
 30
0.0
 11
955.0
 21
927.25
 31
0.0
  0
LINE
  5
2C5
100
AcDbEntity
  8
001
  6
CONTINUOUS
 62
     7
100
AcDbLine
 10
970.0
 20
941.621582
 30
0.0
 11
970.0
 21
927.25
 31
0.0
  0
LINE
  5
2C6
100
AcDbEntity
  8
001
  6
CONTINUOUS
 62
     7
100
AcDbLine
 10
987.0
 20
924.25
 30
0.0
 11
987.0
 21
927.25
 31
0.0
  0
LINE
  5
2C7
100
AcDbEntity
  8
001
  6
CONTINUOUS
 62
     7
100
AcDbLine
 10
953.0
 20
924.25
 30
0.0
 11
953.0
 21
927.25
 31
0.0
  0
LINE
  5
2C8
100
AcDbEntity
  8
001
  6
CONTINUOUS
 62
     7
100
AcDbLine
 10
980.0
 20
952.75
 30
0.0
 11
980.0
 21
943.25
 31
0.0
  0
LINE
  5
2C9
100
AcDbEntity
  8
001
  6
CONTINUOUS
 62
     7
100
AcDbLine
 10
960.0
 20
952.75
 30
0.0
 11
960.0
 21
943.25
 31
0.0
  0
ARC
  5
2CA
100
AcDbEntity
  8
001
  6
CONTINUOUS
 62
     7
100
AcDbCircle
 10
970.0
 20
934.0
 30
0.0
 40
21.25
100
AcDbArc
 50
61.927513
 51
118.072487
  0
ARC
  5
2CB
100
AcDbEntity
  8
001
  6
CONTINUOUS
 62
     7
100
AcDbCircle
 10
950.000006
 20
889.201353
 30
0.0
 40
21.662682
100
AcDbArc
 50
249.743848
 51
283.344848
  0
LINE
  5
2CC
100
AcDbEntity
  8
001
  6
CONTINUOUS
 62
     7
100
AcDbLine
 10
942.5
 20
867.538696
 30
0.0
 11
943.0
 21
867.25
 31
0.0
  0
LINE
  5
2CD
100
AcDbEntity
  8
001
  6
CONTINUOUS
 62
     7
100
AcDbLine
 10
942.5
 20
867.538696
 30
0.0
 11
942.5
 21
880.25
 31
0.0
  0
LINE
  5
2CE
100
AcDbEntity
  8
001
  6
CONTINUOUS
 62
     7
100
AcDbLine
 10
940.5
 20
883.25
 30
0.0
 11
940.5
 21
880.25
 31
0.0
  0
ARC
  5
2CF
100
AcDbEntity
  8
001
  6
CONTINUOUS
 62
     7
100
AcDbCircle
 10
950.000006
 20
921.298647
 30
0.0
 40
21.662682
100
AcDbArc
 50
76.655152
 51
110.256152
  0
LINE
  5
2D0
100
AcDbEntity
  8
001
  6
CONTINUOUS
 62
     7
100
AcDbLine
 10
942.5
 20
942.961304
 30
0.0
 11
943.0
 21
943.25
 31
0.0
  0
LINE
  5
2D1
100
AcDbEntity
  8
001
  6
CONTINUOUS
 62
     7
100
AcDbLine
 10
942.5
 20
942.961304
 30
0.0
 11
942.5
 21
927.25
 31
0.0
  0
LINE
  5
2D2
100
AcDbEntity
  8
001
  6
CONTINUOUS
 62
     7
100
AcDbLine
 10
940.5
 20
924.25
 30
0.0
 11
940.5
 21
927.25
 31
0.0
  0
LINE
  5
2D3
100
AcDbEntity
  8
001
  6
CONTINUOUS
 62
     7
100
AcDbLine
 10
947.5
 20
952.75
 30
0.0
 11
947.5
 21
943.25
 31
0.0
  0
ARC
  5
2D4
100
AcDbEntity
  8
001
  6
CONTINUOUS
 62
     7
100
AcDbCircle
 10
957.500028
 20
934.000015
 30
0.0
 40
21.25
100
AcDbArc
 50
72.895444
 51
118.072573
  0
LINE
  5
2D5
100
AcDbEntity
  8
001
  6
CONTINUOUS
 62
     7
100
AcDbLine
 10
1144.5
 20
948.25
 30
0.0
 11
1036.5
 21
948.25
 31
0.0
  0
LINE
  5
2D6
100
AcDbEntity
  8
001
  6
CONTINUOUS
 62
     7
100
AcDbLine
 10
1016.5
 20
948.25
 30
0.0
 11
992.5
 21
948.25
 31
0.0
  0
LINE
  5
2D7
100
AcDbEntity
  8
001
  6
CONTINUOUS
 62
     7
100
AcDbLine
 10
1201.0
 20
952.75
 30
0.0
 11
1233.5
 21
952.75
 31
0.0
  0
LINE
  5
2D8
100
AcDbEntity
  8
001
  6
CONTINUOUS
 62
     7
100
AcDbLine
 10
1238.0
 20
943.25
 30
0.0
 11
1196.5
 21
943.25
 31
0.0
  0
LINE
  5
2D9
100
AcDbEntity
  8
001
  6
CONTINUOUS
 62
     7
100
AcDbLine
 10
1240.5
 20
927.25
 30
0.0
 11
1194.0
 21
927.25
 31
0.0
  0
LINE
  5
2DA
100
AcDbEntity
  8
001
  6
CONTINUOUS
 62
     7
100
AcDbLine
 10
1240.5
 20
880.25
 30
0.0
 11
1194.0
 21
880.25
 31
0.0
  0
LINE
  5
2DB
100
AcDbEntity
  8
001
  6
CONTINUOUS
 62
     7
100
AcDbLine
 10
1238.0
 20
867.25
 30
0.0
 11
1196.5
 21
867.25
 31
0.0
  0
LINE
  5
2DC
100
AcDbEntity
  8
001
  6
CONTINUOUS
 62
     7
100
AcDbLine
 10
947.5
 20
952.75
 30
0.0
 11
980.0
 21
952.75
 31
0.0
  0
LINE
  5
2DD
100
AcDbEntity
  8
001
  6
CONTINUOUS
 62
     7
100
AcDbLine
 10
984.5
 20
943.25
 30
0.0
 11
943.0
 21
943.25
 31
0.0
  0
LINE
  5
2DE
100
AcDbEntity
  8
001
  6
CONTINUOUS
 62
     7
100
AcDbLine
 10
987.0
 20
927.25
 30
0.0
 11
940.5
 21
927.25
 31
0.0
  0
LINE
  5
2DF
100
AcDbEntity
  8
001
  6
CONTINUOUS
 62
     7
100
AcDbLine
 10
987.0
 20
880.25
 30
0.0
 11
940.5
 21
880.25
 31
0.0
  0
LINE
  5
2E0
100
AcDbEntity
  8
001
  6
CONTINUOUS
 62
     7
100
AcDbLine
 10
984.5
 20
867.25
 30
0.0
 11
943.0
 21
867.25
 31
0.0
  0
LINE
  5
2E1
100
AcDbEntity
  8
001
  6
CONTINUOUS
 62
     7
100
AcDbLine
 10
955.0
 20
1539.089722
 30
0.0
 11
955.0
 21
1556.410278
 31
0.0
  0
LINE
  5
2E2
100
AcDbEntity
  8
001
  6
CONTINUOUS
 62
     7
100
AcDbLine
 10
985.0
 20
1556.410278
 30
0.0
 11
985.0
 21
1539.089722
 31
0.0
  0
CIRCLE
  5
2E3
100
AcDbEntity
  8
001
  6
CONTINUOUS
 62
     7
100
AcDbCircle
 10
970.0
 20
1547.75
 30
0.0
 40
14.5
  0
LINE
  5
2E4
100
AcDbEntity
  8
001
  6
CONTINUOUS
 62
     7
100
AcDbLine
 10
970.0
 20
1565.070557
 30
0.0
 11
985.0
 21
1556.410278
 31
0.0
  0
LINE
  5
2E5
100
AcDbEntity
  8
001
  6
CONTINUOUS
 62
     7
100
AcDbLine
 10
970.0
 20
1530.429443
 30
0.0
 11
955.0
 21
1539.089722
 31
0.0
  0
LINE
  5
2E6
100
AcDbEntity
  8
001
  6
CONTINUOUS
 62
     7
100
AcDbLine
 10
955.0
 20
1556.410278
 30
0.0
 11
970.0
 21
1565.070557
 31
0.0
  0
LINE
  5
2E7
100
AcDbEntity
  8
001
  6
CONTINUOUS
 62
     7
100
AcDbLine
 10
970.0
 20
1530.429443
 30
0.0
 11
985.0
 21
1539.089722
 31
0.0
  0
CIRCLE
  5
2E8
100
AcDbEntity
  8
001
  6
CONTINUOUS
 62
     7
100
AcDbCircle
 10
970.0
 20
1547.75
 30
0.0
 40
10.0
  0
LINE
  5
2E9
100
AcDbEntity
  8
001
  6
CONTINUOUS
 62
     7
100
AcDbLine
 10
1011.5
 20
1450.589722
 30
0.0
 11
1011.5
 21
1467.910278
 31
0.0
  0
LINE
  5
2EA
100
AcDbEntity
  8
001
  6
CONTINUOUS
 62
     7
100
AcDbLine
 10
1041.5
 20
1467.910278
 30
0.0
 11
1041.5
 21
1450.589722
 31
0.0
  0
CIRCLE
  5
2EB
100
AcDbEntity
  8
001
  6
CONTINUOUS
 62
     7
100
AcDbCircle
 10
1026.5
 20
1459.25
 30
0.0
 40
14.5
  0
LINE
  5
2EC
100
AcDbEntity
  8
001
  6
CONTINUOUS
 62
     7
100
AcDbLine
 10
1026.5
 20
1476.570557
 30
0.0
 11
1041.5
 21
1467.910278
 31
0.0
  0
LINE
  5
2ED
100
AcDbEntity
  8
001
  6
CONTINUOUS
 62
     7
100
AcDbLine
 10
1026.5
 20
1441.929443
 30
0.0
 11
1011.5
 21
1450.589722
 31
0.0
  0
LINE
  5
2EE
100
AcDbEntity
  8
001
  6
CONTINUOUS
 62
     7
100
AcDbLine
 10
1011.5
 20
1467.910278
 30
0.0
 11
1026.5
 21
1476.570557
 31
0.0
  0
LINE
  5
2EF
100
AcDbEntity
  8
001
  6
CONTINUOUS
 62
     7
100
AcDbLine
 10
1026.5
 20
1441.929443
 30
0.0
 11
1041.5
 21
1450.589722
 31
0.0
  0
CIRCLE
  5
2F0
100
AcDbEntity
  8
001
  6
CONTINUOUS
 62
     7
100
AcDbCircle
 10
1026.5
 20
1459.25
 30
0.0
 40
10.0
  0
LINE
  5
2F1
100
AcDbEntity
  8
001
  6
CONTINUOUS
 62
     7
100
AcDbLine
 10
1139.5
 20
1450.589722
 30
0.0
 11
1139.5
 21
1467.910278
 31
0.0
  0
LINE
  5
2F2
100
AcDbEntity
  8
001
  6
CONTINUOUS
 62
     7
100
AcDbLine
 10
1169.5
 20
1467.910278
 30
0.0
 11
1169.5
 21
1450.589722
 31
0.0
  0
CIRCLE
  5
2F3
100
AcDbEntity
  8
001
  6
CONTINUOUS
 62
     7
100
AcDbCircle
 10
1154.5
 20
1459.25
 30
0.0
 40
14.5
  0
LINE
  5
2F4
100
AcDbEntity
  8
001
  6
CONTINUOUS
 62
     7
100
AcDbLine
 10
1154.5
 20
1476.570557
 30
0.0
 11
1169.5
 21
1467.910278
 31
0.0
  0
LINE
  5
2F5
100
AcDbEntity
  8
001
  6
CONTINUOUS
 62
     7
100
AcDbLine
 10
1154.5
 20
1441.929443
 30
0.0
 11
1139.5
 21
1450.589722
 31
0.0
  0
LINE
  5
2F6
100
AcDbEntity
  8
001
  6
CONTINUOUS
 62
     7
100
AcDbLine
 10
1139.5
 20
1467.910278
 30
0.0
 11
1154.5
 21
1476.570557
 31
0.0
  0
LINE
  5
2F7
100
AcDbEntity
  8
001
  6
CONTINUOUS
 62
     7
100
AcDbLine
 10
1154.5
 20
1441.929443
 30
0.0
 11
1169.5
 21
1450.589722
 31
0.0
  0
CIRCLE
  5
2F8
100
AcDbEntity
  8
001
  6
CONTINUOUS
 62
     7
100
AcDbCircle
 10
1154.5
 20
1459.25
 30
0.0
 40
10.0
  0
LINE
  5
2F9
100
AcDbEntity
  8
001
  6
CONTINUOUS
 62
     7
100
AcDbLine
 10
1196.0
 20
1539.089722
 30
0.0
 11
1196.0
 21
1556.410278
 31
0.0
  0
LINE
  5
2FA
100
AcDbEntity
  8
001
  6
CONTINUOUS
 62
     7
100
AcDbLine
 10
1226.0
 20
1556.410278
 30
0.0
 11
1226.0
 21
1539.089722
 31
0.0
  0
CIRCLE
  5
2FB
100
AcDbEntity
  8
001
  6
CONTINUOUS
 62
     7
100
AcDbCircle
 10
1211.0
 20
1547.75
 30
0.0
 40
14.5
  0
LINE
  5
2FC
100
AcDbEntity
  8
001
  6
CONTINUOUS
 62
     7
100
AcDbLine
 10
1211.0
 20
1565.070557
 30
0.0
 11
1226.0
 21
1556.410278
 31
0.0
  0
LINE
  5
2FD
100
AcDbEntity
  8
001
  6
CONTINUOUS
 62
     7
100
AcDbLine
 10
1211.0
 20
1530.429443
 30
0.0
 11
1196.0
 21
1539.089722
 31
0.0
  0
LINE
  5
2FE
100
AcDbEntity
  8
001
  6
CONTINUOUS
 62
     7
100
AcDbLine
 10
1196.0
 20
1556.410278
 30
0.0
 11
1211.0
 21
1565.070557
 31
0.0
  0
LINE
  5
2FF
100
AcDbEntity
  8
001
  6
CONTINUOUS
 62
     7
100
AcDbLine
 10
1211.0
 20
1530.429443
 30
0.0
 11
1226.0
 21
1539.089722
 31
0.0
  0
CIRCLE
  5
300
100
AcDbEntity
  8
001
  6
CONTINUOUS
 62
     7
100
AcDbCircle
 10
1211.0
 20
1547.75
 30
0.0
 40
10.0
  0
LINE
  5
301
100
AcDbEntity
  8
001
  6
CONTINUOUS
 62
     7
100
AcDbLine
 10
1208.5
 20
1625.089722
 30
0.0
 11
1208.5
 21
1642.410278
 31
0.0
  0
LINE
  5
302
100
AcDbEntity
  8
001
  6
CONTINUOUS
 62
     7
100
AcDbLine
 10
1238.5
 20
1642.410278
 30
0.0
 11
1238.5
 21
1625.089722
 31
0.0
  0
CIRCLE
  5
303
100
AcDbEntity
  8
001
  6
CONTINUOUS
 62
     7
100
AcDbCircle
 10
1223.5
 20
1633.75
 30
0.0
 40
14.5
  0
LINE
  5
304
100
AcDbEntity
  8
001
  6
CONTINUOUS
 62
     7
100
AcDbLine
 10
1223.5
 20
1651.070557
 30
0.0
 11
1238.5
 21
1642.410278
 31
0.0
  0
LINE
  5
305
100
AcDbEntity
  8
001
  6
CONTINUOUS
 62
     7
100
AcDbLine
 10
1223.5
 20
1616.429443
 30
0.0
 11
1208.5
 21
1625.089722
 31
0.0
  0
LINE
  5
306
100
AcDbEntity
  8
001
  6
CONTINUOUS
 62
     7
100
AcDbLine
 10
1208.5
 20
1642.410278
 30
0.0
 11
1223.5
 21
1651.070557
 31
0.0
  0
LINE
  5
307
100
AcDbEntity
  8
001
  6
CONTINUOUS
 62
     7
100
AcDbLine
 10
1223.5
 20
1616.429443
 30
0.0
 11
1238.5
 21
1625.089722
 31
0.0
  0
CIRCLE
  5
308
100
AcDbEntity
  8
001
  6
CONTINUOUS
 62
     7
100
AcDbCircle
 10
1223.5
 20
1633.75
 30
0.0
 40
10.0
  0
LINE
  5
309
100
AcDbEntity
  8
001
  6
CONTINUOUS
 62
     7
100
AcDbLine
 10
1208.5
 20
1723.089722
 30
0.0
 11
1208.5
 21
1740.410278
 31
0.0
  0
LINE
  5
30A
100
AcDbEntity
  8
001
  6
CONTINUOUS
 62
     7
100
AcDbLine
 10
1238.5
 20
1740.410278
 30
0.0
 11
1238.5
 21
1723.089722
 31
0.0
  0
CIRCLE
  5
30B
100
AcDbEntity
  8
001
  6
CONTINUOUS
 62
     7
100
AcDbCircle
 10
1223.5
 20
1731.75
 30
0.0
 40
14.5
  0
LINE
  5
30C
100
AcDbEntity
  8
001
  6
CONTINUOUS
 62
     7
100
AcDbLine
 10
1223.5
 20
1749.070557
 30
0.0
 11
1238.5
 21
1740.410278
 31
0.0
  0
LINE
  5
30D
100
AcDbEntity
  8
001
  6
CONTINUOUS
 62
     7
100
AcDbLine
 10
1223.5
 20
1714.429443
 30
0.0
 11
1208.5
 21
1723.089722
 31
0.0
  0
LINE
  5
30E
100
AcDbEntity
  8
001
  6
CONTINUOUS
 62
     7
100
AcDbLine
 10
1208.5
 20
1740.410278
 30
0.0
 11
1223.5
 21
1749.070557
 31
0.0
  0
LINE
  5
30F
100
AcDbEntity
  8
001
  6
CONTINUOUS
 62
     7
100
AcDbLine
 10
1223.5
 20
1714.429443
 30
0.0
 11
1238.5
 21
1723.089722
 31
0.0
  0
CIRCLE
  5
310
100
AcDbEntity
  8
001
  6
CONTINUOUS
 62
     7
100
AcDbCircle
 10
1223.5
 20
1731.75
 30
0.0
 40
10.0
  0
LINE
  5
311
100
AcDbEntity
  8
001
  6
CONTINUOUS
 62
     7
100
AcDbLine
 10
1196.0
 20
1809.089722
 30
0.0
 11
1196.0
 21
1826.410278
 31
0.0
  0
LINE
  5
312
100
AcDbEntity
  8
001
  6
CONTINUOUS
 62
     7
100
AcDbLine
 10
1226.0
 20
1826.410278
 30
0.0
 11
1226.0
 21
1809.089722
 31
0.0
  0
CIRCLE
  5
313
100
AcDbEntity
  8
001
  6
CONTINUOUS
 62
     7
100
AcDbCircle
 10
1211.0
 20
1817.75
 30
0.0
 40
14.5
  0
LINE
  5
314
100
AcDbEntity
  8
001
  6
CONTINUOUS
 62
     7
100
AcDbLine
 10
1211.0
 20
1835.070557
 30
0.0
 11
1226.0
 21
1826.410278
 31
0.0
  0
LINE
  5
315
100
AcDbEntity
  8
001
  6
CONTINUOUS
 62
     7
100
AcDbLine
 10
1211.0
 20
1800.429443
 30
0.0
 11
1196.0
 21
1809.089722
 31
0.0
  0
LINE
  5
316
100
AcDbEntity
  8
001
  6
CONTINUOUS
 62
     7
100
AcDbLine
 10
1196.0
 20
1826.410278
 30
0.0
 11
1211.0
 21
1835.070557
 31
0.0
  0
LINE
  5
317
100
AcDbEntity
  8
001
  6
CONTINUOUS
 62
     7
100
AcDbLine
 10
1211.0
 20
1800.429443
 30
0.0
 11
1226.0
 21
1809.089722
 31
0.0
  0
CIRCLE
  5
318
100
AcDbEntity
  8
001
  6
CONTINUOUS
 62
     7
100
AcDbCircle
 10
1211.0
 20
1817.75
 30
0.0
 40
10.0
  0
LINE
  5
319
100
AcDbEntity
  8
001
  6
CONTINUOUS
 62
     7
100
AcDbLine
 10
1139.5
 20
1897.589722
 30
0.0
 11
1139.5
 21
1914.910278
 31
0.0
  0
LINE
  5
31A
100
AcDbEntity
  8
001
  6
CONTINUOUS
 62
     7
100
AcDbLine
 10
1169.5
 20
1914.910278
 30
0.0
 11
1169.5
 21
1897.589722
 31
0.0
  0
CIRCLE
  5
31B
100
AcDbEntity
  8
001
  6
CONTINUOUS
 62
     7
100
AcDbCircle
 10
1154.5
 20
1906.25
 30
0.0
 40
14.5
  0
LINE
  5
31C
100
AcDbEntity
  8
001
  6
CONTINUOUS
 62
     7
100
AcDbLine
 10
1154.5
 20
1923.570557
 30
0.0
 11
1169.5
 21
1914.910278
 31
0.0
  0
LINE
  5
31D
100
AcDbEntity
  8
001
  6
CONTINUOUS
 62
     7
100
AcDbLine
 10
1154.5
 20
1888.929443
 30
0.0
 11
1139.5
 21
1897.589722
 31
0.0
  0
LINE
  5
31E
100
AcDbEntity
  8
001
  6
CONTINUOUS
 62
     7
100
AcDbLine
 10
1139.5
 20
1914.910278
 30
0.0
 11
1154.5
 21
1923.570557
 31
0.0
  0
LINE
  5
31F
100
AcDbEntity
  8
001
  6
CONTINUOUS
 62
     7
100
AcDbLine
 10
1154.5
 20
1888.929443
 30
0.0
 11
1169.5
 21
1897.589722
 31
0.0
  0
CIRCLE
  5
320
100
AcDbEntity
  8
001
  6
CONTINUOUS
 62
     7
100
AcDbCircle
 10
1154.5
 20
1906.25
 30
0.0
 40
10.0
  0
LINE
  5
321
100
AcDbEntity
  8
001
  6
CONTINUOUS
 62
     7
100
AcDbLine
 10
1011.5
 20
1897.589722
 30
0.0
 11
1011.5
 21
1914.910278
 31
0.0
  0
LINE
  5
322
100
AcDbEntity
  8
001
  6
CONTINUOUS
 62
     7
100
AcDbLine
 10
1041.5
 20
1914.910278
 30
0.0
 11
1041.5
 21
1897.589722
 31
0.0
  0
CIRCLE
  5
323
100
AcDbEntity
  8
001
  6
CONTINUOUS
 62
     7
100
AcDbCircle
 10
1026.5
 20
1906.25
 30
0.0
 40
14.5
  0
LINE
  5
324
100
AcDbEntity
  8
001
  6
CONTINUOUS
 62
     7
100
AcDbLine
 10
1026.5
 20
1923.570557
 30
0.0
 11
1041.5
 21
1914.910278
 31
0.0
  0
LINE
  5
325
100
AcDbEntity
  8
001
  6
CONTINUOUS
 62
     7
100
AcDbLine
 10
1026.5
 20
1888.929443
 30
0.0
 11
1011.5
 21
1897.589722
 31
0.0
  0
LINE
  5
326
100
AcDbEntity
  8
001
  6
CONTINUOUS
 62
     7
100
AcDbLine
 10
1011.5
 20
1914.910278
 30
0.0
 11
1026.5
 21
1923.570557
 31
0.0
  0
LINE
  5
327
100
AcDbEntity
  8
001
  6
CONTINUOUS
 62
     7
100
AcDbLine
 10
1026.5
 20
1888.929443
 30
0.0
 11
1041.5
 21
1897.589722
 31
0.0
  0
CIRCLE
  5
328
100
AcDbEntity
  8
001
  6
CONTINUOUS
 62
     7
100
AcDbCircle
 10
1026.5
 20
1906.25
 30
0.0
 40
10.0
  0
LINE
  5
329
100
AcDbEntity
  8
001
  6
CONTINUOUS
 62
     7
100
AcDbLine
 10
955.0
 20
1809.089722
 30
0.0
 11
955.0
 21
1826.410278
 31
0.0
  0
LINE
  5
32A
100
AcDbEntity
  8
001
  6
CONTINUOUS
 62
     7
100
AcDbLine
 10
985.0
 20
1826.410278
 30
0.0
 11
985.0
 21
1809.089722
 31
0.0
  0
CIRCLE
  5
32B
100
AcDbEntity
  8
001
  6
CONTINUOUS
 62
     7
100
AcDbCircle
 10
970.0
 20
1817.75
 30
0.0
 40
14.5
  0
LINE
  5
32C
100
AcDbEntity
  8
001
  6
CONTINUOUS
 62
     7
100
AcDbLine
 10
970.0
 20
1835.070557
 30
0.0
 11
985.0
 21
1826.410278
 31
0.0
  0
LINE
  5
32D
100
AcDbEntity
  8
001
  6
CONTINUOUS
 62
     7
100
AcDbLine
 10
970.0
 20
1800.429443
 30
0.0
 11
955.0
 21
1809.089722
 31
0.0
  0
LINE
  5
32E
100
AcDbEntity
  8
001
  6
CONTINUOUS
 62
     7
100
AcDbLine
 10
955.0
 20
1826.410278
 30
0.0
 11
970.0
 21
1835.070557
 31
0.0
  0
LINE
  5
32F
100
AcDbEntity
  8
001
  6
CONTINUOUS
 62
     7
100
AcDbLine
 10
970.0
 20
1800.429443
 30
0.0
 11
985.0
 21
1809.089722
 31
0.0
  0
CIRCLE
  5
330
100
AcDbEntity
  8
001
  6
CONTINUOUS
 62
     7
100
AcDbCircle
 10
970.0
 20
1817.75
 30
0.0
 40
10.0
  0
LINE
  5
331
100
AcDbEntity
  8
001
  6
CONTINUOUS
 62
     7
100
AcDbLine
 10
942.5
 20
1723.089722
 30
0.0
 11
942.5
 21
1740.410278
 31
0.0
  0
LINE
  5
332
100
AcDbEntity
  8
001
  6
CONTINUOUS
 62
     7
100
AcDbLine
 10
972.5
 20
1740.410278
 30
0.0
 11
972.5
 21
1723.089722
 31
0.0
  0
CIRCLE
  5
333
100
AcDbEntity
  8
001
  6
CONTINUOUS
 62
     7
100
AcDbCircle
 10
957.5
 20
1731.75
 30
0.0
 40
14.5
  0
LINE
  5
334
100
AcDbEntity
  8
001
  6
CONTINUOUS
 62
     7
100
AcDbLine
 10
957.5
 20
1749.070557
 30
0.0
 11
972.5
 21
1740.410278
 31
0.0
  0
LINE
  5
335
100
AcDbEntity
  8
001
  6
CONTINUOUS
 62
     7
100
AcDbLine
 10
957.5
 20
1714.429443
 30
0.0
 11
942.5
 21
1723.089722
 31
0.0
  0
LINE
  5
336
100
AcDbEntity
  8
001
  6
CONTINUOUS
 62
     7
100
AcDbLine
 10
942.5
 20
1740.410278
 30
0.0
 11
957.5
 21
1749.070557
 31
0.0
  0
LINE
  5
337
100
AcDbEntity
  8
001
  6
CONTINUOUS
 62
     7
100
AcDbLine
 10
957.5
 20
1714.429443
 30
0.0
 11
972.5
 21
1723.089722
 31
0.0
  0
CIRCLE
  5
338
100
AcDbEntity
  8
001
  6
CONTINUOUS
 62
     7
100
AcDbCircle
 10
957.5
 20
1731.75
 30
0.0
 40
10.0
  0
LINE
  5
339
100
AcDbEntity
  8
001
  6
CONTINUOUS
 62
     7
100
AcDbLine
 10
942.5
 20
1625.089722
 30
0.0
 11
942.5
 21
1642.410278
 31
0.0
  0
LINE
  5
33A
100
AcDbEntity
  8
001
  6
CONTINUOUS
 62
     7
100
AcDbLine
 10
972.5
 20
1642.410278
 30
0.0
 11
972.5
 21
1625.089722
 31
0.0
  0
CIRCLE
  5
33B
100
AcDbEntity
  8
001
  6
CONTINUOUS
 62
     7
100
AcDbCircle
 10
957.5
 20
1633.75
 30
0.0
 40
14.5
  0
LINE
  5
33C
100
AcDbEntity
  8
001
  6
CONTINUOUS
 62
     7
100
AcDbLine
 10
957.5
 20
1651.070557
 30
0.0
 11
972.5
 21
1642.410278
 31
0.0
  0
LINE
  5
33D
100
AcDbEntity
  8
001
  6
CONTINUOUS
 62
     7
100
AcDbLine
 10
957.5
 20
1616.429443
 30
0.0
 11
942.5
 21
1625.089722
 31
0.0
  0
LINE
  5
33E
100
AcDbEntity
  8
001
  6
CONTINUOUS
 62
     7
100
AcDbLine
 10
942.5
 20
1642.410278
 30
0.0
 11
957.5
 21
1651.070557
 31
0.0
  0
LINE
  5
33F
100
AcDbEntity
  8
001
  6
CONTINUOUS
 62
     7
100
AcDbLine
 10
957.5
 20
1616.429443
 30
0.0
 11
972.5
 21
1625.089722
 31
0.0
  0
CIRCLE
  5
340
100
AcDbEntity
  8
001
  6
CONTINUOUS
 62
     7
100
AcDbCircle
 10
957.5
 20
1633.75
 30
0.0
 40
10.0
  0
LINE
  5
341
100
AcDbEntity
  8
001
  6
CONTINUOUS
 62
     7
100
AcDbLine
 10
1382.935791
 20
728.862183
 30
0.0
 11
1300.5
 21
721.650024
 31
0.0
  0
LINE
  5
342
100
AcDbEntity
  8
001
  6
CONTINUOUS
 62
     7
100
AcDbLine
 10
1395.5
 20
767.75
 30
0.0
 11
1410.5
 21
767.75
 31
0.0
  0
ARC
  5
343
100
AcDbEntity
  8
001
  6
CONTINUOUS
 62
     7
100
AcDbCircle
 10
1395.5
 20
759.75
 30
0.0
 40
8.0
100
AcDbArc
 50
90.0
 51
180.0
  0
ARC
  5
344
100
AcDbEntity
  8
001
  6
CONTINUOUS
 62
     7
100
AcDbCircle
 10
1382.5
 20
733.843155
 30
0.0
 40
5.0
100
AcDbArc
 50
275.000142
 51
0.0
  0
ARC
  5
345
100
AcDbEntity
  8
001
  6
CONTINUOUS
 62
     7
100
AcDbCircle
 10
1302.766175
 20
695.748973
 30
0.0
 40
26.0
100
AcDbArc
 50
95.000278
 51
125.551703
  0
LINE
  5
346
100
AcDbEntity
  8
001
  6
CONTINUOUS
 62
     7
100
AcDbLine
 10
1192.535034
 20
706.650024
 30
0.0
 11
1255.669922
 21
706.650024
 31
0.0
  0
ARC
  5
347
100
AcDbEntity
  8
001
  6
CONTINUOUS
 62
     7
100
AcDbCircle
 10
1255.669981
 20
761.650024
 30
0.0
 40
55.0
100
AcDbArc
 50
269.999938
 51
305.551405
  0
CIRCLE
  5
348
100
AcDbEntity
  8
001
  6
CONTINUOUS
 62
     7
100
AcDbCircle
 10
2013.0
 20
545.25
 30
0.0
 40
150.0
  0
CIRCLE
  5
349
100
AcDbEntity
  8
001
  6
CONTINUOUS
 62
     7
100
AcDbCircle
 10
2013.0
 20
545.25
 30
0.0
 40
163.399994
  0
CIRCLE
  5
34A
100
AcDbEntity
  8
001
  6
CONTINUOUS
 62
     7
100
AcDbCircle
 10
2013.0
 20
545.25
 30
0.0
 40
167.358353
  0
CIRCLE
  5
34B
100
AcDbEntity
  8
001
  6
CONTINUOUS
 62
     7
100
AcDbCircle
 10
2013.0
 20
545.25
 30
0.0
 40
178.399994
  0
LINE
  5
34C
100
AcDbEntity
  8
001
  6
CONTINUOUS
 62
     7
100
AcDbLine
 10
2250.0
 20
776.75
 30
0.0
 11
1776.0
 21
776.75
 31
0.0
  0
LINE
  5
34D
100
AcDbEntity
  8
001
  6
CONTINUOUS
 62
     7
100
AcDbLine
 10
2208.0
 20
762.25
 30
0.0
 11
2062.165527
 21
762.25
 31
0.0
  0
LINE
  5
34E
100
AcDbEntity
  8
001
  6
CONTINUOUS
 62
     7
100
AcDbLine
 10
2250.0
 20
763.75
 30
0.0
 11
2055.0
 21
763.75
 31
0.0
  0
LINE
  5
34F
100
AcDbEntity
  8
001
  6
CONTINUOUS
 62
     7
100
AcDbLine
 10
1963.834473
 20
762.25
 30
0.0
 11
1818.0
 21
762.25
 31
0.0
  0
LINE
  5
350
100
AcDbEntity
  8
001
  6
CONTINUOUS
 62
     7
100
AcDbLine
 10
1971.0
 20
763.75
 30
0.0
 11
1776.0
 21
763.75
 31
0.0
  0
ARC
  5
351
100
AcDbEntity
  8
001
  6
CONTINUOUS
 62
     7
100
AcDbCircle
 10
1192.535061
 20
716.650024
 30
0.0
 40
10.0
100
AcDbArc
 50
167.500167
 51
269.999846
  0
LINE
  5
352
100
AcDbEntity
  8
001
  6
CONTINUOUS
 62
     7
100
AcDbLine
 10
1382.935791
 20
361.637817
 30
0.0
 11
1300.5
 21
368.850006
 31
0.0
  0
ARC
  5
353
100
AcDbEntity
  8
001
  6
CONTINUOUS
 62
     7
100
AcDbCircle
 10
1382.5
 20
356.656845
 30
0.0
 40
5.0
100
AcDbArc
 50
0.0
 51
84.999858
  0
ARC
  5
354
100
AcDbEntity
  8
001
  6
CONTINUOUS
 62
     7
100
AcDbCircle
 10
1302.766078
 20
394.751066
 30
0.0
 40
26.0
100
AcDbArc
 50
234.448561
 51
264.999937
  0
LINE
  5
355
100
AcDbEntity
  8
001
  6
CONTINUOUS
 62
     7
100
AcDbLine
 10
963.5
 20
383.850006
 30
0.0
 11
1255.669922
 21
383.850006
 31
0.0
  0
ARC
  5
356
100
AcDbEntity
  8
001
  6
CONTINUOUS
 62
     7
100
AcDbCircle
 10
1255.669896
 20
328.850006
 30
0.0
 40
55.0
100
AcDbArc
 50
54.448486
 51
89.999973
  0
LINE
  5
357
100
AcDbEntity
  8
001
  6
CONTINUOUS
 62
     7
100
AcDbLine
 10
1395.5
 20
322.25
 30
0.0
 11
1410.5
 21
322.25
 31
0.0
  0
ARC
  5
358
100
AcDbEntity
  8
001
  6
CONTINUOUS
 62
     7
100
AcDbCircle
 10
1395.5
 20
330.25
 30
0.0
 40
8.0
100
AcDbArc
 50
180.0
 51
270.0
  0
LINE
  5
359
100
AcDbEntity
  8
001
  6
CONTINUOUS
 62
     7
100
AcDbLine
 10
1410.5
 20
322.25
 30
0.0
 11
1410.5
 21
767.75
 31
0.0
  0
LINE
  5
35A
100
AcDbEntity
  8
001
  6
CONTINUOUS
 62
     7
100
AcDbLine
 10
1387.5
 20
759.75
 30
0.0
 11
1387.5
 21
330.25
 31
0.0
  0
LINE
  5
35B
100
AcDbEntity
  8
001
  6
CONTINUOUS
 62
     7
100
AcDbLine
 10
1292.680786
 20
706.521484
 30
0.0
 11
1292.680786
 21
383.978546
 31
0.0
  0
LINE
  5
35C
100
AcDbEntity
  8
001
  6
CONTINUOUS
 62
     7
100
AcDbLine
 10
480.5
 20
383.850006
 30
0.0
 11
480.5
 21
706.650024
 31
0.0
  0
LINE
  5
35D
100
AcDbEntity
  8
001
  6
CONTINUOUS
 62
     7
100
AcDbLine
 10
988.465027
 20
706.650024
 30
0.0
 11
480.5
 21
706.650024
 31
0.0
  0
LINE
  5
35E
100
AcDbEntity
  8
001
  6
CONTINUOUS
 62
     7
100
AcDbLine
 10
937.5
 20
383.850006
 30
0.0
 11
480.5
 21
383.850006
 31
0.0
  0
ARC
  5
35F
100
AcDbEntity
  8
001
  6
CONTINUOUS
 62
     7
100
AcDbCircle
 10
988.465
 20
716.650024
 30
0.0
 40
10.0
100
AcDbArc
 50
270.000154
 51
12.499833
  0
LINE
  5
360
100
AcDbEntity
  8
001
  6
CONTINUOUS
 62
     7
100
AcDbLine
 10
940.5
 20
434.881073
 30
0.0
 11
940.5
 21
324.25
 31
0.0
  0
LINE
  5
361
100
AcDbEntity
  8
001
  6
CONTINUOUS
 62
     7
100
AcDbLine
 10
960.5
 20
434.881073
 30
0.0
 11
960.5
 21
324.25
 31
0.0
  0
LINE
  5
362
100
AcDbEntity
  8
001
  6
CONTINUOUS
 62
     7
100
AcDbLine
 10
958.5
 20
322.25
 30
0.0
 11
942.5
 21
322.25
 31
0.0
  0
ARC
  5
363
100
AcDbEntity
  8
001
  6
CONTINUOUS
 62
     7
100
AcDbCircle
 10
942.5
 20
324.25
 30
0.0
 40
2.0
100
AcDbArc
 50
180.0
 51
270.0
  0
ARC
  5
364
100
AcDbEntity
  8
001
  6
CONTINUOUS
 62
     7
100
AcDbCircle
 10
958.5
 20
324.25
 30
0.0
 40
2.0
100
AcDbArc
 50
270.0
 51
0.0
  0
ARC
  5
365
100
AcDbEntity
  8
001
  6
CONTINUOUS
 62
     7
100
AcDbCircle
 10
937.5
 20
380.850006
 30
0.0
 40
3.0
100
AcDbArc
 50
0.0
 51
90.0
  0
ARC
  5
366
100
AcDbEntity
  8
001
  6
CONTINUOUS
 62
     7
100
AcDbCircle
 10
963.5
 20
380.850006
 30
0.0
 40
3.0
100
AcDbArc
 50
90.0
 51
180.0
  0
LINE
  5
367
100
AcDbEntity
  8
001
  6
CONTINUOUS
 62
     7
100
AcDbLine
 10
1895.0
 20
322.25
 30
0.0
 11
2131.0
 21
322.25
 31
0.0
  0
LINE
  5
368
100
AcDbEntity
  8
001
  6
CONTINUOUS
 62
     7
100
AcDbLine
 10
2133.0
 20
324.25
 30
0.0
 11
2133.0
 21
356.79245
 31
0.0
  0
LINE
  5
369
100
AcDbEntity
  8
001
  6
CONTINUOUS
 62
     7
100
AcDbLine
 10
1893.0
 20
356.79245
 30
0.0
 11
1893.0
 21
324.25
 31
0.0
  0
ARC
  5
36A
100
AcDbEntity
  8
001
  6
CONTINUOUS
 62
     7
100
AcDbCircle
 10
2135.0
 20
356.79247
 30
0.0
 40
2.0
100
AcDbArc
 50
122.919285
 51
180.000575
  0
ARC
  5
36B
100
AcDbEntity
  8
001
  6
CONTINUOUS
 62
     7
100
AcDbCircle
 10
2013.0
 20
545.250025
 30
0.0
 40
222.5
100
AcDbArc
 50
302.917413
 51
237.082587
  0
ARC
  5
36C
100
AcDbEntity
  8
001
  6
CONTINUOUS
 62
     7
100
AcDbCircle
 10
2131.0
 20
324.25
 30
0.0
 40
2.0
100
AcDbArc
 50
270.0
 51
0.0
  0
ARC
  5
36D
100
AcDbEntity
  8
001
  6
CONTINUOUS
 62
     7
100
AcDbCircle
 10
1895.0
 20
324.25
 30
0.0
 40
2.0
100
AcDbArc
 50
180.0
 51
270.0
  0
ARC
  5
36E
100
AcDbEntity
  8
001
  6
CONTINUOUS
 62
     7
100
AcDbCircle
 10
1891.0
 20
356.79247
 30
0.0
 40
2.0
100
AcDbArc
 50
0.0
 51
57.080715
  0
ARC
  5
36F
100
AcDbEntity
  8
001
  6
CONTINUOUS
 62
     7
100
AcDbCircle
 10
937.5
 20
434.881073
 30
0.0
 40
3.0
100
AcDbArc
 50
0.0
 51
90.0
  0
ARC
  5
370
100
AcDbEntity
  8
001
  6
CONTINUOUS
 62
     7
100
AcDbCircle
 10
963.5
 20
434.881073
 30
0.0
 40
3.0
100
AcDbArc
 50
90.0
 51
180.0
  0
LINE
  5
371
100
AcDbEntity
  8
001
  6
CONTINUOUS
 62
     7
100
AcDbLine
 10
940.5
 20
437.881073
 30
0.0
 11
960.5
 21
437.881073
 31
0.0
  0
LINE
  5
372
100
AcDbEntity
  8
001
  6
CONTINUOUS
 62
     7
100
AcDbLine
 10
1382.935791
 20
1499.137817
 30
0.0
 11
1300.5
 21
1506.349976
 31
0.0
  0
ARC
  5
373
100
AcDbEntity
  8
001
  6
CONTINUOUS
 62
     7
100
AcDbCircle
 10
1382.5
 20
1494.156845
 30
0.0
 40
5.0
100
AcDbArc
 50
0.000176
 51
84.999858
  0
ARC
  5
374
100
AcDbEntity
  8
001
  6
CONTINUOUS
 62
     7
100
AcDbCircle
 10
1302.766175
 20
1532.251027
 30
0.0
 40
26.0
100
AcDbArc
 50
234.448297
 51
264.999722
  0
ARC
  5
375
100
AcDbEntity
  8
001
  6
CONTINUOUS
 62
     7
100
AcDbCircle
 10
1255.669981
 20
1466.349976
 30
0.0
 40
55.0
100
AcDbArc
 50
54.448595
 51
90.000062
  0
LINE
  5
376
100
AcDbEntity
  8
001
  6
CONTINUOUS
 62
     7
100
AcDbLine
 10
1395.5
 20
1459.75
 30
0.0
 11
1410.5
 21
1459.75
 31
0.0
  0
ARC
  5
377
100
AcDbEntity
  8
001
  6
CONTINUOUS
 62
     7
100
AcDbCircle
 10
1395.5
 20
1467.75
 30
0.0
 40
8.0
100
AcDbArc
 50
180.0
 51
270.0
  0
LINE
  5
378
100
AcDbEntity
  8
001
  6
CONTINUOUS
 62
     7
100
AcDbLine
 10
1410.5
 20
1459.75
 30
0.0
 11
1410.5
 21
1905.25
 31
0.0
  0
LINE
  5
379
100
AcDbEntity
  8
001
  6
CONTINUOUS
 62
     7
100
AcDbLine
 10
1387.5
 20
1897.25
 30
0.0
 11
1387.5
 21
1467.75
 31
0.0
  0
LINE
  5
37A
100
AcDbEntity
  8
001
  6
CONTINUOUS
 62
     7
100
AcDbLine
 10
1292.680786
 20
1844.021484
 30
0.0
 11
1292.680786
 21
1521.478516
 31
0.0
  0
LINE
  5
37B
100
AcDbEntity
  8
001
  6
CONTINUOUS
 62
     7
100
AcDbLine
 10
1382.935791
 20
1866.362183
 30
0.0
 11
1300.5
 21
1859.150024
 31
0.0
  0
LINE
  5
37C
100
AcDbEntity
  8
001
  6
CONTINUOUS
 62
     7
100
AcDbLine
 10
1395.5
 20
1905.25
 30
0.0
 11
1410.5
 21
1905.25
 31
0.0
  0
ARC
  5
37D
100
AcDbEntity
  8
001
  6
CONTINUOUS
 62
     7
100
AcDbCircle
 10
1395.5
 20
1897.25
 30
0.0
 40
8.0
100
AcDbArc
 50
90.0
 51
180.0
  0
ARC
  5
37E
100
AcDbEntity
  8
001
  6
CONTINUOUS
 62
     7
100
AcDbCircle
 10
1382.5
 20
1871.343155
 30
0.0
 40
5.0
100
AcDbArc
 50
275.000142
 51
0.0
  0
ARC
  5
37F
100
AcDbEntity
  8
001
  6
CONTINUOUS
 62
     7
100
AcDbCircle
 10
1302.766175
 20
1833.248973
 30
0.0
 40
26.0
100
AcDbArc
 50
95.000278
 51
125.551703
  0
ARC
  5
380
100
AcDbEntity
  8
001
  6
CONTINUOUS
 62
     7
100
AcDbCircle
 10
1255.669981
 20
1899.150024
 30
0.0
 40
55.0
100
AcDbArc
 50
269.999938
 51
305.551405
  0
LINE
  5
381
100
AcDbEntity
  8
001
  6
CONTINUOUS
 62
     7
100
AcDbLine
 10
480.5
 20
1521.349976
 30
0.0
 11
480.5
 21
1844.150024
 31
0.0
  0
LINE
  5
382
100
AcDbEntity
  8
001
  6
CONTINUOUS
 62
     7
100
AcDbLine
 10
480.5
 20
1521.349976
 30
0.0
 11
952.806946
 21
1521.349976
 31
0.0
  0
LINE
  5
383
100
AcDbEntity
  8
001
  6
CONTINUOUS
 62
     7
100
AcDbLine
 10
1228.192993
 20
1521.349976
 30
0.0
 11
1255.669922
 21
1521.349976
 31
0.0
  0
LINE
  5
384
100
AcDbEntity
  8
001
  6
CONTINUOUS
 62
     7
100
AcDbLine
 10
480.5
 20
1844.150024
 30
0.0
 11
952.806946
 21
1844.150024
 31
0.0
  0
LINE
  5
385
100
AcDbEntity
  8
001
  6
CONTINUOUS
 62
     7
100
AcDbLine
 10
1228.192993
 20
1844.150024
 30
0.0
 11
1255.669922
 21
1844.150024
 31
0.0
  0
CIRCLE
  5
386
100
AcDbEntity
  8
001
  6
CONTINUOUS
 62
     7
100
AcDbCircle
 10
2197.313965
 20
621.595337
 30
0.0
 40
11.5
  0
CIRCLE
  5
387
100
AcDbEntity
  8
001
  6
CONTINUOUS
 62
     7
100
AcDbCircle
 10
2089.345459
 20
729.563965
 30
0.0
 40
11.5
  0
CIRCLE
  5
388
100
AcDbEntity
  8
001
  6
CONTINUOUS
 62
     7
100
AcDbCircle
 10
1936.654663
 20
729.563965
 30
0.0
 40
11.5
  0
CIRCLE
  5
389
100
AcDbEntity
  8
001
  6
CONTINUOUS
 62
     7
100
AcDbCircle
 10
1828.686035
 20
621.595337
 30
0.0
 40
11.5
  0
CIRCLE
  5
38A
100
AcDbEntity
  8
001
  6
CONTINUOUS
 62
     7
100
AcDbCircle
 10
1828.686035
 20
468.904663
 30
0.0
 40
11.5
  0
CIRCLE
  5
38B
100
AcDbEntity
  8
001
  6
CONTINUOUS
 62
     7
100
AcDbCircle
 10
1936.654663
 20
360.936035
 30
0.0
 40
11.5
  0
CIRCLE
  5
38C
100
AcDbEntity
  8
001
  6
CONTINUOUS
 62
     7
100
AcDbCircle
 10
2089.345459
 20
360.936035
 30
0.0
 40
11.5
  0
CIRCLE
  5
38D
100
AcDbEntity
  8
001
  6
CONTINUOUS
 62
     7
100
AcDbCircle
 10
2197.313965
 20
468.904663
 30
0.0
 40
11.5
  0
LINE
  5
38E
100
AcDbEntity
  8
001
  6
CONTINUOUS
 62
     3
100
AcDbLine
 10
2282.0
 20
112.0
 30
0.0
 11
2835.0
 21
112.0
 31
0.0
  0
LINE
  5
38F
100
AcDbEntity
  8
001
  6
CONTINUOUS
 62
     2
100
AcDbLine
 10
2835.0
 20
70.0
 30
0.0
 11
2282.0
 21
70.0
 31
0.0
  0
LINE
  5
390
100
AcDbEntity
  8
001
  6
CONTINUOUS
 62
     2
100
AcDbLine
 10
2835.0
 20
248.5
 30
0.0
 11
2835.0
 21
70.0
 31
0.0
  0
LINE
  5
391
100
AcDbEntity
  8
001
  6
CONTINUOUS
 62
     2
100
AcDbLine
 10
2282.0
 20
248.5
 30
0.0
 11
2835.0
 21
248.5
 31
0.0
  0
LINE
  5
392
100
AcDbEntity
  8
001
  6
CONTINUOUS
 62
     2
100
AcDbLine
 10
2282.0
 20
248.5
 30
0.0
 11
2282.0
 21
70.0
 31
0.0
  0
LINE
  5
393
100
AcDbEntity
  8
001
  6
CONTINUOUS
 62
     7
100
AcDbLine
 10
1914.053467
 20
1037.68103
 30
0.0
 11
2111.946533
 21
1037.68103
 31
0.0
  0
LINE
  5
394
100
AcDbEntity
  8
001
  6
DASHDOT
 62
     1
100
AcDbLine
 10
2013.0
 20
1181.25
 30
0.0
 11
1976.75
 21
1181.25
 31
0.0
  0
LINE
  5
395
100
AcDbEntity
  8
001
  6
DASHDOT
 62
     1
100
AcDbLine
 10
1104.25
 20
1181.25
 30
0.0
 11
1076.75
 21
1181.25
 31
0.0
  0
LINE
  5
396
100
AcDbEntity
  8
001
  6
DASHDOT
 62
     1
100
AcDbLine
 10
1090.5
 20
348.850006
 30
0.0
 11
1090.5
 21
1290.25
 31
0.0
  0
LINE
  5
397
100
AcDbEntity
  8
001
  6
DASHDOT
 62
     1
100
AcDbLine
 10
1253.0
 20
770.25
 30
0.0
 11
928.0
 21
770.25
 31
0.0
  0
LINE
  5
398
100
AcDbEntity
  8
001
  6
DASHDOT
 62
     1
100
AcDbLine
 10
2270.5
 20
545.25
 30
0.0
 11
1755.5
 21
545.25
 31
0.0
  0
LINE
  5
399
100
AcDbEntity
  8
001
  6
DASHDOT
 62
     1
100
AcDbLine
 10
2013.0
 20
287.25
 30
0.0
 11
2013.0
 21
1290.25
 31
0.0
  0
LINE
  5
39A
100
AcDbEntity
  8
001
  6
DASHDOT
 62
     1
100
AcDbLine
 10
1154.5
 20
1485.320557
 30
0.0
 11
1154.5
 21
1433.179443
 31
0.0
  0
LINE
  5
39B
100
AcDbEntity
  8
001
  6
DASHDOT
 62
     1
100
AcDbLine
 10
1130.75
 20
1459.25
 30
0.0
 11
1178.25
 21
1459.25
 31
0.0
  0
LINE
  5
39C
100
AcDbEntity
  8
001
  6
DASHDOT
 62
     1
100
AcDbLine
 10
1026.5
 20
1485.320557
 30
0.0
 11
1026.5
 21
1433.179443
 31
0.0
  0
LINE
  5
39D
100
AcDbEntity
  8
001
  6
DASHDOT
 62
     1
100
AcDbLine
 10
1002.75
 20
1459.25
 30
0.0
 11
1050.25
 21
1459.25
 31
0.0
  0
LINE
  5
39E
100
AcDbEntity
  8
001
  6
DASHDOT
 62
     1
100
AcDbLine
 10
1002.75
 20
1906.25
 30
0.0
 11
1050.25
 21
1906.25
 31
0.0
  0
LINE
  5
39F
100
AcDbEntity
  8
001
  6
DASHDOT
 62
     1
100
AcDbLine
 10
1026.5
 20
1932.320557
 30
0.0
 11
1026.5
 21
1880.179443
 31
0.0
  0
LINE
  5
3A0
100
AcDbEntity
  8
001
  6
DASHDOT
 62
     1
100
AcDbLine
 10
1154.5
 20
1932.320557
 30
0.0
 11
1154.5
 21
1880.179443
 31
0.0
  0
LINE
  5
3A1
100
AcDbEntity
  8
001
  6
DASHDOT
 62
     1
100
AcDbLine
 10
1130.75
 20
1906.25
 30
0.0
 11
1178.25
 21
1906.25
 31
0.0
  0
LINE
  5
3A2
100
AcDbEntity
  8
001
  6
DASHDOT
 62
     1
100
AcDbLine
 10
1199.75
 20
1633.75
 30
0.0
 11
1247.25
 21
1633.75
 31
0.0
  0
LINE
  5
3A3
100
AcDbEntity
  8
001
  6
DASHDOT
 62
     1
100
AcDbLine
 10
1223.5
 20
1659.820557
 30
0.0
 11
1223.5
 21
1607.679443
 31
0.0
  0
LINE
  5
3A4
100
AcDbEntity
  8
001
  6
DASHDOT
 62
     1
100
AcDbLine
 10
933.75
 20
1633.75
 30
0.0
 11
981.25
 21
1633.75
 31
0.0
  0
LINE
  5
3A5
100
AcDbEntity
  8
001
  6
DASHDOT
 62
     1
100
AcDbLine
 10
957.5
 20
1659.820557
 30
0.0
 11
957.5
 21
1607.679443
 31
0.0
  0
LINE
  5
3A6
100
AcDbEntity
  8
001
  6
DASHDOT
 62
     1
100
AcDbLine
 10
957.5
 20
1757.820557
 30
0.0
 11
957.5
 21
1705.679443
 31
0.0
  0
LINE
  5
3A7
100
AcDbEntity
  8
001
  6
DASHDOT
 62
     1
100
AcDbLine
 10
933.75
 20
1731.75
 30
0.0
 11
981.25
 21
1731.75
 31
0.0
  0
LINE
  5
3A8
100
AcDbEntity
  8
001
  6
DASHDOT
 62
     1
100
AcDbLine
 10
1199.75
 20
1731.75
 30
0.0
 11
1247.25
 21
1731.75
 31
0.0
  0
LINE
  5
3A9
100
AcDbEntity
  8
001
  6
DASHDOT
 62
     1
100
AcDbLine
 10
1223.5
 20
1757.820557
 30
0.0
 11
1223.5
 21
1705.679443
 31
0.0
  0
LINE
  5
3AA
100
AcDbEntity
  8
001
  6
DASHDOT
 62
     1
100
AcDbLine
 10
946.25
 20
1547.75
 30
0.0
 11
993.75
 21
1547.75
 31
0.0
  0
LINE
  5
3AB
100
AcDbEntity
  8
001
  6
DASHDOT
 62
     1
100
AcDbLine
 10
970.0
 20
1573.820557
 30
0.0
 11
970.0
 21
1521.679443
 31
0.0
  0
LINE
  5
3AC
100
AcDbEntity
  8
001
  6
DASHDOT
 62
     1
100
AcDbLine
 10
1211.0
 20
1573.820557
 30
0.0
 11
1211.0
 21
1521.679443
 31
0.0
  0
LINE
  5
3AD
100
AcDbEntity
  8
001
  6
DASHDOT
 62
     1
100
AcDbLine
 10
1187.25
 20
1547.75
 30
0.0
 11
1234.75
 21
1547.75
 31
0.0
  0
LINE
  5
3AE
100
AcDbEntity
  8
001
  6
DASHDOT
 62
     1
100
AcDbLine
 10
1187.25
 20
1817.75
 30
0.0
 11
1234.75
 21
1817.75
 31
0.0
  0
LINE
  5
3AF
100
AcDbEntity
  8
001
  6
DASHDOT
 62
     1
100
AcDbLine
 10
1211.0
 20
1843.820557
 30
0.0
 11
1211.0
 21
1791.679443
 31
0.0
  0
LINE
  5
3B0
100
AcDbEntity
  8
001
  6
DASHDOT
 62
     1
100
AcDbLine
 10
946.25
 20
1817.75
 30
0.0
 11
993.75
 21
1817.75
 31
0.0
  0
LINE
  5
3B1
100
AcDbEntity
  8
001
  6
DASHDOT
 62
     1
100
AcDbLine
 10
970.0
 20
1843.820557
 30
0.0
 11
970.0
 21
1791.679443
 31
0.0
  0
LINE
  5
3B2
100
AcDbEntity
  8
001
  6
DASHDOT
 62
     1
100
AcDbLine
 10
1154.5
 20
849.75
 30
0.0
 11
1154.5
 21
972.75
 31
0.0
  0
LINE
  5
3B3
100
AcDbEntity
  8
001
  6
DASHDOT
 62
     1
100
AcDbLine
 10
2236.5
 20
849.75
 30
0.0
 11
2236.5
 21
972.75
 31
0.0
  0
LINE
  5
3B4
100
AcDbEntity
  8
001
  6
DASHDOT
 62
     1
100
AcDbLine
 10
2148.0
 20
849.75
 30
0.0
 11
2148.0
 21
972.75
 31
0.0
  0
LINE
  5
3B5
100
AcDbEntity
  8
001
  6
DASHDOT
 62
     1
100
AcDbLine
 10
2062.0
 20
849.75
 30
0.0
 11
2062.0
 21
972.75
 31
0.0
  0
LINE
  5
3B6
100
AcDbEntity
  8
001
  6
DASHDOT
 62
     1
100
AcDbLine
 10
1964.0
 20
849.75
 30
0.0
 11
1964.0
 21
972.75
 31
0.0
  0
LINE
  5
3B7
100
AcDbEntity
  8
001
  6
DASHDOT
 62
     1
100
AcDbLine
 10
1878.0
 20
849.75
 30
0.0
 11
1878.0
 21
972.75
 31
0.0
  0
LINE
  5
3B8
100
AcDbEntity
  8
001
  6
DASHDOT
 62
     1
100
AcDbLine
 10
1789.5
 20
849.75
 30
0.0
 11
1789.5
 21
972.75
 31
0.0
  0
LINE
  5
3B9
100
AcDbEntity
  8
001
  6
DASHDOT
 62
     1
100
AcDbLine
 10
1223.5
 20
849.75
 30
0.0
 11
1223.5
 21
972.75
 31
0.0
  0
LINE
  5
3BA
100
AcDbEntity
  8
001
  6
DASHDOT
 62
     1
100
AcDbLine
 10
1211.0
 20
849.75
 30
0.0
 11
1211.0
 21
972.75
 31
0.0
  0
LINE
  5
3BB
100
AcDbEntity
  8
001
  6
DASHDOT
 62
     1
100
AcDbLine
 10
1026.5
 20
849.75
 30
0.0
 11
1026.5
 21
972.75
 31
0.0
  0
LINE
  5
3BC
100
AcDbEntity
  8
001
  6
DASHDOT
 62
     1
100
AcDbLine
 10
970.0
 20
849.75
 30
0.0
 11
970.0
 21
972.75
 31
0.0
  0
LINE
  5
3BD
100
AcDbEntity
  8
001
  6
DASHDOT
 62
     1
100
AcDbLine
 10
957.5
 20
849.75
 30
0.0
 11
957.5
 21
972.75
 31
0.0
  0
LINE
  5
3BE
100
AcDbEntity
  8
001
  6
DASHDOT
 62
     1
100
AcDbLine
 10
1090.5
 20
1970.25
 30
0.0
 11
1090.5
 21
1395.25
 31
0.0
  0
LINE
  5
3BF
100
AcDbEntity
  8
001
  6
DASHDOT
 62
     1
100
AcDbLine
 10
445.5
 20
1682.75
 30
0.0
 11
1445.5
 21
1682.75
 31
0.0
  0
LINE
  5
3C0
100
AcDbEntity
  8
001
  6
DASHDOT
 62
     1
100
AcDbLine
 10
1445.5
 20
545.25
 30
0.0
 11
445.5
 21
545.25
 31
0.0
  0
CIRCLE
  5
3C1
100
AcDbEntity
  8
001
  6
DASHDOT
 62
     1
100
AcDbCircle
 10
2013.0
 20
545.25
 30
0.0
 40
199.5
  0
LINE
  5
3C2
100
AcDbEntity
  8
001
  6
DASHDOT
 62
     1
100
AcDbLine
 10
1755.5
 20
770.25
 30
0.0
 11
2270.5
 21
770.25
 31
0.0
  0
LINE
  5
3C3
100
AcDbEntity
  8
001
  6
DASHDOT
 62
     1
100
AcDbLine
 10
2178.605469
 20
613.846008
 30
0.0
 11
2216.022461
 21
629.344666
 31
0.0
  0
LINE
  5
3C4
100
AcDbEntity
  8
001
  6
DASHDOT
 62
     1
100
AcDbLine
 10
2081.595947
 20
710.855408
 30
0.0
 11
2097.094727
 21
748.272522
 31
0.0
  0
LINE
  5
3C5
100
AcDbEntity
  8
001
  6
DASHDOT
 62
     1
100
AcDbLine
 10
1944.404053
 20
710.855408
 30
0.0
 11
1928.905273
 21
748.272522
 31
0.0
  0
LINE
  5
3C6
100
AcDbEntity
  8
001
  6
DASHDOT
 62
     1
100
AcDbLine
 10
1847.394653
 20
613.846008
 30
0.0
 11
1809.977417
 21
629.344666
 31
0.0
  0
LINE
  5
3C7
100
AcDbEntity
  8
001
  6
DASHDOT
 62
     1
100
AcDbLine
 10
1847.394653
 20
476.653992
 30
0.0
 11
1809.977417
 21
461.155304
 31
0.0
  0
LINE
  5
3C8
100
AcDbEntity
  8
001
  6
DASHDOT
 62
     1
100
AcDbLine
 10
1944.404053
 20
379.644592
 30
0.0
 11
1928.905273
 21
342.227478
 31
0.0
  0
LINE
  5
3C9
100
AcDbEntity
  8
001
  6
DASHDOT
 62
     1
100
AcDbLine
 10
2081.595947
 20
379.644592
 30
0.0
 11
2097.094727
 21
342.227478
 31
0.0
  0
LINE
  5
3CA
100
AcDbEntity
  8
001
  6
DASHDOT
 62
     1
100
AcDbLine
 10
2178.605469
 20
476.653992
 30
0.0
 11
2216.022461
 21
461.155304
 31
0.0
  0
CIRCLE
  5
3CB
100
AcDbEntity
  8
001
  6
CONTINUOUS
 62
     1
100
AcDbCircle
 10
1026.5
 20
1906.25
 30
0.0
 40
8.645
  0
CIRCLE
  5
3CC
100
AcDbEntity
  8
001
  6
CONTINUOUS
 62
     1
100
AcDbCircle
 10
1154.5
 20
1906.25
 30
0.0
 40
8.645
  0
CIRCLE
  5
3CD
100
AcDbEntity
  8
001
  6
CONTINUOUS
 62
     1
100
AcDbCircle
 10
1211.0
 20
1817.75
 30
0.0
 40
8.645
  0
CIRCLE
  5
3CE
100
AcDbEntity
  8
001
  6
CONTINUOUS
 62
     1
100
AcDbCircle
 10
1223.5
 20
1731.75
 30
0.0
 40
8.645
  0
CIRCLE
  5
3CF
100
AcDbEntity
  8
001
  6
CONTINUOUS
 62
     1
100
AcDbCircle
 10
1223.5
 20
1633.75
 30
0.0
 40
8.645
  0
CIRCLE
  5
3D0
100
AcDbEntity
  8
001
  6
CONTINUOUS
 62
     1
100
AcDbCircle
 10
970.0
 20
1817.75
 30
0.0
 40
8.645
  0
CIRCLE
  5
3D1
100
AcDbEntity
  8
001
  6
CONTINUOUS
 62
     1
100
AcDbCircle
 10
957.5
 20
1731.75
 30
0.0
 40
8.645
  0
CIRCLE
  5
3D2
100
AcDbEntity
  8
001
  6
CONTINUOUS
 62
     1
100
AcDbCircle
 10
957.5
 20
1633.75
 30
0.0
 40
8.645
  0
CIRCLE
  5
3D3
100
AcDbEntity
  8
001
  6
CONTINUOUS
 62
     1
100
AcDbCircle
 10
970.0
 20
1547.75
 30
0.0
 40
8.645
  0
CIRCLE
  5
3D4
100
AcDbEntity
  8
001
  6
CONTINUOUS
 62
     1
100
AcDbCircle
 10
1211.0
 20
1547.75
 30
0.0
 40
8.645
  0
CIRCLE
  5
3D5
100
AcDbEntity
  8
001
  6
CONTINUOUS
 62
     1
100
AcDbCircle
 10
1154.5
 20
1459.25
 30
0.0
 40
8.645
  0
CIRCLE
  5
3D6
100
AcDbEntity
  8
001
  6
CONTINUOUS
 62
     1
100
AcDbCircle
 10
1026.5
 20
1459.25
 30
0.0
 40
8.645
  0
LINE
  5
3D7
100
AcDbEntity
  8
001
  6
CONTINUOUS
 62
     1
100
AcDbLine
 10
1090.5
 20
1230.249991
 30
0.0
 11
1104.072266
 21
1206.013794
 31
0.0
  0
LINE
  5
3D8
100
AcDbEntity
  8
001
  6
CONTINUOUS
 62
     1
100
AcDbLine
 10
1104.5
 20
1255.25
 30
0.0
 11
1090.5
 21
1230.249991
 31
0.0
  0
CIRCLE
  5
3D9
100
AcDbEntity
  8
001
  6
CONTINUOUS
 62
     1
100
AcDbCircle
 10
1090.5
 20
1181.25
 30
0.0
 40
4.19
  0
LINE
  5
3DA
100
AcDbEntity
  8
001
  6
CONTINUOUS
 62
     1
100
AcDbLine
 10
948.85498
 20
953.412048
 30
0.0
 11
948.85498
 21
943.25
 31
0.0
  0
LINE
  5
3DB
100
AcDbEntity
  8
001
  6
CONTINUOUS
 62
     1
100
AcDbLine
 10
961.35498
 20
953.412048
 30
0.0
 11
961.35498
 21
943.25
 31
0.0
  0
LINE
  5
3DC
100
AcDbEntity
  8
001
  6
CONTINUOUS
 62
     1
100
AcDbLine
 10
978.64502
 20
953.412048
 30
0.0
 11
978.64502
 21
943.25
 31
0.0
  0
LINE
  5
3DD
100
AcDbEntity
  8
001
  6
CONTINUOUS
 62
     1
100
AcDbLine
 10
1017.85498
 20
953.412048
 30
0.0
 11
1017.85498
 21
943.25
 31
0.0
  0
LINE
  5
3DE
100
AcDbEntity
  8
001
  6
CONTINUOUS
 62
     1
100
AcDbLine
 10
1035.14502
 20
953.412048
 30
0.0
 11
1035.14502
 21
943.25
 31
0.0
  0
LINE
  5
3DF
100
AcDbEntity
  8
001
  6
CONTINUOUS
 62
     1
100
AcDbLine
 10
1145.85498
 20
953.412048
 30
0.0
 11
1145.85498
 21
943.25
 31
0.0
  0
LINE
  5
3E0
100
AcDbEntity
  8
001
  6
CONTINUOUS
 62
     1
100
AcDbLine
 10
1163.14502
 20
953.412048
 30
0.0
 11
1163.14502
 21
943.25
 31
0.0
  0
LINE
  5
3E1
100
AcDbEntity
  8
001
  6
CONTINUOUS
 62
     1
100
AcDbLine
 10
1202.35498
 20
953.412048
 30
0.0
 11
1202.35498
 21
943.25
 31
0.0
  0
LINE
  5
3E2
100
AcDbEntity
  8
001
  6
CONTINUOUS
 62
     1
100
AcDbLine
 10
1219.64502
 20
953.412048
 30
0.0
 11
1219.64502
 21
943.25
 31
0.0
  0
LINE
  5
3E3
100
AcDbEntity
  8
001
  6
CONTINUOUS
 62
     1
100
AcDbLine
 10
1232.14502
 20
953.412048
 30
0.0
 11
1232.14502
 21
943.25
 31
0.0
  0
LINE
  5
3E4
100
AcDbEntity
  8
001
  6
CONTINUOUS
 62
     1
100
AcDbLine
 10
2245.14502
 20
953.412048
 30
0.0
 11
2245.14502
 21
943.25
 31
0.0
  0
LINE
  5
3E5
100
AcDbEntity
  8
001
  6
CONTINUOUS
 62
     1
100
AcDbLine
 10
2227.85498
 20
953.412048
 30
0.0
 11
2227.85498
 21
943.25
 31
0.0
  0
LINE
  5
3E6
100
AcDbEntity
  8
001
  6
CONTINUOUS
 62
     1
100
AcDbLine
 10
2156.64502
 20
953.412048
 30
0.0
 11
2156.64502
 21
943.25
 31
0.0
  0
LINE
  5
3E7
100
AcDbEntity
  8
001
  6
CONTINUOUS
 62
     1
100
AcDbLine
 10
2139.35498
 20
953.412048
 30
0.0
 11
2139.35498
 21
943.25
 31
0.0
  0
LINE
  5
3E8
100
AcDbEntity
  8
001
  6
CONTINUOUS
 62
     1
100
AcDbLine
 10
2070.64502
 20
953.412048
 30
0.0
 11
2070.64502
 21
943.25
 31
0.0
  0
LINE
  5
3E9
100
AcDbEntity
  8
001
  6
CONTINUOUS
 62
     1
100
AcDbLine
 10
2053.35498
 20
953.412048
 30
0.0
 11
2053.35498
 21
943.25
 31
0.0
  0
LINE
  5
3EA
100
AcDbEntity
  8
001
  6
CONTINUOUS
 62
     1
100
AcDbLine
 10
1972.64502
 20
953.412048
 30
0.0
 11
1972.64502
 21
943.25
 31
0.0
  0
LINE
  5
3EB
100
AcDbEntity
  8
001
  6
CONTINUOUS
 62
     1
100
AcDbLine
 10
1955.35498
 20
953.412048
 30
0.0
 11
1955.35498
 21
943.25
 31
0.0
  0
LINE
  5
3EC
100
AcDbEntity
  8
001
  6
CONTINUOUS
 62
     1
100
AcDbLine
 10
1886.64502
 20
953.412048
 30
0.0
 11
1886.64502
 21
943.25
 31
0.0
  0
LINE
  5
3ED
100
AcDbEntity
  8
001
  6
CONTINUOUS
 62
     1
100
AcDbLine
 10
1869.35498
 20
953.412048
 30
0.0
 11
1869.35498
 21
943.25
 31
0.0
  0
LINE
  5
3EE
100
AcDbEntity
  8
001
  6
CONTINUOUS
 62
     1
100
AcDbLine
 10
1798.14502
 20
953.412048
 30
0.0
 11
1798.14502
 21
943.25
 31
0.0
  0
LINE
  5
3EF
100
AcDbEntity
  8
001
  6
CONTINUOUS
 62
     1
100
AcDbLine
 10
1780.85498
 20
953.412048
 30
0.0
 11
1780.85498
 21
943.25
 31
0.0
  0
LINE
  5
3F0
100
AcDbEntity
  8
001
  6
CONTINUOUS
 62
     1
100
AcDbLine
 10
1999.0
 20
1255.25
 30
0.0
 11
2013.0
 21
1230.249991
 31
0.0
  0
LINE
  5
3F1
100
AcDbEntity
  8
001
  6
CONTINUOUS
 62
     1
100
AcDbLine
 10
2013.0
 20
1230.249991
 30
0.0
 11
1999.427734
 21
1206.013794
 31
0.0
  0
TEXT
  5
3F2
100
AcDbEntity
  8
001
 62
     3
100
AcDbText
 10
2296.0
 20
203.0
 30
0.0
 40
31.5
  1
ＪＷＷＡ　Ｂ　１２０準拠　%%c３００
 41
0.670045
 72
     5
 11
2712.5
 21
203.0
 31
0.0
100
AcDbText
  0
TEXT
  5
3F3
100
AcDbEntity
  8
001
 62
     3
100
AcDbText
 10
2296.0
 20
161.0
 30
0.0
 40
35.0
  1
浅層埋設対応型　ソフトシール仕切弁
 41
0.675497
 72
     5
 11
2772.0
 21
161.0
 31
0.0
100
AcDbText
  0
TEXT
  5
3F4
100
AcDbEntity
  8
001
 62
     3
100
AcDbText
 10
2296.0
 20
126.0
 30
0.0
 40
28.0
  1
Ｋ形受挿し
 41
0.78125
 72
     5
 11
2418.5
 21
126.0
 31
0.0
100
AcDbText
  0
LINE
  5
3F7
100
AcDbEntity
  8
001
  6
DASHDOT
 62
     1
100
AcDbLine
 10
1370.0
 20
744.75
 30
0.0
 11
1428.0
 21
744.75
 31
0.0
  0
LINE
  5
3F8
100
AcDbEntity
  8
001
  6
DASHDOT
 62
     1
100
AcDbLine
 10
1370.0
 20
345.75
 30
0.0
 11
1428.0
 21
345.75
 31
0.0
  0
LINE
  5
3F9
100
AcDbEntity
  8
001
  6
DASHDOT
 62
     1
100
AcDbLine
 10
1370.0
 20
1483.25
 30
0.0
 11
1428.0
 21
1483.25
 31
0.0
  0
LINE
  5
3FA
100
AcDbEntity
  8
001
  6
DASHDOT
 62
     1
100
AcDbLine
 10
1370.0
 20
1882.25
 30
0.0
 11
1428.0
 21
1882.25
 31
0.0
  0
LINE
  5
3FB
100
AcDbEntity
  8
001
  6
CONTINUOUS
 62
     7
100
AcDbLine
 10
1118.0
 20
1203.25
 30
0.0
 11
1118.0
 21
1167.25
 31
0.0
  0
LINE
  5
3FC
100
AcDbEntity
  8
001
  6
CONTINUOUS
 62
     7
100
AcDbLine
 10
1063.0
 20
1203.25
 30
0.0
 11
1063.0
 21
1167.25
 31
0.0
  0
LINE
  5
3FE
100
AcDbEntity
  8
001
  6
CONTINUOUS
 62
     7
100
AcDbLine
 10
1109.559972
 20
1204.25
 30
0.0
 11
1106.556396
 21
1254.309937
 31
0.0
  0
LINE
  5
3FF
100
AcDbEntity
  8
001
  6
CONTINUOUS
 62
     7
100
AcDbLine
 10
2040.5
 20
1203.25
 30
0.0
 11
2040.5
 21
1167.25
 31
0.0
  0
LINE
  5
400
100
AcDbEntity
  8
001
  6
CONTINUOUS
 62
     7
100
AcDbLine
 10
1985.5
 20
1203.25
 30
0.0
 11
1985.5
 21
1167.25
 31
0.0
  0
LINE
  5
401
100
AcDbEntity
  8
001
  6
CONTINUOUS
 62
     7
100
AcDbLine
 10
1993.940028
 20
1204.25
 30
0.0
 11
1996.943604
 21
1254.309937
 31
0.0
  0
ARC
  5
403
100
AcDbEntity
  8
001
  6
CONTINUOUS
 62
     7
100
AcDbCircle
 10
1122.783535
 20
1723.514943
 30
0.0
 40
4.0
100
AcDbArc
 50
289.693211
 51
319.998742
  0
ARC
  5
404
100
AcDbEntity
  8
001
  6
CONTINUOUS
 62
     7
100
AcDbCircle
 10
1058.216465
 20
1723.514943
 30
0.0
 40
4.0
100
AcDbArc
 50
220.001258
 51
250.306789
  0
ARC
  5
405
100
AcDbEntity
  8
001
  6
CONTINUOUS
 62
     7
100
AcDbCircle
 10
1058.216465
 20
1641.985057
 30
0.0
 40
4.0
100
AcDbArc
 50
109.693211
 51
139.998742
  0
ARC
  5
406
100
AcDbEntity
  8
001
  6
CONTINUOUS
 62
     7
100
AcDbCircle
 10
1122.783535
 20
1641.985057
 30
0.0
 40
4.0
100
AcDbArc
 50
40.001258
 51
70.306789
  0
CIRCLE
  5
407
100
AcDbEntity
  8
001
  6
CONTINUOUS
 62
     7
100
AcDbCircle
 10
1090.5
 20
1682.75
 30
0.0
 40
50.0
  0
ARC
  5
408
100
AcDbEntity
  8
001
  6
CONTINUOUS
 62
     7
100
AcDbCircle
 10
1090.499984
 20
1682.749998
 30
0.0
 40
44.0
100
AcDbArc
 50
105.00001
 51
208.435639
  0
LINE
  5
409
100
AcDbEntity
  8
001
  6
CONTINUOUS
 62
     7
100
AcDbLine
 10
1055.144653
 20
1647.394653
 30
0.0
 11
1060.321045
 21
1666.713135
 31
0.0
  0
LINE
  5
40A
100
AcDbEntity
  8
001
  6
CONTINUOUS
 62
     7
100
AcDbLine
 10
1051.808472
 20
1661.798462
 30
0.0
 11
1060.321045
 21
1666.713135
 31
0.0
  0
ARC
  5
40B
100
AcDbEntity
  8
001
  6
CONTINUOUS
 62
     7
100
AcDbCircle
 10
1090.500004
 20
1682.750059
 30
0.0
 40
44.0
100
AcDbArc
 50
314.999941
 51
58.435585
  0
LINE
  5
40C
100
AcDbEntity
  8
001
  6
CONTINUOUS
 62
     7
100
AcDbLine
 10
1113.532104
 20
1720.240356
 30
0.0
 11
1108.61731
 21
1711.727783
 31
0.0
  0
LINE
  5
40D
100
AcDbEntity
  8
001
  6
CONTINUOUS
 62
     7
100
AcDbLine
 10
1103.440918
 20
1731.046265
 30
0.0
 11
1108.61731
 21
1711.727783
 31
0.0
  0
LINE
  5
40E
100
AcDbEntity
  8
001
  6
CONTINUOUS
 62
     7
100
AcDbLine
 10
1079.111938
 20
1725.250732
 30
0.0
 11
1077.559082
 21
1731.046265
 31
0.0
  0
LINE
  5
40F
100
AcDbEntity
  8
001
  6
CONTINUOUS
 62
     7
100
AcDbLine
 10
1121.612671
 20
1651.637329
 30
0.0
 11
1125.855347
 21
1647.394653
 31
0.0
  0
LINE
  5
410
100
AcDbEntity
  8
001
  6
CONTINUOUS
 62
     7
100
AcDbLine
 10
1096.5
 20
1644.25
 30
0.0
 11
1096.5
 21
1654.25
 31
0.0
  0
LINE
  5
411
100
AcDbEntity
  8
001
  6
CONTINUOUS
 62
     7
100
AcDbLine
 10
1084.5
 20
1644.25
 30
0.0
 11
1084.5
 21
1654.25
 31
0.0
  0
LINE
  5
412
100
AcDbEntity
  8
001
  6
CONTINUOUS
 62
     7
100
AcDbLine
 10
1094.0
 20
1644.25
 30
0.0
 11
1094.0
 21
1654.25
 31
0.0
  0
LINE
  5
413
100
AcDbEntity
  8
001
  6
CONTINUOUS
 62
     7
100
AcDbLine
 10
1087.0
 20
1644.25
 30
0.0
 11
1087.0
 21
1654.25
 31
0.0
  0
ARC
  5
414
100
AcDbEntity
  8
001
  6
CONTINUOUS
 62
     7
100
AcDbCircle
 10
1090.5
 20
1644.25
 30
0.0
 40
3.5
100
AcDbArc
 50
180.0
 51
0.0
  0
ARC
  5
415
100
AcDbEntity
  8
001
  6
CONTINUOUS
 62
     7
100
AcDbCircle
 10
1090.5
 20
1644.25
 30
0.0
 40
6.0
100
AcDbArc
 50
180.0
 51
0.0
  0
ARC
  5
416
100
AcDbEntity
  8
001
  6
CONTINUOUS
 62
     7
100
AcDbCircle
 10
1090.5
 20
1654.25
 30
0.0
 40
3.5
100
AcDbArc
 50
0.0
 51
180.0
  0
ARC
  5
417
100
AcDbEntity
  8
001
  6
CONTINUOUS
 62
     7
100
AcDbCircle
 10
1090.5
 20
1654.25
 30
0.0
 40
6.0
100
AcDbArc
 50
0.0
 51
180.0
  0
LINE
  5
418
100
AcDbEntity
  8
001
  6
CONTINUOUS
 62
     7
100
AcDbLine
 10
1064.0
 20
1204.25
 30
0.0
 11
1117.0
 21
1204.25
 31
0.0
  0
LINE
  5
41D
100
AcDbEntity
  8
001
  6
CONTINUOUS
 62
     7
100
AcDbLine
 10
1090.5
 20
1205.25
 30
0.0
 11
1102.5
 21
1205.25
 31
0.0
  0
LINE
  5
423
100
AcDbEntity
  8
001
  6
CONTINUOUS
 62
     7
100
AcDbLine
 10
1093.0
 20
1182.693359
 30
0.0
 11
1093.0
 21
1179.806641
 31
0.0
  0
LINE
  5
424
100
AcDbEntity
  8
001
  6
CONTINUOUS
 62
     7
100
AcDbLine
 10
1090.5
 20
1184.136719
 30
0.0
 11
1093.0
 21
1182.693359
 31
0.0
  0
LINE
  5
425
100
AcDbEntity
  8
001
  6
CONTINUOUS
 62
     7
100
AcDbLine
 10
1088.0
 20
1182.693359
 30
0.0
 11
1090.5
 21
1184.136719
 31
0.0
  0
LINE
  5
426
100
AcDbEntity
  8
001
  6
CONTINUOUS
 62
     7
100
AcDbLine
 10
1088.0
 20
1179.806641
 30
0.0
 11
1088.0
 21
1182.693359
 31
0.0
  0
LINE
  5
427
100
AcDbEntity
  8
001
  6
CONTINUOUS
 62
     7
100
AcDbLine
 10
1090.5
 20
1178.363281
 30
0.0
 11
1088.0
 21
1179.806641
 31
0.0
  0
LINE
  5
428
100
AcDbEntity
  8
001
  6
CONTINUOUS
 62
     7
100
AcDbLine
 10
1090.5
 20
1178.363281
 30
0.0
 11
1093.0
 21
1179.806641
 31
0.0
  0
LINE
  5
42D
100
AcDbEntity
  8
001
  6
CONTINUOUS
 62
     7
100
AcDbLine
 10
1986.5
 20
1204.25
 30
0.0
 11
2039.5
 21
1204.25
 31
0.0
  0
LINE
  5
433
100
AcDbEntity
  8
001
  6
CONTINUOUS
 62
     7
100
AcDbLine
 10
2001.0
 20
1205.25
 30
0.0
 11
2013.0
 21
1205.25
 31
0.0
  0
INSERT
  5
48F
100
AcDbEntity
  8
0
  6
CONTINUOUS
100
AcDbBlockReference
  2
A$C4D0D3218
 10
1060.5
 20
1198.606109
 30
0.0
  0
INSERT
  5
490
100
AcDbEntity
  8
0
  6
CONTINUOUS
100
AcDbBlockReference
  2
A$C4D0D3218
 10
2043.0
 20
1198.606109
 30
0.0
 41
-1.0
  0
ARC
  5
491
100
AcDbEntity
  8
001
  6
CONTINUOUS
 62
     7
100
AcDbCircle
 10
1986.5
 20
1203.25
 30
0.0
 40
1.0
100
AcDbArc
 50
90.0
 51
180.0
  0
ARC
  5
492
100
AcDbEntity
  8
001
  6
CONTINUOUS
 62
     7
100
AcDbCircle
 10
2039.5
 20
1203.25
 30
0.0
 40
1.0
100
AcDbArc
 50
0.0
 51
90.0
  0
LINE
  5
493
100
AcDbEntity
  8
001
  6
CONTINUOUS
 62
     7
100
AcDbLine
 10
2013.0
 20
1255.25
 30
0.0
 11
1997.941772
 21
1255.25
 31
0.0
  0
ARC
  5
495
100
AcDbEntity
  8
001
  6
CONTINUOUS
 62
     7
100
AcDbCircle
 10
1064.0
 20
1203.25
 30
0.0
 40
1.0
100
AcDbArc
 50
90.0
 51
180.0
  0
ARC
  5
496
100
AcDbEntity
  8
001
  6
CONTINUOUS
 62
     7
100
AcDbCircle
 10
1117.0
 20
1203.25
 30
0.0
 40
1.0
100
AcDbArc
 50
0.0
 51
90.0
  0
ENDSEC
  0
SECTION
  2
OBJECTS
  0
DICTIONARY
  5
C
100
AcDbDictionary
  3
ACAD_GROUP
350
D
  3
ACAD_MLINESTYLE
350
1B
  0
DICTIONARY
  5
D
102
{ACAD_REACTORS
330
C
102
}
100
AcDbDictionary
  0
DICTIONARY
  5
1B
102
{ACAD_REACTORS
330
C
102
}
100
AcDbDictionary
  3
STANDARD
350
1C
  0
MLINESTYLE
  5
1C
102
{ACAD_REACTORS
330
1B
102
}
100
AcDbMlineStyle
  2
STANDARD
 70
     0
  3

 62
   256
 51
90.0
 52
90.0
 71
     2
 49
0.5
 62
   256
  6
BYLAYER
 49
-0.5
 62
   256
  6
BYLAYER
  0
ENDSEC
  0
EOF
