  0
SECTION
  2
HEADER
  9
$ACADVER
  1
AC1014
  9
$ACADMAINTVER
 70
     0
  9
$DWGCODEPAGE
  3
ANSI_932
  9
$INSBASE
 10
0.0
 20
0.0
 30
0.0
  9
$EXTMIN
 10
227.5
 20
50.0
 30
0.0
  9
$EXTMAX
 10
2025.0
 20
1435.714573
 30
0.0
  9
$LIMMIN
 10
227.499
 20
49.999
  9
$LIMMAX
 10
2025.001
 20
1262.501
  9
$ORTHOMODE
 70
     1
  9
$REGENMODE
 70
     1
  9
$FILLMODE
 70
     1
  9
$QTEXTMODE
 70
     0
  9
$MIRRTEXT
 70
     1
  9
$DRAGMODE
 70
     2
  9
$LTSCALE
 40
29.958333
  9
$OSMODE
 70
     0
  9
$ATTMODE
 70
     1
  9
$TEXTSIZE
 40
3.2
  9
$TRACEWID
 40
0.05
  9
$TEXTSTYLE
  7
STANDARD
  9
$CLAYER
  8
0
  9
$CELTYPE
  6
CONTINUOUS
  9
$CECOLOR
 62
   256
  9
$CELTSCALE
 40
1.0
  9
$DELOBJ
 70
     1
  9
$DISPSILH
 70
     0
  9
$DIMSCALE
 40
1.0
  9
$DIMASZ
 40
0.18
  9
$DIMEXO
 40
0.0625
  9
$DIMDLI
 40
0.38
  9
$DIMRND
 40
0.0
  9
$DIMDLE
 40
0.0
  9
$DIMEXE
 40
0.18
  9
$DIMTP
 40
0.0
  9
$DIMTM
 40
0.0
  9
$DIMTXT
 40
0.18
  9
$DIMCEN
 40
0.09
  9
$DIMTSZ
 40
0.0
  9
$DIMTOL
 70
     0
  9
$DIMLIM
 70
     0
  9
$DIMTIH
 70
     1
  9
$DIMTOH
 70
     1
  9
$DIMSE1
 70
     0
  9
$DIMSE2
 70
     0
  9
$DIMTAD
 70
     0
  9
$DIMZIN
 70
     0
  9
$DIMBLK
  1

  9
$DIMASO
 70
     1
  9
$DIMSHO
 70
     1
  9
$DIMPOST
  1

  9
$DIMAPOST
  1

  9
$DIMALT
 70
     0
  9
$DIMALTD
 70
     2
  9
$DIMALTF
 40
25.4
  9
$DIMLFAC
 40
1.0
  9
$DIMTOFL
 70
     0
  9
$DIMTVP
 40
0.0
  9
$DIMTIX
 70
     0
  9
$DIMSOXD
 70
     0
  9
$DIMSAH
 70
     0
  9
$DIMBLK1
  1

  9
$DIMBLK2
  1

  9
$DIMSTYLE
  2
STANDARD
  9
$DIMCLRD
 70
     0
  9
$DIMCLRE
 70
     0
  9
$DIMCLRT
 70
     0
  9
$DIMTFAC
 40
1.0
  9
$DIMGAP
 40
0.09
  9
$DIMJUST
 70
     0
  9
$DIMSD1
 70
     0
  9
$DIMSD2
 70
     0
  9
$DIMTOLJ
 70
     1
  9
$DIMTZIN
 70
     0
  9
$DIMALTZ
 70
     0
  9
$DIMALTTZ
 70
     0
  9
$DIMFIT
 70
     3
  9
$DIMUPT
 70
     0
  9
$DIMUNIT
 70
     2
  9
$DIMDEC
 70
     4
  9
$DIMTDEC
 70
     4
  9
$DIMALTU
 70
     2
  9
$DIMALTTD
 70
     2
  9
$DIMTXSTY
  7
STANDARD
  9
$DIMAUNIT
 70
     0
  9
$LUNITS
 70
     2
  9
$LUPREC
 70
     4
  9
$SKETCHINC
 40
0.1
  9
$FILLETRAD
 40
1.0
  9
$AUNITS
 70
     0
  9
$AUPREC
 70
     0
  9
$MENU
  1
acad
  9
$ELEVATION
 40
0.0
  9
$PELEVATION
 40
0.0
  9
$THICKNESS
 40
0.0
  9
$LIMCHECK
 70
     0
  9
$BLIPMODE
 70
     0
  9
$CHAMFERA
 40
0.0
  9
$CHAMFERB
 40
0.0
  9
$CHAMFERC
 40
0.0
  9
$CHAMFERD
 40
0.0
  9
$SKPOLY
 70
     0
  9
$TDCREATE
 40
0.0000000000
  9
$TDUPDATE
 40
0.0000000000
  9
$TDINDWG
 40
0.0000000000
  9
$TDUSRTIMER
 40
0.0000000000
  9
$USRTIMER
 70
     1
  9
$ANGBASE
 50
0.0
  9
$ANGDIR
 70
     0
  9
$PDMODE
 70
     0
  9
$PDSIZE
 40
0.0
  9
$PLINEWID
 40
0.0
  9
$COORDS
 70
     1
  9
$SPLFRAME
 70
     0
  9
$SPLINETYPE
 70
     6
  9
$SPLINESEGS
 70
     8
  9
$ATTDIA
 70
     0
  9
$ATTREQ
 70
     1
  9
$HANDLING
 70
     1
  9
$HANDSEED
  5
818
  9
$SURFTAB1
 70
     6
  9
$SURFTAB2
 70
     6
  9
$SURFTYPE
 70
     6
  9
$SURFU
 70
     6
  9
$SURFV
 70
     6
  9
$UCSNAME
  2

  9
$UCSORG
 10
0.0
 20
0.0
 30
0.0
  9
$UCSXDIR
 10
1.0
 20
0.0
 30
0.0
  9
$UCSYDIR
 10
0.0
 20
1.0
 30
0.0
  9
$PUCSNAME
  2

  9
$PUCSORG
 10
0.0
 20
0.0
 30
0.0
  9
$PUCSXDIR
 10
1.0
 20
0.0
 30
0.0
  9
$PUCSYDIR
 10
0.0
 20
1.0
 30
0.0
  9
$USERI1
 70
     0
  9
$USERI2
 70
     0
  9
$USERI3
 70
     0
  9
$USERI4
 70
     0
  9
$USERI5
 70
     0
  9
$USERR1
 40
0.0
  9
$USERR2
 40
0.0
  9
$USERR3
 40
0.0
  9
$USERR4
 40
0.0
  9
$USERR5
 40
0.0
  9
$WORLDVIEW
 70
     1
  9
$SHADEDGE
 70
     3
  9
$SHADEDIF
 70
    70
  9
$TILEMODE
 70
     1
  9
$MAXACTVP
 70
    48
  9
$PINSBASE
 10
0.0
 20
0.0
 30
0.0
  9
$PLIMCHECK
 70
     0
  9
$PEXTMIN
 10
1.000000E+20
 20
1.000000E+20
 30
1.000000E+20
  9
$PEXTMAX
 10
-1.000000E+20
 20
-1.000000E+20
 30
-1.000000E+20
  9
$PLIMMIN
 10
0.0
 20
0.0
  9
$PLIMMAX
 10
12.0
 20
9.0
  9
$UNITMODE
 70
     0
  9
$VISRETAIN
 70
     1
  9
$PLINEGEN
 70
     0
  9
$PSLTSCALE
 70
     1
  9
$TREEDEPTH
 70
  3020
  9
$PICKSTYLE
 70
     1
  9
$CMLSTYLE
  2
STANDARD
  9
$CMLJUST
 70
     0
  9
$CMLSCALE
 40
1.0
  9
$PROXYGRAPHICS
 70
     1
  9
$MEASUREMENT
 70
     0
  0
ENDSEC
  0
SECTION
  2
CLASSES
  0
CLASS
  1
LWPOLYLINE
  2
AcDbPolyline
  3
"AutoCAD"
 90
        0
280
     0
281
     1
  0
ENDSEC
  0
SECTION
  2
TABLES
  0
TABLE
  2
VPORT
  5
8
100
AcDbSymbolTable
 70
     2
  0
VPORT
  5
817
100
AcDbSymbolTableRecord
100
AcDbViewportTableRecord
  2
*ACTIVE
 70
     0
 10
0.0
 20
0.0
 11
1.0
 21
1.0
 12
1132.880002
 22
740.573459
 13
0.0
 23
0.0
 14
1.0
 24
1.0
 15
0.0
 25
0.0
 16
0.0
 26
0.0
 36
1.0
 17
0.0
 27
0.0
 37
0.0
 40
1558.771034
 41
1.724907
 42
50.0
 43
0.0
 44
0.0
 50
0.0
 51
0.0
 71
     0
 72
   100
 73
     1
 74
     1
 75
     0
 76
     0
 77
     0
 78
     0
  0
ENDTAB
  0
TABLE
  2
LTYPE
  5
5
100
AcDbSymbolTable
 70
     6
  0
LTYPE
  5
12
100
AcDbSymbolTableRecord
100
AcDbLinetypeTableRecord
  2
BYBLOCK
 70
     0
  3

 72
    65
 73
     0
 40
0.0
  0
LTYPE
  5
13
100
AcDbSymbolTableRecord
100
AcDbLinetypeTableRecord
  2
BYLAYER
 70
     0
  3

 72
    65
 73
     0
 40
0.0
  0
LTYPE
  5
14
100
AcDbSymbolTableRecord
100
AcDbLinetypeTableRecord
  2
CONTINUOUS
 70
     0
  3
Solid-Line
 72
    65
 73
     0
 40
0.0
  0
LTYPE
  5
1F
100
AcDbSymbolTableRecord
100
AcDbLinetypeTableRecord
  2
DASHED
 70
     0
  3
DASHED
 72
    65
 73
     2
 40
0.75
 49
0.5
 74
     0
 49
-0.25
 74
     0
  0
LTYPE
  5
20
100
AcDbSymbolTableRecord
100
AcDbLinetypeTableRecord
  2
HIDDEN
 70
     0
  3
HIDDEN
 72
    65
 73
     2
 40
0.375
 49
0.25
 74
     0
 49
-0.125
 74
     0
  0
LTYPE
  5
21
100
AcDbSymbolTableRecord
100
AcDbLinetypeTableRecord
  2
CENTER
 70
     0
  3
CENTER
 72
    65
 73
     4
 40
2.0
 49
1.25
 74
     0
 49
-0.25
 74
     0
 49
0.25
 74
     0
 49
-0.25
 74
     0
  0
LTYPE
  5
22
100
AcDbSymbolTableRecord
100
AcDbLinetypeTableRecord
  2
PHANTOM
 70
     0
  3
PHANTOM
 72
    65
 73
     6
 40
2.5
 49
1.25
 74
     0
 49
-0.25
 74
     0
 49
0.25
 74
     0
 49
-0.25
 74
     0
 49
0.25
 74
     0
 49
-0.25
 74
     0
  0
LTYPE
  5
805
100
AcDbSymbolTableRecord
100
AcDbLinetypeTableRecord
  2
CENTER2
 70
     0
  3
___ _ ___ _ ___ _ ___ _ ___ _ ___ _ ___ _ ___ _
 72
    65
 73
     4
 40
1.125
 49
0.75
 74
     0
 49
-0.125
 74
     0
 49
0.125
 74
     0
 49
-0.125
 74
     0
  0
ENDTAB
  0
TABLE
  2
LAYER
  5
2
100
AcDbSymbolTable
 70
     5
  0
LAYER
  5
E
100
AcDbSymbolTableRecord
100
AcDbLayerTableRecord
  2
0
 70
     0
 62
     7
  6
CONTINUOUS
  0
LAYER
  5
23
100
AcDbSymbolTableRecord
100
AcDbLayerTableRecord
  2
001
 70
     0
 62
     7
  6
CONTINUOUS
  0
LAYER
  5
806
100
AcDbSymbolTableRecord
100
AcDbLayerTableRecord
  2
BODY
 70
     0
 62
     7
  6
CONTINUOUS
  0
LAYER
  5
807
100
AcDbSymbolTableRecord
100
AcDbLayerTableRecord
  2
SHAFT
 70
     0
 62
     6
  6
CONTINUOUS
  0
LAYER
  5
808
100
AcDbSymbolTableRecord
100
AcDbLayerTableRecord
  2
CENTER
 70
     0
 62
   144
  6
CENTER2
  0
ENDTAB
  0
TABLE
  2
STYLE
  5
3
100
AcDbSymbolTable
 70
     2
  0
STYLE
  5
F
100
AcDbSymbolTableRecord
100
AcDbTextStyleTableRecord
  2
STANDARD
 70
     0
 40
0.0
 41
1.0
 50
0.0
 71
     0
 42
0.2
  3
TXT
  4
BIGFONT
  0
STYLE
  5
24
100
AcDbSymbolTableRecord
100
AcDbTextStyleTableRecord
  2
TATEGAKI
 70
     4
 40
1.0
 41
1.0
 50
0.0
 71
     0
 42
0.2
  3
TXT
  4
BIGFONT
  0
ENDTAB
  0
TABLE
  2
VIEW
  5
6
100
AcDbSymbolTable
 70
     0
  0
ENDTAB
  0
TABLE
  2
UCS
  5
7
100
AcDbSymbolTable
 70
     0
  0
ENDTAB
  0
TABLE
  2
APPID
  5
9
100
AcDbSymbolTable
 70
     1
  0
APPID
  5
10
100
AcDbSymbolTableRecord
100
AcDbRegAppTableRecord
  2
ACAD
 70
     0
  0
ENDTAB
  0
TABLE
  2
DIMSTYLE
  5
A
100
AcDbSymbolTable
 70
     1
  0
DIMSTYLE
105
7BB
100
AcDbSymbolTableRecord
100
AcDbDimStyleTableRecord
  2
STANDARD
 70
     0
  3

  4

  5

  6

  7

 40
1.0
 41
0.18
 42
0.0625
 43
0.38
 44
0.18
 45
0.0
 46
0.0
 47
0.0
 48
0.0
140
0.18
141
0.09
142
0.0
143
25.4
144
1.0
145
0.0
146
1.0
147
0.09
 71
     0
 72
     0
 73
     1
 74
     1
 75
     0
 76
     0
 77
     0
 78
     0
170
     0
171
     2
172
     0
173
     0
174
     0
175
     0
176
     0
177
     0
178
     0
270
     2
271
     4
272
     4
273
     2
274
     2
340
F
275
     0
280
     0
281
     0
282
     0
283
     1
284
     0
285
     0
286
     0
287
     3
288
     0
  0
ENDTAB
  0
TABLE
  2
BLOCK_RECORD
  5
1
100
AcDbSymbolTable
 70
     2
  0
BLOCK_RECORD
  5
18
100
AcDbSymbolTableRecord
100
AcDbBlockTableRecord
  2
*MODEL_SPACE
  0
BLOCK_RECORD
  5
15
100
AcDbSymbolTableRecord
100
AcDbBlockTableRecord
  2
*PAPER_SPACE
  0
BLOCK_RECORD
  5
7BC
100
AcDbSymbolTableRecord
100
AcDbBlockTableRecord
  2
A$C4D0D3218
  0
BLOCK_RECORD
  5
809
100
AcDbSymbolTableRecord
100
AcDbBlockTableRecord
  2
A$C3D2E53C4
  0
ENDTAB
  0
ENDSEC
  0
SECTION
  2
BLOCKS
  0
BLOCK
  5
19
100
AcDbEntity
  8
0
100
AcDbBlockBegin
  2
*MODEL_SPACE
 70
     0
 10
0.0
 20
0.0
 30
0.0
  3
*MODEL_SPACE
  1

  0
ENDBLK
  5
1A
100
AcDbEntity
  8
0
100
AcDbBlockEnd
  0
BLOCK
  5
16
100
AcDbEntity
 67
     1
  8
0
100
AcDbBlockBegin
  2
*PAPER_SPACE
 70
     0
 10
0.0
 20
0.0
 30
0.0
  3
*PAPER_SPACE
  1

  0
ENDBLK
  5
17
100
AcDbEntity
 67
     1
  8
0
100
AcDbBlockEnd
  0
BLOCK
  5
803
100
AcDbEntity
  8
0
100
AcDbBlockBegin
  2
A$C4D0D3218
 70
     0
 10
0.0
 20
0.0
 30
0.0
  3
A$C4D0D3218
  1

  0
LINE
  5
7BD
100
AcDbEntity
  8
BODY
100
AcDbLine
 10
47.298566
 20
58.50411
 30
0.0
 11
30.0
 21
33.988262
 31
0.0
  0
LINE
  5
7BE
100
AcDbEntity
  8
BODY
100
AcDbLine
 10
47.830578
 20
57.227929
 30
0.0
 11
48.758497
 21
35.164071
 31
0.0
  0
LINE
  5
7BF
100
AcDbEntity
  8
BODY
100
AcDbLine
 10
60.0
 20
62.643891
 30
0.0
 11
60.0
 21
35.143891
 31
0.0
  0
LINE
  5
7C0
100
AcDbEntity
  8
BODY
100
AcDbLine
 10
0.0
 20
8.643891
 30
0.0
 11
0.0
 21
62.643891
 31
0.0
  0
LINE
  5
7C1
100
AcDbEntity
  8
CENTER
100
AcDbLine
 10
30.0
 20
0.0
 30
0.0
 11
30.0
 21
136.35376
 31
0.0
  0
LINE
  5
7C2
100
AcDbEntity
  8
BODY
100
AcDbLine
 10
57.0
 20
5.643891
 30
0.0
 11
3.0
 21
5.643891
 31
0.0
  0
ARC
  5
7C3
100
AcDbEntity
  8
BODY
100
AcDbCircle
 10
3.0
 20
8.643891
 30
0.0
 40
3.0
100
AcDbArc
 50
180.0
 51
270.0
  0
ARC
  5
7C4
100
AcDbEntity
  8
BODY
100
AcDbCircle
 10
51.917656
 20
7.643891
 30
0.0
 40
2.0
100
AcDbArc
 50
182.408216
 51
270.0
  0
LINE
  5
7C5
100
AcDbEntity
  8
BODY
100
AcDbLine
 10
30.0
 20
33.988262
 30
0.0
 11
50.0
 21
5.643891
 31
0.0
  0
LINE
  5
7C6
100
AcDbEntity
  8
CENTER
100
AcDbLine
 10
45.826748
 20
30.643891
 30
0.0
 11
72.990715
 21
30.643891
 31
0.0
  0
LINE
  5
7C7
100
AcDbEntity
  8
BODY
100
AcDbLine
 10
69.138318
 20
35.643891
 30
0.0
 11
48.738318
 21
35.643891
 31
0.0
  0
LINE
  5
7C8
100
AcDbEntity
  8
BODY
100
AcDbLine
 10
63.238318
 20
35.143891
 30
0.0
 11
48.738318
 21
35.143891
 31
0.0
  0
LINE
  5
7C9
100
AcDbEntity
  8
BODY
100
AcDbLine
 10
49.158879
 20
25.643891
 30
0.0
 11
69.138318
 21
25.643891
 31
0.0
  0
LINE
  5
7CA
100
AcDbEntity
  8
BODY
100
AcDbLine
 10
49.155391
 20
25.726818
 30
0.0
 11
49.919423
 21
7.559853
 31
0.0
  0
LINE
  5
7CB
100
AcDbEntity
  8
BODY
100
AcDbLine
 10
48.738318
 20
26.143891
 30
0.0
 11
63.238318
 21
26.143891
 31
0.0
  0
LWPOLYLINE
  5
7CC
100
AcDbEntity
  8
BODY
100
AcDbPolyline
 90
        4
 70
     0
 43
0.0
 10
30.0
 20
39.881496
 10
22.0
 20
35.262693
 10
22.0
 20
26.025089
 10
30.0
 20
21.406287
  0
ARC
  5
7CD
100
AcDbEntity
  8
BODY
100
AcDbCircle
 10
30.0
 20
30.643891
 30
0.0
 40
8.0
100
AcDbArc
 50
90.0
 51
270.0
  0
LINE
  5
7CE
100
AcDbEntity
  8
CENTER
100
AcDbLine
 10
20.361507
 20
30.643891
 30
0.0
 11
31.763323
 21
30.643891
 31
0.0
  0
LINE
  5
7CF
100
AcDbEntity
  8
BODY
100
AcDbLine
 10
49.238318
 20
35.643891
 30
0.0
 11
49.238318
 21
25.643891
 31
0.0
  0
LINE
  5
7D0
100
AcDbEntity
  8
BODY
100
AcDbLine
 10
48.738318
 20
35.143891
 30
0.0
 11
48.738318
 21
26.143891
 31
0.0
  0
LINE
  5
7D1
100
AcDbEntity
  8
BODY
100
AcDbLine
 10
48.738318
 20
26.143891
 30
0.0
 11
49.238318
 21
25.643891
 31
0.0
  0
LINE
  5
7D2
100
AcDbEntity
  8
BODY
100
AcDbLine
 10
48.738318
 20
35.143891
 30
0.0
 11
49.238318
 21
35.643891
 31
0.0
  0
LINE
  5
7D3
100
AcDbEntity
  8
BODY
100
AcDbLine
 10
60.0
 20
26.143891
 30
0.0
 11
60.0
 21
8.643891
 31
0.0
  0
ARC
  5
7D4
100
AcDbEntity
  8
BODY
100
AcDbCircle
 10
57.0
 20
8.643891
 30
0.0
 40
3.0
100
AcDbArc
 50
270.0
 51
0.0
  0
LINE
  5
7D5
100
AcDbEntity
  8
BODY
100
AcDbLine
 10
69.138318
 20
21.406287
 30
0.0
 11
63.738318
 21
21.406287
 31
0.0
  0
LINE
  5
7D6
100
AcDbEntity
  8
BODY
100
AcDbLine
 10
69.138318
 20
39.881496
 30
0.0
 11
63.738318
 21
39.881496
 31
0.0
  0
LINE
  5
7D7
100
AcDbEntity
  8
BODY
100
AcDbLine
 10
63.238318
 20
35.143891
 30
0.0
 11
63.238318
 21
26.143891
 31
0.0
  0
LINE
  5
7D8
100
AcDbEntity
  8
BODY
100
AcDbLine
 10
63.738318
 20
39.881496
 30
0.0
 11
63.738318
 21
21.406287
 31
0.0
  0
LINE
  5
7D9
100
AcDbEntity
  8
BODY
100
AcDbLine
 10
63.238318
 20
26.143891
 30
0.0
 11
63.738318
 21
25.643891
 31
0.0
  0
LINE
  5
7DA
100
AcDbEntity
  8
BODY
100
AcDbLine
 10
63.238318
 20
35.143891
 30
0.0
 11
63.738318
 21
35.643891
 31
0.0
  0
ARC
  5
7DB
100
AcDbEntity
  8
BODY
100
AcDbCircle
 10
57.138318
 20
30.643891
 30
0.0
 40
13.0
100
AcDbArc
 50
337.380135
 51
22.619865
  0
LINE
  5
7DC
100
AcDbEntity
  8
BODY
100
AcDbLine
 10
70.138318
 20
37.781496
 30
0.0
 11
70.138318
 21
23.506287
 31
0.0
  0
ARC
  5
7DD
100
AcDbEntity
  8
BODY
100
AcDbCircle
 10
67.393834
 20
23.525089
 30
0.0
 40
2.744549
100
AcDbArc
 50
309.465831
 51
50.534169
  0
ARC
  5
7DE
100
AcDbEntity
  8
BODY
100
AcDbCircle
 10
67.393834
 20
37.762693
 30
0.0
 40
2.744549
100
AcDbArc
 50
309.465831
 51
50.534169
  0
LINE
  5
7DF
100
AcDbEntity
  8
BODY
100
AcDbLine
 10
15.25
 20
65.643891
 30
0.0
 11
30.0
 21
65.643891
 31
0.0
  0
LINE
  5
7E0
100
AcDbEntity
  8
SHAFT
100
AcDbLine
 10
30.0
 20
123.315647
 30
0.0
 11
13.25
 21
115.643891
 31
0.0
  0
LINE
  5
7E1
100
AcDbEntity
  8
SHAFT
100
AcDbLine
 10
14.0
 20
130.643891
 30
0.0
 11
30.0
 21
123.315647
 31
0.0
  0
LINE
  5
7E2
100
AcDbEntity
  8
BODY
100
AcDbLine
 10
30.0
 20
115.643891
 30
0.0
 11
13.25
 21
115.643891
 31
0.0
  0
LINE
  5
7E3
100
AcDbEntity
  8
SHAFT
100
AcDbLine
 10
14.0
 20
130.643891
 30
0.0
 11
46.0
 21
130.643891
 31
0.0
  0
LINE
  5
7E4
100
AcDbEntity
  8
SHAFT
100
AcDbLine
 10
13.25
 20
115.643891
 30
0.0
 11
30.0
 21
115.643891
 31
0.0
  0
LINE
  5
7E5
100
AcDbEntity
  8
BODY
100
AcDbLine
 10
30.0
 20
90.643891
 30
0.0
 11
13.723903
 21
66.351209
 31
0.0
  0
LINE
  5
7E6
100
AcDbEntity
  8
BODY
100
AcDbLine
 10
13.25
 20
115.643891
 30
0.0
 11
30.0
 21
90.643891
 31
0.0
  0
LINE
  5
7E7
100
AcDbEntity
  8
BODY
100
AcDbLine
 10
13.25
 20
115.643891
 30
0.0
 11
13.25
 21
67.643891
 31
0.0
  0
LINE
  5
7E8
100
AcDbEntity
  8
BODY
100
AcDbLine
 10
13.25
 20
115.643891
 30
0.0
 11
11.085954
 21
67.553982
 31
0.0
  0
ARC
  5
7E9
100
AcDbEntity
  8
BODY
100
AcDbCircle
 10
15.25
 20
67.643891
 30
0.0
 40
2.0
100
AcDbArc
 50
180.0
 51
270.0
  0
ARC
  5
7EA
100
AcDbEntity
  8
BODY
100
AcDbCircle
 10
9.087976
 20
67.643891
 30
0.0
 40
2.0
100
AcDbArc
 50
270.0
 51
357.423428
  0
ARC
  5
7EB
100
AcDbEntity
  8
BODY
100
AcDbCircle
 10
3.0
 20
62.643891
 30
0.0
 40
3.0
100
AcDbArc
 50
90.0
 51
180.0
  0
LINE
  5
7EC
100
AcDbEntity
  8
BODY
100
AcDbLine
 10
3.0
 20
65.643891
 30
0.0
 11
9.087976
 21
65.643891
 31
0.0
  0
LINE
  5
7ED
100
AcDbEntity
  8
SHAFT
100
AcDbLine
 10
14.0
 20
130.643891
 30
0.0
 11
13.25
 21
115.643891
 31
0.0
  0
LINE
  5
7EE
100
AcDbEntity
  8
BODY
100
AcDbLine
 10
46.75
 20
115.643891
 30
0.0
 11
48.914046
 21
67.553982
 31
0.0
  0
ARC
  5
7EF
100
AcDbEntity
  8
BODY
100
AcDbCircle
 10
50.912024
 20
67.643891
 30
0.0
 40
2.0
100
AcDbArc
 50
182.576572
 51
270.0
  0
LINE
  5
7F0
100
AcDbEntity
  8
BODY
100
AcDbLine
 10
30.0
 20
59.143891
 30
0.0
 11
45.832345
 21
59.143891
 31
0.0
  0
ARC
  5
7F1
100
AcDbEntity
  8
BODY
100
AcDbCircle
 10
45.832345
 20
57.143891
 30
0.0
 40
2.0
100
AcDbArc
 50
2.408216
 51
90.0
  0
ARC
  5
7F2
100
AcDbEntity
  8
BODY
100
AcDbCircle
 10
57.0
 20
62.643891
 30
0.0
 40
3.0
100
AcDbArc
 50
0.0
 51
90.0
  0
LINE
  5
7F3
100
AcDbEntity
  8
BODY
100
AcDbLine
 10
50.912024
 20
65.643891
 30
0.0
 11
57.0
 21
65.643891
 31
0.0
  0
LINE
  5
7F4
100
AcDbEntity
  8
BODY
100
AcDbLine
 10
32.0
 20
126.893891
 30
0.0
 11
32.0
 21
106.343891
 31
0.0
  0
LINE
  5
7F5
100
AcDbEntity
  8
BODY
100
AcDbLine
 10
32.5
 20
127.393891
 30
0.0
 11
32.5
 21
106.643891
 31
0.0
  0
LINE
  5
7F6
100
AcDbEntity
  8
BODY
100
AcDbLine
 10
32.5
 20
106.643891
 30
0.0
 11
30.0
 21
105.143891
 31
0.0
  0
LINE
  5
7F7
100
AcDbEntity
  8
BODY
100
AcDbLine
 10
32.5
 20
106.643891
 30
0.0
 11
30.0
 21
106.643891
 31
0.0
  0
LINE
  5
7F8
100
AcDbEntity
  8
BODY
100
AcDbLine
 10
32.5
 20
111.143891
 30
0.0
 11
32.0
 21
110.643891
 31
0.0
  0
LINE
  5
7F9
100
AcDbEntity
  8
BODY
100
AcDbLine
 10
30.0
 20
111.143891
 30
0.0
 11
32.5
 21
111.143891
 31
0.0
  0
LINE
  5
7FA
100
AcDbEntity
  8
BODY
100
AcDbLine
 10
30.0
 20
110.643891
 30
0.0
 11
32.5
 21
110.643891
 31
0.0
  0
LINE
  5
7FB
100
AcDbEntity
  8
SHAFT
100
AcDbLine
 10
32.0
 20
115.643891
 30
0.0
 11
46.75
 21
115.643891
 31
0.0
  0
LINE
  5
7FC
100
AcDbEntity
  8
BODY
100
AcDbLine
 10
35.75
 20
130.643891
 30
0.0
 11
32.0
 21
126.893891
 31
0.0
  0
LINE
  5
7FD
100
AcDbEntity
  8
SHAFT
100
AcDbLine
 10
32.75
 20
127.643891
 30
0.0
 11
35.75
 21
130.643891
 31
0.0
  0
LINE
  5
7FE
100
AcDbEntity
  8
BODY
100
AcDbLine
 10
46.75
 20
115.643891
 30
0.0
 11
32.0
 21
115.643891
 31
0.0
  0
LINE
  5
7FF
100
AcDbEntity
  8
SHAFT
100
AcDbLine
 10
32.75
 20
127.643891
 30
0.0
 11
32.75
 21
115.643891
 31
0.0
  0
LINE
  5
800
100
AcDbEntity
  8
BODY
100
AcDbLine
 10
32.0
 20
126.893891
 30
0.0
 11
30.0
 21
126.893891
 31
0.0
  0
LINE
  5
801
100
AcDbEntity
  8
BODY
100
AcDbLine
 10
32.5
 20
127.393891
 30
0.0
 11
30.0
 21
127.393891
 31
0.0
  0
LINE
  5
802
100
AcDbEntity
  8
SHAFT
100
AcDbLine
 10
46.0
 20
130.643891
 30
0.0
 11
46.75
 21
115.643891
 31
0.0
  0
ENDBLK
  5
804
100
AcDbEntity
  8
0
100
AcDbBlockEnd
  0
BLOCK
  5
80C
100
AcDbEntity
  8
0
100
AcDbBlockBegin
  2
A$C3D2E53C4
 70
     0
 10
0.0
 20
0.0
 30
0.0
  3
A$C3D2E53C4
  1

  0
INSERT
  5
80A
100
AcDbEntity
  8
0
  6
CONTINUOUS
100
AcDbBlockReference
  2
A$C4D0D3218
 10
-0.000001
 20
0.000001
 30
0.0
  0
INSERT
  5
80B
100
AcDbEntity
  8
0
  6
CONTINUOUS
100
AcDbBlockReference
  2
A$C4D0D3218
 10
558.499999
 20
0.000001
 30
0.0
 41
-1.0
  0
ENDBLK
  5
80D
100
AcDbEntity
  8
0
100
AcDbBlockEnd
  0
ENDSEC
  0
SECTION
  2
ENTITIES
  0
LINE
  5
26
100
AcDbEntity
  8
001
100
AcDbLine
 10
1290.739822
 20
731.5
 30
0.0
 11
1290.739822
 21
739.5
 31
0.0
  0
LINE
  5
27
100
AcDbEntity
  8
001
100
AcDbLine
 10
1266.751487
 20
695.5
 30
0.0
 11
1286.376953
 21
739.177051
 31
0.0
  0
LINE
  5
28
100
AcDbEntity
  8
001
100
AcDbLine
 10
1302.589417
 20
695.5
 30
0.0
 11
1302.589417
 21
726.44918
 31
0.0
  0
LINE
  5
29
100
AcDbEntity
  8
001
100
AcDbLine
 10
1301.715775
 20
695.5
 30
0.0
 11
1301.715775
 21
663.486114
 31
0.0
  0
LINE
  5
2A
100
AcDbEntity
  8
001
100
AcDbLine
 10
1314.587173
 20
664.483563
 30
0.0
 11
1314.587173
 21
695.5
 31
0.0
  0
ARC
  5
2B
100
AcDbEntity
  8
001
100
AcDbCircle
 10
1317.587128
 20
664.499831
 30
0.0
 40
2.999998
100
AcDbArc
 50
180.310695
 51
205.272415
  0
LINE
  5
2C
100
AcDbEntity
  8
001
100
AcDbLine
 10
1321.706012
 20
822.5
 30
0.0
 11
1337.5
 21
822.5
 31
0.0
  0
LINE
  5
2D
100
AcDbEntity
  8
001
100
AcDbLine
 10
1323.5
 20
774.5
 30
0.0
 11
1323.5
 21
822.5
 31
0.0
  0
ARC
  5
2E
100
AcDbEntity
  8
001
100
AcDbCircle
 10
1321.706012
 20
821.5
 30
0.0
 40
1.0
100
AcDbArc
 50
90.0
 51
177.423428
  0
LINE
  5
2F
100
AcDbEntity
  8
001
100
AcDbLine
 10
1318.455
 20
771.5
 30
0.0
 11
1320.707023
 21
821.544955
 31
0.0
  0
LINE
  5
39
100
AcDbEntity
  8
001
100
AcDbLine
 10
1313.5
 20
771.5
 30
0.0
 11
1361.5
 21
771.5
 31
0.0
  0
LINE
  5
3B
100
AcDbEntity
  8
001
100
AcDbLine
 10
1325.5
 20
772.5
 30
0.0
 11
1337.5
 21
772.5
 31
0.0
  0
ARC
  5
3C
100
AcDbEntity
  8
001
100
AcDbCircle
 10
1325.5
 20
774.5
 30
0.0
 40
2.0
100
AcDbArc
 50
180.0
 51
270.0
  0
LINE
  5
43
100
AcDbEntity
  8
001
100
AcDbLine
 10
1362.5
 20
737.5
 30
0.0
 11
1362.5
 21
770.5
 31
0.0
  0
LINE
  5
45
100
AcDbEntity
  8
001
100
AcDbLine
 10
1312.5
 20
737.5
 30
0.0
 11
1312.5
 21
770.5
 31
0.0
  0
ARC
  5
46
100
AcDbEntity
  8
001
100
AcDbCircle
 10
1360.5
 20
737.5
 30
0.0
 40
2.0
100
AcDbArc
 50
270.0
 51
0.0
  0
LINE
  5
47
100
AcDbEntity
  8
001
100
AcDbLine
 10
1314.5
 20
735.5
 30
0.0
 11
1360.5
 21
735.5
 31
0.0
  0
ARC
  5
48
100
AcDbEntity
  8
001
100
AcDbCircle
 10
1314.5
 20
737.5
 30
0.0
 40
2.0
100
AcDbArc
 50
180.0
 51
270.0
  0
LINE
  5
49
100
AcDbEntity
  8
001
  6
CENTER
100
AcDbLine
 10
1337.5
 20
749.5
 30
0.0
 11
1306.25
 21
749.5
 31
0.0
  0
LINE
  5
4A
100
AcDbEntity
  8
001
100
AcDbLine
 10
1323.5
 20
822.5
 30
0.0
 11
1337.5
 21
797.5
 31
0.0
  0
LINE
  5
4B
100
AcDbEntity
  8
001
100
AcDbLine
 10
1337.5
 20
797.5
 30
0.0
 11
1323.927758
 21
773.263854
 31
0.0
  0
LINE
  5
4C
100
AcDbEntity
  8
001
100
AcDbLine
 10
1321.5
 20
729.5
 30
0.0
 11
1321.5
 21
732.1
 31
0.0
  0
LINE
  5
4D
100
AcDbEntity
  8
001
100
AcDbLine
 10
1262.5
 20
251.5
 30
0.0
 11
1262.5
 21
313.369688
 31
0.0
  0
ARC
  5
4E
100
AcDbEntity
  8
001
100
AcDbCircle
 10
1266.5
 20
251.5
 30
0.0
 40
4.0
100
AcDbArc
 50
180.0
 51
270.0
  0
LINE
  5
4F
100
AcDbEntity
  8
001
100
AcDbLine
 10
1310.0
 20
281.288588
 30
0.0
 11
1310.0
 21
254.133338
 31
0.0
  0
LINE
  5
50
100
AcDbEntity
  8
001
100
AcDbLine
 10
1333.5
 20
296.910047
 30
0.0
 11
1333.5
 21
250.015095
 31
0.0
  0
ARC
  5
51
100
AcDbEntity
  8
001
100
AcDbCircle
 10
1335.5
 20
250.015095
 30
0.0
 40
2.0
100
AcDbArc
 50
180.0
 51
269.135125
  0
ARC
  5
52
100
AcDbEntity
  8
001
100
AcDbCircle
 10
1314.0
 20
254.133338
 30
0.0
 40
4.0
100
AcDbArc
 50
180.0
 51
259.625777
  0
ARC
  5
53
100
AcDbEntity
  8
001
100
AcDbCircle
 10
1306.0
 20
281.288588
 30
0.0
 40
4.0
100
AcDbArc
 50
0.0
 51
72.712306
  0
ARC
  5
54
100
AcDbEntity
  8
001
100
AcDbCircle
 10
1331.5
 20
278.673221
 30
0.0
 40
2.0
100
AcDbArc
 50
0.0
 51
86.692638
  0
ARC
  5
55
100
AcDbEntity
  8
001
100
AcDbCircle
 10
1331.5
 20
284.683846
 30
0.0
 40
2.0
100
AcDbArc
 50
0.0
 51
86.4899
  0
ARC
  5
56
100
AcDbEntity
  8
001
100
AcDbCircle
 10
1331.5
 20
296.910047
 30
0.0
 40
2.0
100
AcDbArc
 50
0.0
 51
85.990029
  0
ARC
  5
57
100
AcDbEntity
  8
001
100
AcDbCircle
 10
1209.133338
 20
406.0
 30
0.0
 40
4.0
100
AcDbArc
 50
90.0
 51
169.625777
  0
ARC
  5
58
100
AcDbEntity
  8
001
100
AcDbCircle
 10
1337.5
 20
382.5
 30
0.0
 40
134.5
100
AcDbArc
 50
166.032037
 51
193.967963
  0
ARC
  5
59
100
AcDbEntity
  8
001
100
AcDbCircle
 10
1210.858774
 20
414.0
 30
0.0
 40
4.0
100
AcDbArc
 50
90.0
 51
166.032037
  0
ARC
  5
5A
100
AcDbEntity
  8
001
100
AcDbCircle
 10
1210.858774
 20
351.0
 30
0.0
 40
4.0
100
AcDbArc
 50
193.967963
 51
270.0
  0
LINE
  5
5B
100
AcDbEntity
  8
001
100
AcDbLine
 10
1239.13461
 20
347.0
 30
0.0
 11
1210.858774
 21
347.0
 31
0.0
  0
LINE
  5
5C
100
AcDbEntity
  8
001
100
AcDbLine
 10
1251.910047
 20
378.5
 30
0.0
 11
1205.015095
 21
378.5
 31
0.0
  0
LINE
  5
5D
100
AcDbEntity
  8
001
100
AcDbLine
 10
1251.910047
 20
386.5
 30
0.0
 11
1205.015095
 21
386.5
 31
0.0
  0
LINE
  5
5E
100
AcDbEntity
  8
001
100
AcDbLine
 10
1233.5
 20
418.0
 30
0.0
 11
1210.858774
 21
418.0
 31
0.0
  0
LINE
  5
5F
100
AcDbEntity
  8
001
100
AcDbLine
 10
1236.288588
 20
410.0
 30
0.0
 11
1209.133338
 21
410.0
 31
0.0
  0
ARC
  5
60
100
AcDbEntity
  8
001
100
AcDbCircle
 10
1236.288588
 20
414.0
 30
0.0
 40
4.0
100
AcDbArc
 50
270.0
 51
342.712306
  0
ARC
  5
61
100
AcDbEntity
  8
001
100
AcDbCircle
 10
1239.13461
 20
343.0
 30
0.0
 40
4.0
100
AcDbArc
 50
21.878619
 51
90.0
  0
ARC
  5
62
100
AcDbEntity
  8
001
100
AcDbCircle
 10
1205.015095
 20
380.5
 30
0.0
 40
2.0
100
AcDbArc
 50
180.864875
 51
270.0
  0
ARC
  5
63
100
AcDbEntity
  8
001
100
AcDbCircle
 10
1205.015095
 20
384.5
 30
0.0
 40
2.0
100
AcDbArc
 50
90.0
 51
179.135125
  0
ARC
  5
64
100
AcDbEntity
  8
001
100
AcDbCircle
 10
1337.5
 20
382.5
 30
0.0
 40
102.0
100
AcDbArc
 50
183.307362
 51
266.692638
  0
ARC
  5
65
100
AcDbEntity
  8
001
100
AcDbCircle
 10
1337.5
 20
382.5
 30
0.0
 40
102.0
100
AcDbArc
 50
93.307362
 51
176.692638
  0
ARC
  5
66
100
AcDbEntity
  8
001
100
AcDbCircle
 10
1337.5
 20
382.5
 30
0.0
 40
96.0
100
AcDbArc
 50
183.5101
 51
266.4899
  0
ARC
  5
67
100
AcDbEntity
  8
001
100
AcDbCircle
 10
1337.5
 20
382.5
 30
0.0
 40
96.0
100
AcDbArc
 50
93.5101
 51
176.4899
  0
ARC
  5
68
100
AcDbEntity
  8
001
100
AcDbCircle
 10
1233.673221
 20
388.5
 30
0.0
 40
2.0
100
AcDbArc
 50
270.0
 51
356.692638
  0
ARC
  5
69
100
AcDbEntity
  8
001
100
AcDbCircle
 10
1239.683846
 20
388.5
 30
0.0
 40
2.0
100
AcDbArc
 50
270.0
 51
356.4899
  0
ARC
  5
6A
100
AcDbEntity
  8
001
100
AcDbCircle
 10
1251.910047
 20
388.5
 30
0.0
 40
2.0
100
AcDbArc
 50
270.0
 51
355.990029
  0
ARC
  5
6B
100
AcDbEntity
  8
001
100
AcDbCircle
 10
1233.673221
 20
376.5
 30
0.0
 40
2.0
100
AcDbArc
 50
3.307362
 51
90.0
  0
ARC
  5
6C
100
AcDbEntity
  8
001
100
AcDbCircle
 10
1239.683846
 20
376.5
 30
0.0
 40
2.0
100
AcDbArc
 50
3.5101
 51
90.0
  0
ARC
  5
6D
100
AcDbEntity
  8
001
100
AcDbCircle
 10
1251.910047
 20
376.5
 30
0.0
 40
2.0
100
AcDbArc
 50
4.009971
 51
90.0
  0
LINE
  5
6E
100
AcDbEntity
  8
001
100
AcDbLine
 10
1200.5
 20
388.5
 30
0.0
 11
1203.133896
 21
388.5
 31
0.0
  0
LINE
  5
6F
100
AcDbEntity
  8
001
100
AcDbLine
 10
1200.5
 20
376.5
 30
0.0
 11
1203.133896
 21
376.5
 31
0.0
  0
LINE
  5
70
100
AcDbEntity
  8
001
100
AcDbLine
 10
1197.5
 20
379.5
 30
0.0
 11
1197.5
 21
385.5
 31
0.0
  0
ARC
  5
71
100
AcDbEntity
  8
001
100
AcDbCircle
 10
1200.5
 20
385.5
 30
0.0
 40
3.0
100
AcDbArc
 50
90.0
 51
180.0
  0
ARC
  5
72
100
AcDbEntity
  8
001
100
AcDbCircle
 10
1200.5
 20
379.5
 30
0.0
 40
3.0
100
AcDbArc
 50
180.0
 51
270.0
  0
LINE
  5
73
100
AcDbEntity
  8
001
100
AcDbLine
 10
1300.5
 20
480.24968
 30
0.0
 11
1300.5
 21
508.758663
 31
0.0
  0
LINE
  5
74
100
AcDbEntity
  8
001
100
AcDbLine
 10
1333.5
 20
468.089953
 30
0.0
 11
1333.5
 21
514.984905
 31
0.0
  0
ARC
  5
75
100
AcDbEntity
  8
001
100
AcDbCircle
 10
1335.5
 20
514.984905
 30
0.0
 40
2.0
100
AcDbArc
 50
90.864875
 51
180.0
  0
ARC
  5
76
100
AcDbEntity
  8
001
100
AcDbCircle
 10
1304.5
 20
508.758663
 30
0.0
 40
4.0
100
AcDbArc
 50
104.64762
 51
180.0
  0
ARC
  5
77
100
AcDbEntity
  8
001
100
AcDbCircle
 10
1296.5
 20
480.24968
 30
0.0
 40
4.0
100
AcDbArc
 50
292.755063
 51
0.0
  0
ARC
  5
78
100
AcDbEntity
  8
001
100
AcDbCircle
 10
1331.5
 20
486.326779
 30
0.0
 40
2.0
100
AcDbArc
 50
273.307362
 51
0.0
  0
ARC
  5
79
100
AcDbEntity
  8
001
100
AcDbCircle
 10
1331.5
 20
480.316154
 30
0.0
 40
2.0
100
AcDbArc
 50
273.5101
 51
0.0
  0
ARC
  5
7A
100
AcDbEntity
  8
001
100
AcDbCircle
 10
1331.5
 20
468.089953
 30
0.0
 40
2.0
100
AcDbArc
 50
274.009971
 51
0.0
  0
LINE
  5
7B
100
AcDbEntity
  8
001
100
AcDbLine
 10
1233.5
 20
542.800543
 30
0.0
 11
1233.5
 21
410.0
 31
0.0
  0
LINE
  5
7C
100
AcDbEntity
  8
001
100
AcDbLine
 10
1192.5
 20
567.5
 30
0.0
 11
1192.5
 21
579.5
 31
0.0
  0
LINE
  5
7D
100
AcDbEntity
  8
001
100
AcDbLine
 10
1192.5
 20
585.5
 30
0.0
 11
1192.5
 21
594.5
 31
0.0
  0
ARC
  5
7E
100
AcDbEntity
  8
001
100
AcDbCircle
 10
1195.5
 20
594.5
 30
0.0
 40
3.0
100
AcDbArc
 50
90.0
 51
180.0
  0
ARC
  5
7F
100
AcDbEntity
  8
001
100
AcDbCircle
 10
1195.5
 20
585.5
 30
0.0
 40
3.0
100
AcDbArc
 50
180.0
 51
270.0
  0
ARC
  5
80
100
AcDbEntity
  8
001
100
AcDbCircle
 10
1195.5
 20
579.5
 30
0.0
 40
3.0
100
AcDbArc
 50
90.0
 51
180.0
  0
ARC
  5
81
100
AcDbEntity
  8
001
100
AcDbCircle
 10
1195.5
 20
567.5
 30
0.0
 40
3.0
100
AcDbArc
 50
180.0
 51
270.0
  0
LINE
  5
82
100
AcDbEntity
  8
001
100
AcDbLine
 10
1232.938584
 20
546.104047
 30
0.0
 11
1229.0
 21
557.357143
 31
0.0
  0
ARC
  5
83
100
AcDbEntity
  8
001
100
AcDbCircle
 10
1223.5
 20
542.800543
 30
0.0
 40
10.0
100
AcDbArc
 50
0.0
 51
19.290046
  0
LINE
  5
84
100
AcDbEntity
  8
001
100
AcDbLine
 10
1233.90285
 20
611.1114
 30
0.0
 11
1232.393661
 21
605.074644
 31
0.0
  0
ARC
  5
85
100
AcDbEntity
  8
001
100
AcDbCircle
 10
1222.692236
 20
607.5
 30
0.0
 40
10.0
100
AcDbArc
 50
317.156357
 51
345.963757
  0
LINE
  5
86
100
AcDbEntity
  8
001
100
AcDbLine
 10
1234.5
 20
623.642663
 30
0.0
 11
1234.5
 21
615.962113
 31
0.0
  0
ARC
  5
87
100
AcDbEntity
  8
001
100
AcDbCircle
 10
1214.5
 20
615.962113
 30
0.0
 40
20.0
100
AcDbArc
 50
345.963757
 51
0.0
  0
LINE
  5
88
100
AcDbEntity
  8
001
100
AcDbLine
 10
1258.98531
 20
695.5
 30
0.0
 11
1236.067992
 21
632.535187
 31
0.0
  0
ARC
  5
89
100
AcDbEntity
  8
001
100
AcDbCircle
 10
1260.5
 20
623.642663
 30
0.0
 40
26.0
100
AcDbArc
 50
160.0
 51
180.0
  0
LINE
  5
8A
100
AcDbEntity
  8
001
100
AcDbLine
 10
1265.463663
 20
695.5
 30
0.0
 11
1246.246351
 21
660.5
 31
0.0
  0
LINE
  5
8B
100
AcDbEntity
  8
001
100
AcDbLine
 10
1204.228443
 20
642.5
 30
0.0
 11
1210.98982
 21
642.5
 31
0.0
  0
LINE
  5
8C
100
AcDbEntity
  8
001
100
AcDbLine
 10
1219.390778
 20
683.728152
 30
0.0
 11
1255.237313
 21
691.894878
 31
0.0
  0
LINE
  5
8D
100
AcDbEntity
  8
001
100
AcDbLine
 10
1201.396868
 20
646.491051
 30
0.0
 11
1212.173522
 21
677.281492
 31
0.0
  0
ARC
  5
8E
100
AcDbEntity
  8
001
100
AcDbCircle
 10
1254.126648
 20
696.76996
 30
0.0
 40
5.0
100
AcDbArc
 50
282.834334
 51
340.0
  0
ARC
  5
8F
100
AcDbEntity
  8
001
100
AcDbCircle
 10
1221.612106
 20
673.977988
 30
0.0
 40
10.0
100
AcDbArc
 50
102.834334
 51
160.709954
  0
LINE
  5
90
100
AcDbEntity
  8
001
100
AcDbLine
 10
1213.808898
 20
644.47394
 30
0.0
 11
1220.834001
 21
663.775252
 31
0.0
  0
ARC
  5
91
100
AcDbEntity
  8
001
100
AcDbCircle
 10
1232.580159
 20
659.5
 30
0.0
 40
12.5
100
AcDbArc
 50
340.0
 51
160.0
  0
ARC
  5
92
100
AcDbEntity
  8
001
100
AcDbCircle
 10
1210.98982
 20
645.5
 30
0.0
 40
3.0
100
AcDbArc
 50
270.0
 51
340.0
  0
ARC
  5
93
100
AcDbEntity
  8
001
100
AcDbCircle
 10
1204.228443
 20
645.5
 30
0.0
 40
3.0
100
AcDbArc
 50
160.709954
 51
270.0
  0
LINE
  5
94
100
AcDbEntity
  8
001
100
AcDbLine
 10
1301.5
 20
743.5
 30
0.0
 11
1275.30083
 21
743.5
 31
0.0
  0
LINE
  5
95
100
AcDbEntity
  8
001
100
AcDbLine
 10
1255.029429
 20
695.5
 30
0.0
 11
1271.54206
 21
740.868081
 31
0.0
  0
ARC
  5
96
100
AcDbEntity
  8
001
100
AcDbCircle
 10
1275.30083
 20
739.5
 30
0.0
 40
4.0
100
AcDbArc
 50
90.0
 51
160.0
  0
LINE
  5
97
100
AcDbEntity
  8
001
100
AcDbLine
 10
1305.5
 20
731.5
 30
0.0
 11
1305.5
 21
739.5
 31
0.0
  0
ARC
  5
98
100
AcDbEntity
  8
001
100
AcDbCircle
 10
1286.739822
 20
739.5
 30
0.0
 40
4.0
100
AcDbArc
 50
0.0
 51
90.0
  0
ARC
  5
99
100
AcDbEntity
  8
001
100
AcDbCircle
 10
1301.5
 20
739.5
 30
0.0
 40
4.0
100
AcDbArc
 50
0.0
 51
90.0
  0
ARC
  5
9A
100
AcDbEntity
  8
001
100
AcDbCircle
 10
1307.5
 20
731.5
 30
0.0
 40
2.0
100
AcDbArc
 50
180.0
 51
270.0
  0
ARC
  5
9B
100
AcDbEntity
  8
001
100
AcDbCircle
 10
1292.739822
 20
731.5
 30
0.0
 40
2.0
100
AcDbArc
 50
180.0
 51
270.0
  0
LINE
  5
9C
100
AcDbEntity
  8
001
100
AcDbLine
 10
1373.284225
 20
695.5
 30
0.0
 11
1373.284225
 21
663.486114
 31
0.0
  0
LINE
  5
9D
100
AcDbEntity
  8
001
100
AcDbLine
 10
1360.412827
 20
664.483563
 30
0.0
 11
1360.412827
 21
695.5
 31
0.0
  0
ARC
  5
9E
100
AcDbEntity
  8
001
100
AcDbCircle
 10
1357.412872
 20
664.499831
 30
0.0
 40
2.999998
100
AcDbArc
 50
334.727585
 51
359.689305
  0
LINE
  5
9F
100
AcDbEntity
  8
001
100
AcDbLine
 10
1412.5
 20
251.5
 30
0.0
 11
1412.5
 21
313.369688
 31
0.0
  0
ARC
  5
A0
100
AcDbEntity
  8
001
100
AcDbCircle
 10
1408.5
 20
251.5
 30
0.0
 40
4.0
100
AcDbArc
 50
270.0
 51
0.0
  0
LINE
  5
A1
100
AcDbEntity
  8
001
100
AcDbLine
 10
1365.0
 20
281.288588
 30
0.0
 11
1365.0
 21
254.133338
 31
0.0
  0
LINE
  5
A2
100
AcDbEntity
  8
001
100
AcDbLine
 10
1341.5
 20
296.910047
 30
0.0
 11
1341.5
 21
250.015095
 31
0.0
  0
ARC
  5
A3
100
AcDbEntity
  8
001
100
AcDbCircle
 10
1339.5
 20
250.015095
 30
0.0
 40
2.0
100
AcDbArc
 50
270.864875
 51
0.0
  0
ARC
  5
A4
100
AcDbEntity
  8
001
100
AcDbCircle
 10
1361.0
 20
254.133338
 30
0.0
 40
4.0
100
AcDbArc
 50
280.374223
 51
0.0
  0
ARC
  5
A5
100
AcDbEntity
  8
001
100
AcDbCircle
 10
1369.0
 20
281.288588
 30
0.0
 40
4.0
100
AcDbArc
 50
107.287694
 51
180.0
  0
ARC
  5
A6
100
AcDbEntity
  8
001
100
AcDbCircle
 10
1343.5
 20
278.673221
 30
0.0
 40
2.0
100
AcDbArc
 50
93.307362
 51
180.0
  0
ARC
  5
A7
100
AcDbEntity
  8
001
100
AcDbCircle
 10
1343.5
 20
284.683846
 30
0.0
 40
2.0
100
AcDbArc
 50
93.5101
 51
180.0
  0
ARC
  5
A8
100
AcDbEntity
  8
001
100
AcDbCircle
 10
1343.5
 20
296.910047
 30
0.0
 40
2.0
100
AcDbArc
 50
94.009971
 51
180.0
  0
ARC
  5
A9
100
AcDbEntity
  8
001
100
AcDbCircle
 10
1465.866662
 20
359.0
 30
0.0
 40
4.0
100
AcDbArc
 50
270.0
 51
349.625777
  0
ARC
  5
AA
100
AcDbEntity
  8
001
100
AcDbCircle
 10
1337.5
 20
382.5
 30
0.0
 40
134.5
100
AcDbArc
 50
346.032037
 51
13.967963
  0
ARC
  5
AB
100
AcDbEntity
  8
001
100
AcDbCircle
 10
1464.141226
 20
351.0
 30
0.0
 40
4.0
100
AcDbArc
 50
270.0
 51
346.032037
  0
ARC
  5
AC
100
AcDbEntity
  8
001
100
AcDbCircle
 10
1464.141226
 20
414.0
 30
0.0
 40
4.0
100
AcDbArc
 50
13.967963
 51
90.0
  0
LINE
  5
AD
100
AcDbEntity
  8
001
100
AcDbLine
 10
1435.86539
 20
418.0
 30
0.0
 11
1464.141226
 21
418.0
 31
0.0
  0
LINE
  5
AE
100
AcDbEntity
  8
001
100
AcDbLine
 10
1423.089953
 20
386.5
 30
0.0
 11
1469.984905
 21
386.5
 31
0.0
  0
LINE
  5
AF
100
AcDbEntity
  8
001
100
AcDbLine
 10
1423.089953
 20
378.5
 30
0.0
 11
1469.984905
 21
378.5
 31
0.0
  0
LINE
  5
B0
100
AcDbEntity
  8
001
100
AcDbLine
 10
1435.86539
 20
347.0
 30
0.0
 11
1464.141226
 21
347.0
 31
0.0
  0
LINE
  5
B1
100
AcDbEntity
  8
001
100
AcDbLine
 10
1438.711412
 20
355.0
 30
0.0
 11
1465.866662
 21
355.0
 31
0.0
  0
ARC
  5
B2
100
AcDbEntity
  8
001
100
AcDbCircle
 10
1438.711412
 20
351.0
 30
0.0
 40
4.0
100
AcDbArc
 50
90.0
 51
162.712306
  0
ARC
  5
B3
100
AcDbEntity
  8
001
100
AcDbCircle
 10
1435.86539
 20
422.0
 30
0.0
 40
4.0
100
AcDbArc
 50
201.878619
 51
270.0
  0
ARC
  5
B4
100
AcDbEntity
  8
001
100
AcDbCircle
 10
1469.984905
 20
384.5
 30
0.0
 40
2.0
100
AcDbArc
 50
0.864875
 51
90.0
  0
ARC
  5
B5
100
AcDbEntity
  8
001
100
AcDbCircle
 10
1469.984905
 20
380.5
 30
0.0
 40
2.0
100
AcDbArc
 50
270.0
 51
359.135125
  0
ARC
  5
B6
100
AcDbEntity
  8
001
100
AcDbCircle
 10
1337.5
 20
382.5
 30
0.0
 40
102.0
100
AcDbArc
 50
273.307362
 51
356.692638
  0
ARC
  5
B7
100
AcDbEntity
  8
001
100
AcDbCircle
 10
1337.5
 20
382.5
 30
0.0
 40
96.0
100
AcDbArc
 50
273.5101
 51
356.4899
  0
ARC
  5
B8
100
AcDbEntity
  8
001
100
AcDbCircle
 10
1337.5
 20
382.5
 30
0.0
 40
96.0
100
AcDbArc
 50
3.5101
 51
86.4899
  0
ARC
  5
B9
100
AcDbEntity
  8
001
100
AcDbCircle
 10
1441.326779
 20
376.5
 30
0.0
 40
2.0
100
AcDbArc
 50
90.0
 51
176.692638
  0
ARC
  5
BA
100
AcDbEntity
  8
001
100
AcDbCircle
 10
1435.316154
 20
376.5
 30
0.0
 40
2.0
100
AcDbArc
 50
90.0
 51
176.4899
  0
ARC
  5
BB
100
AcDbEntity
  8
001
100
AcDbCircle
 10
1423.089953
 20
376.5
 30
0.0
 40
2.0
100
AcDbArc
 50
90.0
 51
175.990029
  0
ARC
  5
BC
100
AcDbEntity
  8
001
100
AcDbCircle
 10
1441.326779
 20
388.5
 30
0.0
 40
2.0
100
AcDbArc
 50
183.307362
 51
270.0
  0
ARC
  5
BD
100
AcDbEntity
  8
001
100
AcDbCircle
 10
1435.316154
 20
388.5
 30
0.0
 40
2.0
100
AcDbArc
 50
183.5101
 51
270.0
  0
ARC
  5
BE
100
AcDbEntity
  8
001
100
AcDbCircle
 10
1423.089953
 20
388.5
 30
0.0
 40
2.0
100
AcDbArc
 50
184.009971
 51
270.0
  0
LINE
  5
BF
100
AcDbEntity
  8
001
100
AcDbLine
 10
1474.5
 20
376.5
 30
0.0
 11
1471.866104
 21
376.5
 31
0.0
  0
LINE
  5
C0
100
AcDbEntity
  8
001
100
AcDbLine
 10
1474.5
 20
388.5
 30
0.0
 11
1471.866104
 21
388.5
 31
0.0
  0
LINE
  5
C1
100
AcDbEntity
  8
001
100
AcDbLine
 10
1477.5
 20
385.5
 30
0.0
 11
1477.5
 21
379.5
 31
0.0
  0
ARC
  5
C2
100
AcDbEntity
  8
001
100
AcDbCircle
 10
1474.5
 20
379.5
 30
0.0
 40
3.0
100
AcDbArc
 50
270.0
 51
0.0
  0
ARC
  5
C3
100
AcDbEntity
  8
001
100
AcDbCircle
 10
1474.5
 20
385.5
 30
0.0
 40
3.0
100
AcDbArc
 50
0.0
 51
90.0
  0
LINE
  5
C4
100
AcDbEntity
  8
001
100
AcDbLine
 10
1374.5
 20
480.24968
 30
0.0
 11
1374.5
 21
508.758663
 31
0.0
  0
LINE
  5
C5
100
AcDbEntity
  8
001
100
AcDbLine
 10
1341.5
 20
468.089953
 30
0.0
 11
1341.5
 21
514.984905
 31
0.0
  0
ARC
  5
C6
100
AcDbEntity
  8
001
100
AcDbCircle
 10
1339.5
 20
514.984905
 30
0.0
 40
2.0
100
AcDbArc
 50
0.0
 51
89.135125
  0
ARC
  5
C7
100
AcDbEntity
  8
001
100
AcDbCircle
 10
1370.5
 20
508.758663
 30
0.0
 40
4.0
100
AcDbArc
 50
0.0
 51
75.35238
  0
ARC
  5
C8
100
AcDbEntity
  8
001
100
AcDbCircle
 10
1378.5
 20
480.24968
 30
0.0
 40
4.0
100
AcDbArc
 50
180.0
 51
247.244937
  0
ARC
  5
C9
100
AcDbEntity
  8
001
100
AcDbCircle
 10
1343.5
 20
486.326779
 30
0.0
 40
2.0
100
AcDbArc
 50
180.0
 51
266.692638
  0
ARC
  5
CA
100
AcDbEntity
  8
001
100
AcDbCircle
 10
1343.5
 20
480.316154
 30
0.0
 40
2.0
100
AcDbArc
 50
180.0
 51
266.4899
  0
ARC
  5
CB
100
AcDbEntity
  8
001
100
AcDbCircle
 10
1343.5
 20
468.089953
 30
0.0
 40
2.0
100
AcDbArc
 50
180.0
 51
265.990029
  0
LINE
  5
CC
100
AcDbEntity
  8
001
100
AcDbLine
 10
1441.5
 20
542.800543
 30
0.0
 11
1441.5
 21
418.0
 31
0.0
  0
LINE
  5
CD
100
AcDbEntity
  8
001
100
AcDbLine
 10
1482.5
 20
567.5
 30
0.0
 11
1482.5
 21
579.5
 31
0.0
  0
LINE
  5
CE
100
AcDbEntity
  8
001
100
AcDbLine
 10
1482.5
 20
585.5
 30
0.0
 11
1482.5
 21
594.5
 31
0.0
  0
ARC
  5
CF
100
AcDbEntity
  8
001
100
AcDbCircle
 10
1479.5
 20
594.5
 30
0.0
 40
3.0
100
AcDbArc
 50
0.0
 51
90.0
  0
ARC
  5
D0
100
AcDbEntity
  8
001
100
AcDbCircle
 10
1479.5
 20
585.5
 30
0.0
 40
3.0
100
AcDbArc
 50
270.0
 51
0.0
  0
ARC
  5
D1
100
AcDbEntity
  8
001
100
AcDbCircle
 10
1479.5
 20
579.5
 30
0.0
 40
3.0
100
AcDbArc
 50
0.0
 51
90.0
  0
ARC
  5
D2
100
AcDbEntity
  8
001
100
AcDbCircle
 10
1479.5
 20
567.5
 30
0.0
 40
3.0
100
AcDbArc
 50
270.0
 51
0.0
  0
LINE
  5
D3
100
AcDbEntity
  8
001
100
AcDbLine
 10
1442.061416
 20
546.104047
 30
0.0
 11
1446.0
 21
557.357143
 31
0.0
  0
ARC
  5
D4
100
AcDbEntity
  8
001
100
AcDbCircle
 10
1451.5
 20
542.800543
 30
0.0
 40
10.0
100
AcDbArc
 50
160.709954
 51
180.0
  0
LINE
  5
D5
100
AcDbEntity
  8
001
100
AcDbLine
 10
1441.09715
 20
611.1114
 30
0.0
 11
1442.606339
 21
605.074644
 31
0.0
  0
ARC
  5
D6
100
AcDbEntity
  8
001
100
AcDbCircle
 10
1452.307764
 20
607.5
 30
0.0
 40
10.0
100
AcDbArc
 50
194.036243
 51
222.843643
  0
LINE
  5
D7
100
AcDbEntity
  8
001
100
AcDbLine
 10
1440.5
 20
623.642663
 30
0.0
 11
1440.5
 21
615.962113
 31
0.0
  0
ARC
  5
D8
100
AcDbEntity
  8
001
100
AcDbCircle
 10
1460.5
 20
615.962113
 30
0.0
 40
20.0
100
AcDbArc
 50
180.0
 51
194.036243
  0
LINE
  5
D9
100
AcDbEntity
  8
001
100
AcDbLine
 10
1416.01469
 20
695.5
 30
0.0
 11
1438.932008
 21
632.535187
 31
0.0
  0
ARC
  5
DA
100
AcDbEntity
  8
001
100
AcDbCircle
 10
1414.5
 20
623.642663
 30
0.0
 40
26.0
100
AcDbArc
 50
0.0
 51
20.0
  0
LINE
  5
DB
100
AcDbEntity
  8
001
100
AcDbLine
 10
1409.536337
 20
695.5
 30
0.0
 11
1428.753649
 21
660.5
 31
0.0
  0
LINE
  5
DC
100
AcDbEntity
  8
001
100
AcDbLine
 10
1470.771557
 20
642.5
 30
0.0
 11
1464.01018
 21
642.5
 31
0.0
  0
LINE
  5
DD
100
AcDbEntity
  8
001
100
AcDbLine
 10
1473.603132
 20
646.491051
 30
0.0
 11
1462.826478
 21
677.281492
 31
0.0
  0
ARC
  5
DE
100
AcDbEntity
  8
001
100
AcDbCircle
 10
1453.387894
 20
673.977988
 30
0.0
 40
10.0
100
AcDbArc
 50
19.290046
 51
77.165666
  0
LINE
  5
DF
100
AcDbEntity
  8
001
100
AcDbLine
 10
1461.191102
 20
644.47394
 30
0.0
 11
1454.165999
 21
663.775252
 31
0.0
  0
ARC
  5
E0
100
AcDbEntity
  8
001
100
AcDbCircle
 10
1442.419841
 20
659.5
 30
0.0
 40
12.5
100
AcDbArc
 50
20.0
 51
200.0
  0
ARC
  5
E1
100
AcDbEntity
  8
001
100
AcDbCircle
 10
1464.01018
 20
645.5
 30
0.0
 40
3.0
100
AcDbArc
 50
200.0
 51
270.0
  0
ARC
  5
E2
100
AcDbEntity
  8
001
100
AcDbCircle
 10
1470.771557
 20
645.5
 30
0.0
 40
3.0
100
AcDbArc
 50
270.0
 51
19.290046
  0
LINE
  5
E3
100
AcDbEntity
  8
001
100
AcDbLine
 10
1384.260178
 20
731.5
 30
0.0
 11
1384.260178
 21
739.5
 31
0.0
  0
LINE
  5
E4
100
AcDbEntity
  8
001
100
AcDbLine
 10
1408.248513
 20
695.5
 30
0.0
 11
1388.623047
 21
739.177051
 31
0.0
  0
LINE
  5
E5
100
AcDbEntity
  8
001
100
AcDbLine
 10
1372.410583
 20
695.5
 30
0.0
 11
1372.410583
 21
726.44918
 31
0.0
  0
LINE
  5
E6
100
AcDbEntity
  8
001
100
AcDbLine
 10
1455.609222
 20
683.728152
 30
0.0
 11
1419.762687
 21
691.894878
 31
0.0
  0
ARC
  5
E7
100
AcDbEntity
  8
001
100
AcDbCircle
 10
1420.873352
 20
696.76996
 30
0.0
 40
5.0
100
AcDbArc
 50
200.0
 51
257.165666
  0
LINE
  5
E8
100
AcDbEntity
  8
001
100
AcDbLine
 10
1373.5
 20
743.5
 30
0.0
 11
1399.69917
 21
743.5
 31
0.0
  0
LINE
  5
E9
100
AcDbEntity
  8
001
100
AcDbLine
 10
1419.970571
 20
695.5
 30
0.0
 11
1403.45794
 21
740.868081
 31
0.0
  0
ARC
  5
EA
100
AcDbEntity
  8
001
100
AcDbCircle
 10
1399.69917
 20
739.5
 30
0.0
 40
4.0
100
AcDbArc
 50
20.0
 51
90.0
  0
LINE
  5
EB
100
AcDbEntity
  8
001
100
AcDbLine
 10
1369.5
 20
731.5
 30
0.0
 11
1369.5
 21
739.5
 31
0.0
  0
ARC
  5
EC
100
AcDbEntity
  8
001
100
AcDbCircle
 10
1388.260178
 20
739.5
 30
0.0
 40
4.0
100
AcDbArc
 50
90.0
 51
180.0
  0
ARC
  5
ED
100
AcDbEntity
  8
001
100
AcDbCircle
 10
1373.5
 20
739.5
 30
0.0
 40
4.0
100
AcDbArc
 50
90.0
 51
180.0
  0
ARC
  5
EE
100
AcDbEntity
  8
001
100
AcDbCircle
 10
1367.5
 20
731.5
 30
0.0
 40
2.0
100
AcDbArc
 50
270.0
 51
0.0
  0
ARC
  5
EF
100
AcDbEntity
  8
001
100
AcDbCircle
 10
1382.260178
 20
731.5
 30
0.0
 40
2.0
100
AcDbArc
 50
270.0
 51
0.0
  0
LINE
  5
F0
100
AcDbEntity
  8
001
100
AcDbLine
 10
1382.260178
 20
729.5
 30
0.0
 11
1292.739822
 21
729.5
 31
0.0
  0
LINE
  5
F1
100
AcDbEntity
  8
001
100
AcDbLine
 10
1419.970571
 20
695.5
 30
0.0
 11
1255.029429
 21
695.5
 31
0.0
  0
LINE
  5
F2
100
AcDbEntity
  8
001
100
AcDbLine
 10
1246.246351
 20
660.5
 30
0.0
 11
1428.753649
 21
660.5
 31
0.0
  0
LINE
  5
F3
100
AcDbEntity
  8
001
100
AcDbLine
 10
1479.5
 20
597.5
 30
0.0
 11
1195.5
 21
597.5
 31
0.0
  0
LINE
  5
F4
100
AcDbEntity
  8
001
100
AcDbLine
 10
1479.5
 20
582.5
 30
0.0
 11
1195.5
 21
582.5
 31
0.0
  0
LINE
  5
F5
100
AcDbEntity
  8
001
100
AcDbLine
 10
1479.5
 20
564.5
 30
0.0
 11
1195.5
 21
564.5
 31
0.0
  0
LINE
  5
F6
100
AcDbEntity
  8
001
100
AcDbLine
 10
1441.5
 20
544.5
 30
0.0
 11
1233.5
 21
544.5
 31
0.0
  0
ARC
  5
F7
100
AcDbEntity
  8
001
100
AcDbCircle
 10
1337.5
 20
382.5
 30
0.0
 40
134.5
100
AcDbArc
 50
75.35238
 51
104.64762
  0
CIRCLE
  5
F8
100
AcDbEntity
  8
001
100
AcDbCircle
 10
1337.5
 20
382.5
 30
0.0
 40
75.0
  0
CIRCLE
  5
F9
100
AcDbEntity
  8
001
100
AcDbCircle
 10
1337.5
 20
382.5
 30
0.0
 40
83.8
  0
ARC
  5
FA
100
AcDbEntity
  8
001
100
AcDbCircle
 10
1337.5
 20
382.5
 30
0.0
 40
134.5
100
AcDbArc
 50
259.625777
 51
280.374223
  0
LINE
  5
FB
100
AcDbEntity
  8
001
100
AcDbLine
 10
1266.5
 20
247.5
 30
0.0
 11
1408.5
 21
247.5
 31
0.0
  0
ARC
  5
FC
100
AcDbEntity
  8
001
100
AcDbCircle
 10
1435.86539
 20
343.0
 30
0.0
 40
4.0
100
AcDbArc
 50
90.0
 51
158.121381
  0
ARC
  5
FD
100
AcDbEntity
  8
001
100
AcDbCircle
 10
613.293988
 20
821.5
 30
0.0
 40
1.0
100
AcDbArc
 50
2.576572
 51
90.0
  0
POLYLINE
  5
100
100
AcDbEntity
  8
001
100
AcDb2dPolyline
 66
     1
 10
0.0
 20
0.0
 30
0.0
  0
VERTEX
  5
101
100
AcDbEntity
  8
001
100
AcDbVertex
100
AcDb2dVertex
 10
1417.080758
 20
446.554453
 30
0.0
  0
VERTEX
  5
102
100
AcDbEntity
  8
001
100
AcDbVertex
100
AcDb2dVertex
 10
1417.290986
 20
446.288619
 30
0.0
  0
VERTEX
  5
103
100
AcDbEntity
  8
001
100
AcDbVertex
100
AcDb2dVertex
 10
1417.504911
 20
446.028913
 30
0.0
  0
VERTEX
  5
104
100
AcDbEntity
  8
001
100
AcDbVertex
100
AcDb2dVertex
 10
1417.720906
 20
445.777312
 30
0.0
  0
VERTEX
  5
105
100
AcDbEntity
  8
001
100
AcDbVertex
100
AcDb2dVertex
 10
1417.937326
 20
445.53573
 30
0.0
  0
VERTEX
  5
106
100
AcDbEntity
  8
001
100
AcDbVertex
100
AcDb2dVertex
 10
1418.152524
 20
445.306005
 30
0.0
  0
VERTEX
  5
107
100
AcDbEntity
  8
001
100
AcDbVertex
100
AcDb2dVertex
 10
1418.364863
 20
445.089888
 30
0.0
  0
VERTEX
  5
108
100
AcDbEntity
  8
001
100
AcDbVertex
100
AcDb2dVertex
 10
1418.572727
 20
444.889021
 30
0.0
  0
VERTEX
  5
109
100
AcDbEntity
  8
001
100
AcDbVertex
100
AcDb2dVertex
 10
1418.774533
 20
444.704934
 30
0.0
  0
VERTEX
  5
10A
100
AcDbEntity
  8
001
100
AcDbVertex
100
AcDb2dVertex
 10
1418.968746
 20
444.539028
 30
0.0
  0
VERTEX
  5
10B
100
AcDbEntity
  8
001
100
AcDbVertex
100
AcDb2dVertex
 10
1419.153888
 20
444.392565
 30
0.0
  0
VERTEX
  5
10C
100
AcDbEntity
  8
001
100
AcDbVertex
100
AcDb2dVertex
 10
1419.32855
 20
444.26666
 30
0.0
  0
VERTEX
  5
10D
100
AcDbEntity
  8
001
100
AcDbVertex
100
AcDb2dVertex
 10
1419.491401
 20
444.162272
 30
0.0
  0
VERTEX
  5
10E
100
AcDbEntity
  8
001
100
AcDbVertex
100
AcDb2dVertex
 10
1419.641204
 20
444.080195
 30
0.0
  0
VERTEX
  5
10F
100
AcDbEntity
  8
001
100
AcDbVertex
100
AcDb2dVertex
 10
1419.776818
 20
444.021053
 30
0.0
  0
VERTEX
  5
110
100
AcDbEntity
  8
001
100
AcDbVertex
100
AcDb2dVertex
 10
1419.89721
 20
443.985296
 30
0.0
  0
VERTEX
  5
111
100
AcDbEntity
  8
001
100
AcDbVertex
100
AcDb2dVertex
 10
1420.001465
 20
443.973198
 30
0.0
  0
VERTEX
  5
112
100
AcDbEntity
  8
001
100
AcDbVertex
100
AcDb2dVertex
 10
1420.088789
 20
443.984849
 30
0.0
  0
VERTEX
  5
113
100
AcDbEntity
  8
001
100
AcDbVertex
100
AcDb2dVertex
 10
1420.158518
 20
444.020161
 30
0.0
  0
SEQEND
  5
114
100
AcDbEntity
  8
001
  0
POLYLINE
  5
115
100
AcDbEntity
  8
001
100
AcDb2dPolyline
 66
     1
 10
0.0
 20
0.0
 30
0.0
  0
VERTEX
  5
116
100
AcDbEntity
  8
001
100
AcDbVertex
100
AcDb2dVertex
 10
1415.685242
 20
445.160123
 30
0.0
  0
VERTEX
  5
117
100
AcDbEntity
  8
001
100
AcDbVertex
100
AcDb2dVertex
 10
1415.894703
 20
444.893925
 30
0.0
  0
VERTEX
  5
118
100
AcDbEntity
  8
001
100
AcDbVertex
100
AcDb2dVertex
 10
1416.107876
 20
444.633844
 30
0.0
  0
VERTEX
  5
119
100
AcDbEntity
  8
001
100
AcDbVertex
100
AcDb2dVertex
 10
1416.32314
 20
444.38186
 30
0.0
  0
VERTEX
  5
11A
100
AcDbEntity
  8
001
100
AcDbVertex
100
AcDb2dVertex
 10
1416.538856
 20
444.139891
 30
0.0
  0
VERTEX
  5
11B
100
AcDbEntity
  8
001
100
AcDbVertex
100
AcDb2dVertex
 10
1416.753383
 20
443.909778
 30
0.0
  0
VERTEX
  5
11C
100
AcDbEntity
  8
001
100
AcDbVertex
100
AcDb2dVertex
 10
1416.965088
 20
443.693272
 30
0.0
  0
VERTEX
  5
11D
100
AcDbEntity
  8
001
100
AcDbVertex
100
AcDb2dVertex
 10
1417.172359
 20
443.492021
 30
0.0
  0
VERTEX
  5
11E
100
AcDbEntity
  8
001
100
AcDbVertex
100
AcDb2dVertex
 10
1417.373619
 20
443.307557
 30
0.0
  0
VERTEX
  5
11F
100
AcDbEntity
  8
001
100
AcDbVertex
100
AcDb2dVertex
 10
1417.567337
 20
443.141284
 30
0.0
  0
VERTEX
  5
120
100
AcDbEntity
  8
001
100
AcDbVertex
100
AcDb2dVertex
 10
1417.752038
 20
442.994467
 30
0.0
  0
VERTEX
  5
121
100
AcDbEntity
  8
001
100
AcDbVertex
100
AcDb2dVertex
 10
1417.926316
 20
442.868223
 30
0.0
  0
VERTEX
  5
122
100
AcDbEntity
  8
001
100
AcDbVertex
100
AcDb2dVertex
 10
1418.088845
 20
442.763514
 30
0.0
  0
VERTEX
  5
123
100
AcDbEntity
  8
001
100
AcDbVertex
100
AcDb2dVertex
 10
1418.238389
 20
442.681135
 30
0.0
  0
VERTEX
  5
124
100
AcDbEntity
  8
001
100
AcDbVertex
100
AcDb2dVertex
 10
1418.373808
 20
442.621715
 30
0.0
  0
VERTEX
  5
125
100
AcDbEntity
  8
001
100
AcDbVertex
100
AcDb2dVertex
 10
1418.494073
 20
442.585705
 30
0.0
  0
VERTEX
  5
126
100
AcDbEntity
  8
001
100
AcDbVertex
100
AcDb2dVertex
 10
1418.598268
 20
442.57338
 30
0.0
  0
VERTEX
  5
127
100
AcDbEntity
  8
001
100
AcDbVertex
100
AcDb2dVertex
 10
1418.6856
 20
442.584833
 30
0.0
  0
VERTEX
  5
128
100
AcDbEntity
  8
001
100
AcDbVertex
100
AcDb2dVertex
 10
1418.755405
 20
442.619976
 30
0.0
  0
SEQEND
  5
129
100
AcDbEntity
  8
001
  0
POLYLINE
  5
12A
100
AcDbEntity
  8
001
100
AcDb2dPolyline
 66
     1
 10
0.0
 20
0.0
 30
0.0
  0
VERTEX
  5
12B
100
AcDbEntity
  8
001
100
AcDbVertex
100
AcDb2dVertex
 10
1420.158518
 20
444.020161
 30
0.0
  0
VERTEX
  5
12C
100
AcDbEntity
  8
001
100
AcDbVertex
100
AcDb2dVertex
 10
1420.209596
 20
444.07953
 30
0.0
  0
VERTEX
  5
12D
100
AcDbEntity
  8
001
100
AcDbVertex
100
AcDb2dVertex
 10
1420.24112
 20
444.16318
 30
0.0
  0
VERTEX
  5
12E
100
AcDbEntity
  8
001
100
AcDbVertex
100
AcDb2dVertex
 10
1420.252852
 20
444.270473
 30
0.0
  0
VERTEX
  5
12F
100
AcDbEntity
  8
001
100
AcDbVertex
100
AcDb2dVertex
 10
1420.244702
 20
444.400592
 30
0.0
  0
VERTEX
  5
130
100
AcDbEntity
  8
001
100
AcDbVertex
100
AcDb2dVertex
 10
1420.216732
 20
444.552548
 30
0.0
  0
VERTEX
  5
131
100
AcDbEntity
  8
001
100
AcDbVertex
100
AcDb2dVertex
 10
1420.169155
 20
444.725184
 30
0.0
  0
VERTEX
  5
132
100
AcDbEntity
  8
001
100
AcDbVertex
100
AcDb2dVertex
 10
1420.102333
 20
444.917186
 30
0.0
  0
VERTEX
  5
133
100
AcDbEntity
  8
001
100
AcDbVertex
100
AcDb2dVertex
 10
1420.016774
 20
445.127093
 30
0.0
  0
VERTEX
  5
134
100
AcDbEntity
  8
001
100
AcDbVertex
100
AcDb2dVertex
 10
1419.91313
 20
445.353308
 30
0.0
  0
VERTEX
  5
135
100
AcDbEntity
  8
001
100
AcDbVertex
100
AcDb2dVertex
 10
1419.792189
 20
445.594108
 30
0.0
  0
VERTEX
  5
136
100
AcDbEntity
  8
001
100
AcDbVertex
100
AcDb2dVertex
 10
1419.654873
 20
445.847661
 30
0.0
  0
VERTEX
  5
137
100
AcDbEntity
  8
001
100
AcDbVertex
100
AcDb2dVertex
 10
1419.502225
 20
446.112038
 30
0.0
  0
VERTEX
  5
138
100
AcDbEntity
  8
001
100
AcDbVertex
100
AcDb2dVertex
 10
1419.335408
 20
446.385226
 30
0.0
  0
VERTEX
  5
139
100
AcDbEntity
  8
001
100
AcDbVertex
100
AcDb2dVertex
 10
1419.155691
 20
446.665146
 30
0.0
  0
VERTEX
  5
13A
100
AcDbEntity
  8
001
100
AcDbVertex
100
AcDb2dVertex
 10
1418.964443
 20
446.949668
 30
0.0
  0
VERTEX
  5
13B
100
AcDbEntity
  8
001
100
AcDbVertex
100
AcDb2dVertex
 10
1418.763117
 20
447.236626
 30
0.0
  0
VERTEX
  5
13C
100
AcDbEntity
  8
001
100
AcDbVertex
100
AcDb2dVertex
 10
1418.553248
 20
447.523837
 30
0.0
  0
VERTEX
  5
13D
100
AcDbEntity
  8
001
100
AcDbVertex
100
AcDb2dVertex
 10
1418.336432
 20
447.809115
 30
0.0
  0
SEQEND
  5
13E
100
AcDbEntity
  8
001
  0
LINE
  5
13F
100
AcDbEntity
  8
001
100
AcDbLine
 10
1420.176351
 20
444.035866
 30
0.0
 11
1418.773598
 21
442.63596
 31
0.0
  0
POLYLINE
  5
140
100
AcDbEntity
  8
001
100
AcDb2dPolyline
 66
     1
 10
0.0
 20
0.0
 30
0.0
  0
VERTEX
  5
141
100
AcDbEntity
  8
001
100
AcDbVertex
100
AcDb2dVertex
 10
1418.755405
 20
442.619976
 30
0.0
  0
VERTEX
  5
142
100
AcDbEntity
  8
001
100
AcDbVertex
100
AcDb2dVertex
 10
1418.773598
 20
442.63596
 30
0.0
  0
SEQEND
  5
143
100
AcDbEntity
  8
001
  0
POLYLINE
  5
144
100
AcDbEntity
  8
001
100
AcDb2dPolyline
 66
     1
 10
0.0
 20
0.0
 30
0.0
  0
VERTEX
  5
145
100
AcDbEntity
  8
001
100
AcDbVertex
100
AcDb2dVertex
 10
1399.020161
 20
465.158518
 30
0.0
  0
VERTEX
  5
146
100
AcDbEntity
  8
001
100
AcDbVertex
100
AcDb2dVertex
 10
1398.984849
 20
465.088789
 30
0.0
  0
VERTEX
  5
147
100
AcDbEntity
  8
001
100
AcDbVertex
100
AcDb2dVertex
 10
1398.973198
 20
465.001465
 30
0.0
  0
VERTEX
  5
148
100
AcDbEntity
  8
001
100
AcDbVertex
100
AcDb2dVertex
 10
1398.985296
 20
464.89721
 30
0.0
  0
VERTEX
  5
149
100
AcDbEntity
  8
001
100
AcDbVertex
100
AcDb2dVertex
 10
1399.021053
 20
464.776818
 30
0.0
  0
VERTEX
  5
14A
100
AcDbEntity
  8
001
100
AcDbVertex
100
AcDb2dVertex
 10
1399.080195
 20
464.641204
 30
0.0
  0
VERTEX
  5
14B
100
AcDbEntity
  8
001
100
AcDbVertex
100
AcDb2dVertex
 10
1399.162272
 20
464.491401
 30
0.0
  0
VERTEX
  5
14C
100
AcDbEntity
  8
001
100
AcDbVertex
100
AcDb2dVertex
 10
1399.26666
 20
464.32855
 30
0.0
  0
VERTEX
  5
14D
100
AcDbEntity
  8
001
100
AcDbVertex
100
AcDb2dVertex
 10
1399.392565
 20
464.153888
 30
0.0
  0
VERTEX
  5
14E
100
AcDbEntity
  8
001
100
AcDbVertex
100
AcDb2dVertex
 10
1399.539028
 20
463.968746
 30
0.0
  0
VERTEX
  5
14F
100
AcDbEntity
  8
001
100
AcDbVertex
100
AcDb2dVertex
 10
1399.704934
 20
463.774533
 30
0.0
  0
VERTEX
  5
150
100
AcDbEntity
  8
001
100
AcDbVertex
100
AcDb2dVertex
 10
1399.889021
 20
463.572727
 30
0.0
  0
VERTEX
  5
151
100
AcDbEntity
  8
001
100
AcDbVertex
100
AcDb2dVertex
 10
1400.089888
 20
463.364863
 30
0.0
  0
VERTEX
  5
152
100
AcDbEntity
  8
001
100
AcDbVertex
100
AcDb2dVertex
 10
1400.306005
 20
463.152524
 30
0.0
  0
VERTEX
  5
153
100
AcDbEntity
  8
001
100
AcDbVertex
100
AcDb2dVertex
 10
1400.53573
 20
462.937326
 30
0.0
  0
VERTEX
  5
154
100
AcDbEntity
  8
001
100
AcDbVertex
100
AcDb2dVertex
 10
1400.777312
 20
462.720906
 30
0.0
  0
VERTEX
  5
155
100
AcDbEntity
  8
001
100
AcDbVertex
100
AcDb2dVertex
 10
1401.028913
 20
462.504911
 30
0.0
  0
VERTEX
  5
156
100
AcDbEntity
  8
001
100
AcDbVertex
100
AcDb2dVertex
 10
1401.288619
 20
462.290986
 30
0.0
  0
VERTEX
  5
157
100
AcDbEntity
  8
001
100
AcDbVertex
100
AcDb2dVertex
 10
1401.554453
 20
462.080758
 30
0.0
  0
SEQEND
  5
158
100
AcDbEntity
  8
001
  0
POLYLINE
  5
159
100
AcDbEntity
  8
001
100
AcDb2dPolyline
 66
     1
 10
0.0
 20
0.0
 30
0.0
  0
VERTEX
  5
15A
100
AcDbEntity
  8
001
100
AcDbVertex
100
AcDb2dVertex
 10
1397.619976
 20
463.755405
 30
0.0
  0
VERTEX
  5
15B
100
AcDbEntity
  8
001
100
AcDbVertex
100
AcDb2dVertex
 10
1397.584833
 20
463.6856
 30
0.0
  0
VERTEX
  5
15C
100
AcDbEntity
  8
001
100
AcDbVertex
100
AcDb2dVertex
 10
1397.57338
 20
463.598268
 30
0.0
  0
VERTEX
  5
15D
100
AcDbEntity
  8
001
100
AcDbVertex
100
AcDb2dVertex
 10
1397.585705
 20
463.494073
 30
0.0
  0
VERTEX
  5
15E
100
AcDbEntity
  8
001
100
AcDbVertex
100
AcDb2dVertex
 10
1397.621715
 20
463.373808
 30
0.0
  0
VERTEX
  5
15F
100
AcDbEntity
  8
001
100
AcDbVertex
100
AcDb2dVertex
 10
1397.681135
 20
463.238389
 30
0.0
  0
VERTEX
  5
160
100
AcDbEntity
  8
001
100
AcDbVertex
100
AcDb2dVertex
 10
1397.763514
 20
463.088845
 30
0.0
  0
VERTEX
  5
161
100
AcDbEntity
  8
001
100
AcDbVertex
100
AcDb2dVertex
 10
1397.868223
 20
462.926316
 30
0.0
  0
VERTEX
  5
162
100
AcDbEntity
  8
001
100
AcDbVertex
100
AcDb2dVertex
 10
1397.994467
 20
462.752038
 30
0.0
  0
VERTEX
  5
163
100
AcDbEntity
  8
001
100
AcDbVertex
100
AcDb2dVertex
 10
1398.141284
 20
462.567337
 30
0.0
  0
VERTEX
  5
164
100
AcDbEntity
  8
001
100
AcDbVertex
100
AcDb2dVertex
 10
1398.307557
 20
462.373619
 30
0.0
  0
VERTEX
  5
165
100
AcDbEntity
  8
001
100
AcDbVertex
100
AcDb2dVertex
 10
1398.492021
 20
462.172359
 30
0.0
  0
VERTEX
  5
166
100
AcDbEntity
  8
001
100
AcDbVertex
100
AcDb2dVertex
 10
1398.693272
 20
461.965088
 30
0.0
  0
VERTEX
  5
167
100
AcDbEntity
  8
001
100
AcDbVertex
100
AcDb2dVertex
 10
1398.909778
 20
461.753383
 30
0.0
  0
VERTEX
  5
168
100
AcDbEntity
  8
001
100
AcDbVertex
100
AcDb2dVertex
 10
1399.139891
 20
461.538856
 30
0.0
  0
VERTEX
  5
169
100
AcDbEntity
  8
001
100
AcDbVertex
100
AcDb2dVertex
 10
1399.38186
 20
461.32314
 30
0.0
  0
VERTEX
  5
16A
100
AcDbEntity
  8
001
100
AcDbVertex
100
AcDb2dVertex
 10
1399.633844
 20
461.107876
 30
0.0
  0
VERTEX
  5
16B
100
AcDbEntity
  8
001
100
AcDbVertex
100
AcDb2dVertex
 10
1399.893925
 20
460.894703
 30
0.0
  0
VERTEX
  5
16C
100
AcDbEntity
  8
001
100
AcDbVertex
100
AcDb2dVertex
 10
1400.160123
 20
460.685242
 30
0.0
  0
SEQEND
  5
16D
100
AcDbEntity
  8
001
  0
POLYLINE
  5
16E
100
AcDbEntity
  8
001
100
AcDb2dPolyline
 66
     1
 10
0.0
 20
0.0
 30
0.0
  0
VERTEX
  5
16F
100
AcDbEntity
  8
001
100
AcDbVertex
100
AcDb2dVertex
 10
1402.809115
 20
463.336432
 30
0.0
  0
VERTEX
  5
170
100
AcDbEntity
  8
001
100
AcDbVertex
100
AcDb2dVertex
 10
1402.523837
 20
463.553248
 30
0.0
  0
VERTEX
  5
171
100
AcDbEntity
  8
001
100
AcDbVertex
100
AcDb2dVertex
 10
1402.236626
 20
463.763117
 30
0.0
  0
VERTEX
  5
172
100
AcDbEntity
  8
001
100
AcDbVertex
100
AcDb2dVertex
 10
1401.949668
 20
463.964443
 30
0.0
  0
VERTEX
  5
173
100
AcDbEntity
  8
001
100
AcDbVertex
100
AcDb2dVertex
 10
1401.665146
 20
464.155691
 30
0.0
  0
VERTEX
  5
174
100
AcDbEntity
  8
001
100
AcDbVertex
100
AcDb2dVertex
 10
1401.385226
 20
464.335408
 30
0.0
  0
VERTEX
  5
175
100
AcDbEntity
  8
001
100
AcDbVertex
100
AcDb2dVertex
 10
1401.112038
 20
464.502225
 30
0.0
  0
VERTEX
  5
176
100
AcDbEntity
  8
001
100
AcDbVertex
100
AcDb2dVertex
 10
1400.847661
 20
464.654873
 30
0.0
  0
VERTEX
  5
177
100
AcDbEntity
  8
001
100
AcDbVertex
100
AcDb2dVertex
 10
1400.594108
 20
464.792189
 30
0.0
  0
VERTEX
  5
178
100
AcDbEntity
  8
001
100
AcDbVertex
100
AcDb2dVertex
 10
1400.353308
 20
464.91313
 30
0.0
  0
VERTEX
  5
179
100
AcDbEntity
  8
001
100
AcDbVertex
100
AcDb2dVertex
 10
1400.127093
 20
465.016774
 30
0.0
  0
VERTEX
  5
17A
100
AcDbEntity
  8
001
100
AcDbVertex
100
AcDb2dVertex
 10
1399.917186
 20
465.102333
 30
0.0
  0
VERTEX
  5
17B
100
AcDbEntity
  8
001
100
AcDbVertex
100
AcDb2dVertex
 10
1399.725184
 20
465.169155
 30
0.0
  0
VERTEX
  5
17C
100
AcDbEntity
  8
001
100
AcDbVertex
100
AcDb2dVertex
 10
1399.552548
 20
465.216732
 30
0.0
  0
VERTEX
  5
17D
100
AcDbEntity
  8
001
100
AcDbVertex
100
AcDb2dVertex
 10
1399.400592
 20
465.244702
 30
0.0
  0
VERTEX
  5
17E
100
AcDbEntity
  8
001
100
AcDbVertex
100
AcDb2dVertex
 10
1399.270473
 20
465.252852
 30
0.0
  0
VERTEX
  5
17F
100
AcDbEntity
  8
001
100
AcDbVertex
100
AcDb2dVertex
 10
1399.16318
 20
465.24112
 30
0.0
  0
VERTEX
  5
180
100
AcDbEntity
  8
001
100
AcDbVertex
100
AcDb2dVertex
 10
1399.07953
 20
465.209596
 30
0.0
  0
VERTEX
  5
181
100
AcDbEntity
  8
001
100
AcDbVertex
100
AcDb2dVertex
 10
1399.020161
 20
465.158518
 30
0.0
  0
SEQEND
  5
182
100
AcDbEntity
  8
001
  0
LINE
  5
183
100
AcDbEntity
  8
001
100
AcDbLine
 10
1399.035866
 20
465.176351
 30
0.0
 11
1397.63596
 21
463.773598
 31
0.0
  0
POLYLINE
  5
184
100
AcDbEntity
  8
001
100
AcDb2dPolyline
 66
     1
 10
0.0
 20
0.0
 30
0.0
  0
VERTEX
  5
185
100
AcDbEntity
  8
001
100
AcDbVertex
100
AcDb2dVertex
 10
1397.63596
 20
463.773598
 30
0.0
  0
VERTEX
  5
186
100
AcDbEntity
  8
001
100
AcDbVertex
100
AcDb2dVertex
 10
1397.619976
 20
463.755405
 30
0.0
  0
SEQEND
  5
187
100
AcDbEntity
  8
001
  0
ARC
  5
188
100
AcDbEntity
  8
001
100
AcDbCircle
 10
1337.5
 20
382.5
 30
0.0
 40
103.92213
100
AcDbArc
 50
38.935329
 51
51.064671
  0
ARC
  5
189
100
AcDbEntity
  8
001
100
AcDbCircle
 10
1337.5
 20
382.5
 30
0.0
 40
102.157085
100
AcDbArc
 50
38.830545
 51
51.169455
  0
ARC
  5
18A
100
AcDbEntity
  8
001
100
AcDbCircle
 10
1337.5
 20
382.5
 30
0.0
 40
100.195924
100
AcDbArc
 50
38.709788
 51
51.290212
  0
ARC
  5
18B
100
AcDbEntity
  8
001
100
AcDbCircle
 10
1337.5
 20
382.5
 30
0.0
 40
102.0
100
AcDbArc
 50
3.307362
 51
36.573301
  0
ARC
  5
18C
100
AcDbEntity
  8
001
100
AcDbCircle
 10
1337.5
 20
382.5
 30
0.0
 40
102.0
100
AcDbArc
 50
53.426699
 51
86.692638
  0
LINE
  5
18D
100
AcDbEntity
  8
001
  6
CENTER
100
AcDbLine
 10
1358.0
 20
488.978501
 30
0.0
 11
1358.0
 21
511.478501
 31
0.0
  0
LINE
  5
18E
100
AcDbEntity
  8
001
  6
CENTER
100
AcDbLine
 10
1346.75
 20
500.228501
 30
0.0
 11
1369.25
 21
500.228501
 31
0.0
  0
CIRCLE
  5
18F
100
AcDbEntity
  8
001
100
AcDbCircle
 10
1358.0
 20
500.228501
 30
0.0
 40
5.0
  0
LINE
  5
190
100
AcDbEntity
  8
001
100
AcDbLine
 10
536.34347
 20
638.19188
 30
0.0
 11
539.615162
 21
649.097554
 31
0.0
  0
LINE
  5
191
100
AcDbEntity
  8
001
100
AcDbLine
 10
471.891896
 20
478.358686
 30
0.0
 11
485.417913
 21
467.712924
 31
0.0
  0
ARC
  5
192
100
AcDbEntity
  8
001
100
AcDbCircle
 10
566.53038
 20
329.517274
 30
0.0
 40
4.999997
100
AcDbArc
 50
325.349192
 51
12.500039
  0
LINE
  5
193
100
AcDbEntity
  8
001
100
AcDbLine
 10
534.73704
 20
496.028854
 30
0.0
 11
571.411858
 21
330.599475
 31
0.0
  0
ARC
  5
194
100
AcDbEntity
  8
001
100
AcDbCircle
 10
568.788338
 20
365.534496
 30
0.0
 40
4.999997
100
AcDbArc
 50
90.0
 51
125.221222
  0
LINE
  5
195
100
AcDbEntity
  8
001
100
AcDbLine
 10
534.5
 20
542.800543
 30
0.0
 11
534.5
 21
498.19325
 31
0.0
  0
ARC
  5
196
100
AcDbEntity
  8
001
100
AcDbCircle
 10
544.5
 20
498.19325
 30
0.0
 40
10.0
100
AcDbArc
 50
180.0
 51
192.500002
  0
LINE
  5
197
100
AcDbEntity
  8
001
100
AcDbLine
 10
493.5
 20
567.5
 30
0.0
 11
493.5
 21
579.5
 31
0.0
  0
LINE
  5
198
100
AcDbEntity
  8
001
100
AcDbLine
 10
493.5
 20
585.5
 30
0.0
 11
493.5
 21
594.5
 31
0.0
  0
ARC
  5
199
100
AcDbEntity
  8
001
100
AcDbCircle
 10
496.5
 20
594.5
 30
0.0
 40
3.0
100
AcDbArc
 50
90.0
 51
180.0
  0
ARC
  5
19A
100
AcDbEntity
  8
001
100
AcDbCircle
 10
496.5
 20
585.5
 30
0.0
 40
3.0
100
AcDbArc
 50
180.0
 51
270.0
  0
ARC
  5
19B
100
AcDbEntity
  8
001
100
AcDbCircle
 10
496.5
 20
579.5
 30
0.0
 40
3.0
100
AcDbArc
 50
90.0
 51
180.0
  0
ARC
  5
19C
100
AcDbEntity
  8
001
100
AcDbCircle
 10
496.5
 20
567.5
 30
0.0
 40
3.0
100
AcDbArc
 50
180.0
 51
270.0
  0
LINE
  5
19D
100
AcDbEntity
  8
001
100
AcDbLine
 10
533.938584
 20
546.104047
 30
0.0
 11
529.375019
 21
559.142803
 31
0.0
  0
ARC
  5
19E
100
AcDbEntity
  8
001
100
AcDbCircle
 10
521.824152
 20
556.5
 30
0.0
 40
8.0
100
AcDbArc
 50
19.290046
 51
39.467884
  0
ARC
  5
19F
100
AcDbEntity
  8
001
100
AcDbCircle
 10
524.5
 20
542.800543
 30
0.0
 40
10.0
100
AcDbArc
 50
0.0
 51
19.290046
  0
LINE
  5
1A0
100
AcDbEntity
  8
001
100
AcDbLine
 10
535.5
 20
632.444937
 30
0.0
 11
535.5
 21
615.962113
 31
0.0
  0
LINE
  5
1A1
100
AcDbEntity
  8
001
100
AcDbLine
 10
533.393661
 20
605.074644
 30
0.0
 11
534.90285
 21
611.1114
 31
0.0
  0
ARC
  5
1A2
100
AcDbEntity
  8
001
100
AcDbCircle
 10
515.5
 20
615.962113
 30
0.0
 40
20.0
100
AcDbArc
 50
345.963757
 51
0.0
  0
ARC
  5
1A3
100
AcDbEntity
  8
001
100
AcDbCircle
 10
523.692236
 20
607.5
 30
0.0
 40
10.0
100
AcDbArc
 50
295.516843
 51
345.963757
  0
ARC
  5
1A4
100
AcDbEntity
  8
001
100
AcDbCircle
 10
554.940387
 20
644.5
 30
0.0
 40
16.0
100
AcDbArc
 50
132.127611
 51
163.300802
  0
ARC
  5
1A5
100
AcDbEntity
  8
001
100
AcDbCircle
 10
555.5
 20
632.444937
 30
0.0
 40
20.0
100
AcDbArc
 50
163.300802
 51
180.0
  0
LINE
  5
1A6
100
AcDbEntity
  8
001
100
AcDbLine
 10
547.5
 20
695.5
 30
0.0
 11
547.5
 21
663.78297
 31
0.0
  0
ARC
  5
1A7
100
AcDbEntity
  8
001
100
AcDbCircle
 10
537.5
 20
663.78297
 30
0.0
 40
10.0
100
AcDbArc
 50
312.127611
 51
0.0
  0
ARC
  5
1A8
100
AcDbEntity
  8
001
100
AcDbCircle
 10
552.500019
 20
639.462619
 30
0.0
 40
4.999997
100
AcDbArc
 50
270.0
 51
0.0
  0
LINE
  5
1A9
100
AcDbEntity
  8
001
100
AcDbLine
 10
557.500019
 20
695.5
 30
0.0
 11
557.500019
 21
639.462619
 31
0.0
  0
ARC
  5
1AA
100
AcDbEntity
  8
001
100
AcDbCircle
 10
592.810621
 20
645.497394
 30
0.0
 40
2.999998
100
AcDbArc
 50
183.733203
 51
270.0
  0
LINE
  5
1AB
100
AcDbEntity
  8
001
100
AcDbLine
 10
589.81699
 20
645.302062
 30
0.0
 11
587.606363
 21
679.179339
 31
0.0
  0
ARC
  5
1AC
100
AcDbEntity
  8
001
100
AcDbCircle
 10
583.162107
 20
670.499835
 30
0.0
 40
4.999997
100
AcDbArc
 50
3.733348
 51
90.0
  0
LINE
  5
1AD
100
AcDbEntity
  8
001
100
AcDbLine
 10
583.162107
 20
675.499816
 30
0.0
 11
582.000008
 21
675.499816
 31
0.0
  0
ARC
  5
1AE
100
AcDbEntity
  8
001
100
AcDbCircle
 10
582.000008
 20
670.499835
 30
0.0
 40
4.999997
100
AcDbArc
 50
90.0
 51
129.263894
  0
ARC
  5
1AF
100
AcDbEntity
  8
001
100
AcDbCircle
 10
577.627592
 20
678.52819
 30
0.0
 40
9.999994
100
AcDbArc
 50
3.733457
 51
38.656002
  0
LINE
  5
1B0
100
AcDbEntity
  8
001
100
AcDbLine
 10
580.75861
 20
690.623031
 30
0.0
 11
585.436697
 21
684.774623
 31
0.0
  0
LINE
  5
1B1
100
AcDbEntity
  8
001
100
AcDbLine
 10
580.00001
 20
690.878863
 30
0.0
 11
580.00001
 21
675.97734
 31
0.0
  0
ARC
  5
1B2
100
AcDbEntity
  8
001
100
AcDbCircle
 10
576.854057
 20
687.499824
 30
0.0
 40
4.999997
100
AcDbArc
 50
38.655917
 51
69.703861
  0
LINE
  5
1B3
100
AcDbEntity
  8
001
100
AcDbLine
 10
555.0
 20
739.5
 30
0.0
 11
555.0
 21
695.5
 31
0.0
  0
LINE
  5
1B4
100
AcDbEntity
  8
001
100
AcDbLine
 10
540.0
 20
725.5
 30
0.0
 11
540.0
 21
695.5
 31
0.0
  0
LINE
  5
1B5
100
AcDbEntity
  8
001
100
AcDbLine
 10
544.0
 20
729.5
 30
0.0
 11
555.0
 21
729.5
 31
0.0
  0
ARC
  5
1B6
100
AcDbEntity
  8
001
100
AcDbCircle
 10
544.0
 20
725.5
 30
0.0
 40
4.0
100
AcDbArc
 50
90.0
 51
180.0
  0
ARC
  5
1B7
100
AcDbEntity
  8
001
100
AcDbCircle
 10
559.0
 20
739.5
 30
0.0
 40
4.0
100
AcDbArc
 50
90.0
 51
180.0
  0
LINE
  5
1B8
100
AcDbEntity
  8
001
100
AcDbLine
 10
572.5
 20
743.5
 30
0.0
 11
572.5
 21
770.5
 31
0.0
  0
LINE
  5
1BF
100
AcDbEntity
  8
001
100
AcDbLine
 10
573.5
 20
771.5
 30
0.0
 11
621.5
 21
771.5
 31
0.0
  0
LINE
  5
1C4
100
AcDbEntity
  8
001
100
AcDbLine
 10
597.5
 20
772.5
 30
0.0
 11
609.5
 21
772.5
 31
0.0
  0
LINE
  5
1C5
100
AcDbEntity
  8
001
100
AcDbLine
 10
622.5
 20
743.5
 30
0.0
 11
622.5
 21
770.5
 31
0.0
  0
LINE
  5
1CC
100
AcDbEntity
  8
001
100
AcDbLine
 10
616.545
 20
771.5
 30
0.0
 11
614.292977
 21
821.544955
 31
0.0
  0
ARC
  5
1CD
100
AcDbEntity
  8
001
100
AcDbCircle
 10
609.5
 20
774.5
 30
0.0
 40
2.0
100
AcDbArc
 50
270.0
 51
0.0
  0
LINE
  5
1CE
100
AcDbEntity
  8
001
100
AcDbLine
 10
611.5
 20
774.5
 30
0.0
 11
611.5
 21
822.5
 31
0.0
  0
CIRCLE
  5
1CF
100
AcDbEntity
  8
001
100
AcDbCircle
 10
597.5
 20
749.5
 30
0.0
 40
4.19
  0
LINE
  5
1D0
100
AcDbEntity
  8
001
100
AcDbLine
 10
597.5
 20
746.613249
 30
0.0
 11
600.0
 21
748.056624
 31
0.0
  0
LINE
  5
1D1
100
AcDbEntity
  8
001
100
AcDbLine
 10
600.0
 20
750.943376
 30
0.0
 11
600.0
 21
748.056624
 31
0.0
  0
LINE
  5
1D2
100
AcDbEntity
  8
001
100
AcDbLine
 10
597.5
 20
752.386751
 30
0.0
 11
600.0
 21
750.943376
 31
0.0
  0
LINE
  5
1D3
100
AcDbEntity
  8
001
100
AcDbLine
 10
595.0
 20
750.943376
 30
0.0
 11
597.5
 21
752.386751
 31
0.0
  0
LINE
  5
1D4
100
AcDbEntity
  8
001
100
AcDbLine
 10
595.0
 20
748.056624
 30
0.0
 11
595.0
 21
750.943376
 31
0.0
  0
LINE
  5
1D5
100
AcDbEntity
  8
001
100
AcDbLine
 10
597.5
 20
746.613249
 30
0.0
 11
595.0
 21
748.056624
 31
0.0
  0
LINE
  5
1D6
100
AcDbEntity
  8
001
100
AcDbLine
 10
658.65653
 20
638.19188
 30
0.0
 11
655.384838
 21
649.097554
 31
0.0
  0
LINE
  5
1D7
100
AcDbEntity
  8
001
100
AcDbLine
 10
660.5
 20
542.800543
 30
0.0
 11
660.5
 21
498.19325
 31
0.0
  0
LINE
  5
1D8
100
AcDbEntity
  8
001
100
AcDbLine
 10
701.5
 20
567.5
 30
0.0
 11
701.5
 21
579.5
 31
0.0
  0
LINE
  5
1D9
100
AcDbEntity
  8
001
100
AcDbLine
 10
701.5
 20
585.5
 30
0.0
 11
701.5
 21
594.5
 31
0.0
  0
ARC
  5
1DA
100
AcDbEntity
  8
001
100
AcDbCircle
 10
698.5
 20
594.5
 30
0.0
 40
3.0
100
AcDbArc
 50
0.0
 51
90.0
  0
ARC
  5
1DB
100
AcDbEntity
  8
001
100
AcDbCircle
 10
698.5
 20
585.5
 30
0.0
 40
3.0
100
AcDbArc
 50
270.0
 51
0.0
  0
ARC
  5
1DC
100
AcDbEntity
  8
001
100
AcDbCircle
 10
698.5
 20
579.5
 30
0.0
 40
3.0
100
AcDbArc
 50
0.0
 51
90.0
  0
ARC
  5
1DD
100
AcDbEntity
  8
001
100
AcDbCircle
 10
698.5
 20
567.5
 30
0.0
 40
3.0
100
AcDbArc
 50
270.0
 51
0.0
  0
LINE
  5
1DE
100
AcDbEntity
  8
001
100
AcDbLine
 10
661.061416
 20
546.104047
 30
0.0
 11
665.624981
 21
559.142803
 31
0.0
  0
ARC
  5
1DF
100
AcDbEntity
  8
001
100
AcDbCircle
 10
673.175848
 20
556.5
 30
0.0
 40
8.0
100
AcDbArc
 50
140.532116
 51
160.709954
  0
ARC
  5
1E0
100
AcDbEntity
  8
001
100
AcDbCircle
 10
670.5
 20
542.800543
 30
0.0
 40
10.0
100
AcDbArc
 50
160.709954
 51
180.0
  0
LINE
  5
1E1
100
AcDbEntity
  8
001
100
AcDbLine
 10
659.5
 20
632.444937
 30
0.0
 11
659.5
 21
615.962113
 31
0.0
  0
LINE
  5
1E2
100
AcDbEntity
  8
001
100
AcDbLine
 10
661.606339
 20
605.074644
 30
0.0
 11
660.09715
 21
611.1114
 31
0.0
  0
ARC
  5
1E3
100
AcDbEntity
  8
001
100
AcDbCircle
 10
679.5
 20
615.962113
 30
0.0
 40
20.0
100
AcDbArc
 50
180.0
 51
194.036243
  0
ARC
  5
1E4
100
AcDbEntity
  8
001
100
AcDbCircle
 10
671.307764
 20
607.5
 30
0.0
 40
10.0
100
AcDbArc
 50
194.036243
 51
244.483157
  0
ARC
  5
1E5
100
AcDbEntity
  8
001
100
AcDbCircle
 10
640.059613
 20
644.5
 30
0.0
 40
16.0
100
AcDbArc
 50
16.699198
 51
47.872389
  0
ARC
  5
1E6
100
AcDbEntity
  8
001
100
AcDbCircle
 10
639.5
 20
632.444937
 30
0.0
 40
20.0
100
AcDbArc
 50
0.0
 51
16.699198
  0
LINE
  5
1E7
100
AcDbEntity
  8
001
100
AcDbLine
 10
647.5
 20
695.5
 30
0.0
 11
647.5
 21
663.78297
 31
0.0
  0
ARC
  5
1E8
100
AcDbEntity
  8
001
100
AcDbCircle
 10
657.5
 20
663.78297
 30
0.0
 40
10.0
100
AcDbArc
 50
180.0
 51
227.872389
  0
ARC
  5
1E9
100
AcDbEntity
  8
001
100
AcDbCircle
 10
642.499981
 20
639.462619
 30
0.0
 40
4.999997
100
AcDbArc
 50
180.0
 51
270.0
  0
LINE
  5
1EA
100
AcDbEntity
  8
001
100
AcDbLine
 10
637.499981
 20
695.5
 30
0.0
 11
637.499981
 21
639.462619
 31
0.0
  0
ARC
  5
1EB
100
AcDbEntity
  8
001
100
AcDbCircle
 10
602.189379
 20
645.497394
 30
0.0
 40
2.999998
100
AcDbArc
 50
270.0
 51
356.266797
  0
LINE
  5
1EC
100
AcDbEntity
  8
001
100
AcDbLine
 10
605.18301
 20
645.302062
 30
0.0
 11
607.393637
 21
679.179339
 31
0.0
  0
ARC
  5
1ED
100
AcDbEntity
  8
001
100
AcDbCircle
 10
611.837893
 20
670.499835
 30
0.0
 40
4.999997
100
AcDbArc
 50
90.0
 51
176.266652
  0
LINE
  5
1EE
100
AcDbEntity
  8
001
100
AcDbLine
 10
611.837893
 20
675.499816
 30
0.0
 11
612.999992
 21
675.499816
 31
0.0
  0
ARC
  5
1EF
100
AcDbEntity
  8
001
100
AcDbCircle
 10
612.999992
 20
670.499835
 30
0.0
 40
4.999997
100
AcDbArc
 50
50.736106
 51
90.0
  0
ARC
  5
1F0
100
AcDbEntity
  8
001
100
AcDbCircle
 10
617.372408
 20
678.52819
 30
0.0
 40
9.999994
100
AcDbArc
 50
141.343998
 51
176.266543
  0
LINE
  5
1F1
100
AcDbEntity
  8
001
100
AcDbLine
 10
614.24139
 20
690.623031
 30
0.0
 11
609.563303
 21
684.774623
 31
0.0
  0
LINE
  5
1F2
100
AcDbEntity
  8
001
100
AcDbLine
 10
614.99999
 20
690.878863
 30
0.0
 11
614.99999
 21
675.97734
 31
0.0
  0
ARC
  5
1F3
100
AcDbEntity
  8
001
100
AcDbCircle
 10
618.145943
 20
687.499824
 30
0.0
 40
4.999997
100
AcDbArc
 50
110.296139
 51
141.344083
  0
LINE
  5
1F4
100
AcDbEntity
  8
001
100
AcDbLine
 10
640.0
 20
739.5
 30
0.0
 11
640.0
 21
695.5
 31
0.0
  0
LINE
  5
1F5
100
AcDbEntity
  8
001
100
AcDbLine
 10
655.0
 20
725.5
 30
0.0
 11
655.0
 21
695.5
 31
0.0
  0
LINE
  5
1F6
100
AcDbEntity
  8
001
100
AcDbLine
 10
651.0
 20
729.5
 30
0.0
 11
640.0
 21
729.5
 31
0.0
  0
ARC
  5
1F7
100
AcDbEntity
  8
001
100
AcDbCircle
 10
651.0
 20
725.5
 30
0.0
 40
4.0
100
AcDbArc
 50
0.0
 51
90.0
  0
ARC
  5
1F8
100
AcDbEntity
  8
001
100
AcDbCircle
 10
636.0
 20
739.5
 30
0.0
 40
4.0
100
AcDbArc
 50
0.0
 51
90.0
  0
LINE
  5
1F9
100
AcDbEntity
  8
001
100
AcDbLine
 10
660.26296
 20
496.028854
 30
0.0
 11
623.588142
 21
330.599475
 31
0.0
  0
ARC
  5
1FA
100
AcDbEntity
  8
001
100
AcDbCircle
 10
650.5
 20
498.19325
 30
0.0
 40
10.0
100
AcDbArc
 50
347.499998
 51
0.0
  0
ARC
  5
1FB
100
AcDbEntity
  8
001
100
AcDbCircle
 10
628.46962
 20
329.517274
 30
0.0
 40
4.999997
100
AcDbArc
 50
167.499961
 51
214.650808
  0
ARC
  5
1FC
100
AcDbEntity
  8
001
100
AcDbCircle
 10
626.211662
 20
365.534496
 30
0.0
 40
4.999997
100
AcDbArc
 50
54.778778
 51
90.0
  0
LINE
  5
1FD
100
AcDbEntity
  8
001
100
AcDbLine
 10
568.788338
 20
370.534492
 30
0.0
 11
626.211662
 21
370.534492
 31
0.0
  0
LINE
  5
1FE
100
AcDbEntity
  8
001
100
AcDbLine
 10
534.5
 20
544.5
 30
0.0
 11
660.5
 21
544.5
 31
0.0
  0
LINE
  5
1FF
100
AcDbEntity
  8
001
100
AcDbLine
 10
496.5
 20
564.5
 30
0.0
 11
698.5
 21
564.5
 31
0.0
  0
LINE
  5
200
100
AcDbEntity
  8
001
100
AcDbLine
 10
496.5
 20
582.5
 30
0.0
 11
698.5
 21
582.5
 31
0.0
  0
LINE
  5
201
100
AcDbEntity
  8
001
100
AcDbLine
 10
496.5
 20
597.5
 30
0.0
 11
698.5
 21
597.5
 31
0.0
  0
LINE
  5
202
100
AcDbEntity
  8
001
100
AcDbLine
 10
642.499981
 20
634.462619
 30
0.0
 11
552.500019
 21
634.462619
 31
0.0
  0
LINE
  5
203
100
AcDbEntity
  8
001
100
AcDbLine
 10
602.189379
 20
642.497401
 30
0.0
 11
592.810621
 21
642.497401
 31
0.0
  0
LINE
  5
204
100
AcDbEntity
  8
001
100
AcDbLine
 10
608.194933
 20
682.499824
 30
0.0
 11
586.805067
 21
682.499824
 31
0.0
  0
LINE
  5
205
100
AcDbEntity
  8
001
100
AcDbLine
 10
615.645943
 20
692.499824
 30
0.0
 11
579.354057
 21
692.499824
 31
0.0
  0
LINE
  5
206
100
AcDbEntity
  8
001
100
AcDbLine
 10
540.0
 20
695.5
 30
0.0
 11
655.0
 21
695.5
 31
0.0
  0
LINE
  5
207
100
AcDbEntity
  8
001
100
AcDbLine
 10
559.0
 20
743.5
 30
0.0
 11
636.0
 21
743.5
 31
0.0
  0
LINE
  5
208
100
AcDbEntity
  8
001
100
AcDbLine
 10
494.695027
 20
464.5
 30
0.0
 11
529.267078
 21
464.5
 31
0.0
  0
ARC
  5
209
100
AcDbEntity
  8
001
100
AcDbCircle
 10
529.267078
 20
474.5
 30
0.0
 40
10.0
100
AcDbArc
 50
270.0
 51
12.500002
  0
LINE
  5
20A
100
AcDbEntity
  8
001
100
AcDbLine
 10
489.5
 20
300.5
 30
0.0
 11
489.5
 21
464.5
 31
0.0
  0
LINE
  5
20B
100
AcDbEntity
  8
001
100
AcDbLine
 10
388.660831
 20
482.0
 30
0.0
 11
461.377834
 21
482.0
 31
0.0
  0
ARC
  5
20C
100
AcDbEntity
  8
001
100
AcDbCircle
 10
494.695027
 20
479.5
 30
0.0
 40
15.0
100
AcDbArc
 50
231.795198
 51
270.0
  0
ARC
  5
20D
100
AcDbEntity
  8
001
100
AcDbCircle
 10
461.377834
 20
465.0
 30
0.0
 40
17.0
100
AcDbArc
 50
51.795198
 51
90.0
  0
LINE
  5
20E
100
AcDbEntity
  8
001
100
AcDbLine
 10
485.417913
 20
297.287076
 30
0.0
 11
471.891896
 21
286.641314
 31
0.0
  0
ARC
  5
20F
100
AcDbEntity
  8
001
100
AcDbCircle
 10
461.377834
 20
300.0
 30
0.0
 40
17.0
100
AcDbArc
 50
270.0
 51
308.204802
  0
ARC
  5
210
100
AcDbEntity
  8
001
100
AcDbCircle
 10
494.695027
 20
285.5
 30
0.0
 40
15.0
100
AcDbArc
 50
90.0
 51
128.204802
  0
LINE
  5
211
100
AcDbEntity
  8
001
100
AcDbLine
 10
435.5
 20
313.114604
 30
0.0
 11
435.5
 21
251.5
 31
0.0
  0
LINE
  5
212
100
AcDbEntity
  8
001
100
AcDbLine
 10
450.5
 20
313.114604
 30
0.0
 11
450.5
 21
251.5
 31
0.0
  0
LINE
  5
213
100
AcDbEntity
  8
001
100
AcDbLine
 10
439.5
 20
247.5
 30
0.0
 11
446.5
 21
247.5
 31
0.0
  0
LINE
  5
214
100
AcDbEntity
  8
001
100
AcDbLine
 10
435.5
 20
317.114604
 30
0.0
 11
450.5
 21
317.114604
 31
0.0
  0
LINE
  5
215
100
AcDbEntity
  8
001
100
AcDbLine
 10
454.5
 20
283.0
 30
0.0
 11
461.377834
 21
283.0
 31
0.0
  0
LINE
  5
216
100
AcDbEntity
  8
001
100
AcDbLine
 10
431.5
 20
283.0
 30
0.0
 11
388.660831
 21
283.0
 31
0.0
  0
ARC
  5
217
100
AcDbEntity
  8
001
100
AcDbCircle
 10
446.5
 20
251.5
 30
0.0
 40
4.0
100
AcDbArc
 50
270.0
 51
0.0
  0
ARC
  5
218
100
AcDbEntity
  8
001
100
AcDbCircle
 10
439.5
 20
251.5
 30
0.0
 40
4.0
100
AcDbArc
 50
180.0
 51
270.0
  0
ARC
  5
219
100
AcDbEntity
  8
001
100
AcDbCircle
 10
454.5
 20
279.0
 30
0.0
 40
4.0
100
AcDbArc
 50
90.0
 51
180.0
  0
ARC
  5
21A
100
AcDbEntity
  8
001
100
AcDbCircle
 10
431.5
 20
279.0
 30
0.0
 40
4.0
100
AcDbArc
 50
0.0
 51
90.0
  0
ARC
  5
21B
100
AcDbEntity
  8
001
100
AcDbCircle
 10
431.5
 20
313.114604
 30
0.0
 40
4.0
100
AcDbArc
 50
0.0
 51
90.0
  0
ARC
  5
21C
100
AcDbEntity
  8
001
100
AcDbCircle
 10
454.5
 20
313.114604
 30
0.0
 40
4.0
100
AcDbArc
 50
90.0
 51
180.0
  0
LINE
  5
21D
100
AcDbEntity
  8
001
100
AcDbLine
 10
381.5
 20
388.5
 30
0.0
 11
433.5
 21
388.5
 31
0.0
  0
LINE
  5
21E
100
AcDbEntity
  8
001
100
AcDbLine
 10
381.5
 20
376.5
 30
0.0
 11
433.5
 21
376.5
 31
0.0
  0
LINE
  5
21F
100
AcDbEntity
  8
001
100
AcDbLine
 10
437.5
 20
376.5
 30
0.0
 11
437.5
 21
388.5
 31
0.0
  0
LINE
  5
220
100
AcDbEntity
  8
001
100
AcDbLine
 10
377.5
 20
376.5
 30
0.0
 11
377.5
 21
388.5
 31
0.0
  0
ARC
  5
221
100
AcDbEntity
  8
001
100
AcDbCircle
 10
433.5
 20
392.5
 30
0.0
 40
4.0
100
AcDbArc
 50
270.0
 51
0.0
  0
ARC
  5
222
100
AcDbEntity
  8
001
100
AcDbCircle
 10
433.5
 20
372.5
 30
0.0
 40
4.0
100
AcDbArc
 50
0.0
 51
90.0
  0
ARC
  5
223
100
AcDbEntity
  8
001
100
AcDbCircle
 10
381.5
 20
392.5
 30
0.0
 40
4.0
100
AcDbArc
 50
180.0
 51
270.0
  0
ARC
  5
224
100
AcDbEntity
  8
001
100
AcDbCircle
 10
381.5
 20
372.5
 30
0.0
 40
4.0
100
AcDbArc
 50
90.0
 51
180.0
  0
LINE
  5
225
100
AcDbEntity
  8
001
100
AcDbLine
 10
342.526125
 20
490.572727
 30
0.0
 11
326.888
 21
488.533066
 31
0.0
  0
LINE
  5
226
100
AcDbEntity
  8
001
100
AcDbLine
 10
359.627662
 20
484.15
 30
0.0
 11
381.5
 21
484.15
 31
0.0
  0
ARC
  5
227
100
AcDbEntity
  8
001
100
AcDbCircle
 10
381.5
 20
474.15
 30
0.0
 40
10.0
100
AcDbArc
 50
56.575811
 51
90.0
  0
ARC
  5
228
100
AcDbEntity
  8
001
100
AcDbCircle
 10
388.660831
 20
485.0
 30
0.0
 40
3.0
100
AcDbArc
 50
236.575811
 51
270.0
  0
LINE
  5
229
100
AcDbEntity
  8
001
100
AcDbLine
 10
386.759491
 20
481.999998
 30
0.0
 11
386.759491
 21
390.421591
 31
0.0
  0
LINE
  5
22A
100
AcDbEntity
  8
001
100
AcDbLine
 10
323.5
 20
491.507869
 30
0.0
 11
323.5
 21
497.228501
 31
0.0
  0
ARC
  5
22B
100
AcDbEntity
  8
001
100
AcDbCircle
 10
329.5
 20
485.848336
 30
0.0
 40
3.0
100
AcDbArc
 50
97.43107
 51
180.0
  0
ARC
  5
22C
100
AcDbEntity
  8
001
100
AcDbCircle
 10
326.5
 20
491.507869
 30
0.0
 40
3.0
100
AcDbArc
 50
180.0
 51
277.43107
  0
LINE
  5
22D
100
AcDbEntity
  8
001
100
AcDbLine
 10
315.5
 20
476.0
 30
0.0
 11
321.5
 21
476.0
 31
0.0
  0
ARC
  5
22E
100
AcDbEntity
  8
001
100
AcDbCircle
 10
321.5
 20
481.0
 30
0.0
 40
5.0
100
AcDbArc
 50
270.0
 51
0.0
  0
ARC
  5
22F
100
AcDbEntity
  8
001
100
AcDbCircle
 10
315.5
 20
473.0
 30
0.0
 40
3.0
100
AcDbArc
 50
90.0
 51
180.0
  0
ARC
  5
230
100
AcDbEntity
  8
001
100
AcDbCircle
 10
346.50339
 20
479.998308
 30
0.0
 40
11.0
100
AcDbArc
 50
34.888467
 51
65.337459
  0
ARC
  5
231
100
AcDbEntity
  8
001
100
AcDbCircle
 10
359.627662
 20
489.15
 30
0.0
 40
5.0
100
AcDbArc
 50
214.888467
 51
270.0
  0
LINE
  5
232
100
AcDbEntity
  8
001
100
AcDbLine
 10
345.080723
 20
274.09408
 30
0.0
 11
326.888
 21
276.466934
 31
0.0
  0
LINE
  5
233
100
AcDbEntity
  8
001
100
AcDbLine
 10
359.627662
 20
280.85
 30
0.0
 11
381.5
 21
280.85
 31
0.0
  0
ARC
  5
234
100
AcDbEntity
  8
001
100
AcDbCircle
 10
381.5
 20
290.85
 30
0.0
 40
10.0
100
AcDbArc
 50
270.0
 51
303.424189
  0
ARC
  5
235
100
AcDbEntity
  8
001
100
AcDbCircle
 10
388.660831
 20
280.0
 30
0.0
 40
3.0
100
AcDbArc
 50
90.0
 51
123.424189
  0
LINE
  5
236
100
AcDbEntity
  8
001
100
AcDbLine
 10
386.759491
 20
283.000002
 30
0.0
 11
386.759491
 21
374.578409
 31
0.0
  0
LINE
  5
237
100
AcDbEntity
  8
001
100
AcDbLine
 10
323.5
 20
273.492131
 30
0.0
 11
323.5
 21
272.381882
 31
0.0
  0
ARC
  5
238
100
AcDbEntity
  8
001
100
AcDbCircle
 10
329.5
 20
279.151664
 30
0.0
 40
3.0
100
AcDbArc
 50
180.0
 51
262.56893
  0
ARC
  5
239
100
AcDbEntity
  8
001
100
AcDbCircle
 10
326.5
 20
273.492131
 30
0.0
 40
3.0
100
AcDbArc
 50
82.56893
 51
180.0
  0
LINE
  5
23A
100
AcDbEntity
  8
001
100
AcDbLine
 10
315.5
 20
289.0
 30
0.0
 11
321.5
 21
289.0
 31
0.0
  0
ARC
  5
23B
100
AcDbEntity
  8
001
100
AcDbCircle
 10
321.5
 20
284.0
 30
0.0
 40
5.0
100
AcDbArc
 50
0.0
 51
90.0
  0
ARC
  5
23C
100
AcDbEntity
  8
001
100
AcDbCircle
 10
315.5
 20
292.0
 30
0.0
 40
3.0
100
AcDbArc
 50
180.0
 51
270.0
  0
ARC
  5
23D
100
AcDbEntity
  8
001
100
AcDbCircle
 10
346.50339
 20
285.001692
 30
0.0
 40
11.0
100
AcDbArc
 50
262.56893
 51
325.111533
  0
ARC
  5
23E
100
AcDbEntity
  8
001
100
AcDbCircle
 10
359.627662
 20
275.85
 30
0.0
 40
5.0
100
AcDbArc
 50
90.0
 51
145.111533
  0
LINE
  5
23F
100
AcDbEntity
  8
001
100
AcDbLine
 10
723.108104
 20
478.358686
 30
0.0
 11
709.582087
 21
467.712924
 31
0.0
  0
LINE
  5
240
100
AcDbEntity
  8
001
100
AcDbLine
 10
700.304973
 20
464.5
 30
0.0
 11
665.732922
 21
464.5
 31
0.0
  0
LINE
  5
241
100
AcDbEntity
  8
001
100
AcDbLine
 10
705.5
 20
300.5
 30
0.0
 11
705.5
 21
464.5
 31
0.0
  0
LINE
  5
242
100
AcDbEntity
  8
001
100
AcDbLine
 10
806.339169
 20
482.0
 30
0.0
 11
733.622166
 21
482.0
 31
0.0
  0
ARC
  5
243
100
AcDbEntity
  8
001
100
AcDbCircle
 10
700.304973
 20
479.5
 30
0.0
 40
15.0
100
AcDbArc
 50
270.0
 51
308.204802
  0
ARC
  5
244
100
AcDbEntity
  8
001
100
AcDbCircle
 10
733.622166
 20
465.0
 30
0.0
 40
17.0
100
AcDbArc
 50
90.0
 51
128.204802
  0
LINE
  5
245
100
AcDbEntity
  8
001
100
AcDbLine
 10
709.582087
 20
297.287076
 30
0.0
 11
723.108104
 21
286.641314
 31
0.0
  0
ARC
  5
246
100
AcDbEntity
  8
001
100
AcDbCircle
 10
733.622166
 20
300.0
 30
0.0
 40
17.0
100
AcDbArc
 50
231.795198
 51
270.0
  0
ARC
  5
247
100
AcDbEntity
  8
001
100
AcDbCircle
 10
700.304973
 20
285.5
 30
0.0
 40
15.0
100
AcDbArc
 50
51.795198
 51
90.0
  0
LINE
  5
248
100
AcDbEntity
  8
001
100
AcDbLine
 10
759.5
 20
313.114604
 30
0.0
 11
759.5
 21
251.5
 31
0.0
  0
LINE
  5
249
100
AcDbEntity
  8
001
100
AcDbLine
 10
744.5
 20
313.114604
 30
0.0
 11
744.5
 21
251.5
 31
0.0
  0
LINE
  5
24A
100
AcDbEntity
  8
001
100
AcDbLine
 10
755.5
 20
247.5
 30
0.0
 11
748.5
 21
247.5
 31
0.0
  0
LINE
  5
24B
100
AcDbEntity
  8
001
100
AcDbLine
 10
759.5
 20
317.114604
 30
0.0
 11
744.5
 21
317.114604
 31
0.0
  0
LINE
  5
24C
100
AcDbEntity
  8
001
100
AcDbLine
 10
740.5
 20
283.0
 30
0.0
 11
733.622166
 21
283.0
 31
0.0
  0
LINE
  5
24D
100
AcDbEntity
  8
001
100
AcDbLine
 10
763.5
 20
283.0
 30
0.0
 11
806.339169
 21
283.0
 31
0.0
  0
ARC
  5
24E
100
AcDbEntity
  8
001
100
AcDbCircle
 10
748.5
 20
251.5
 30
0.0
 40
4.0
100
AcDbArc
 50
180.0
 51
270.0
  0
ARC
  5
24F
100
AcDbEntity
  8
001
100
AcDbCircle
 10
755.5
 20
251.5
 30
0.0
 40
4.0
100
AcDbArc
 50
270.0
 51
0.0
  0
ARC
  5
250
100
AcDbEntity
  8
001
100
AcDbCircle
 10
740.5
 20
279.0
 30
0.0
 40
4.0
100
AcDbArc
 50
0.0
 51
90.0
  0
ARC
  5
251
100
AcDbEntity
  8
001
100
AcDbCircle
 10
763.5
 20
279.0
 30
0.0
 40
4.0
100
AcDbArc
 50
90.0
 51
180.0
  0
ARC
  5
252
100
AcDbEntity
  8
001
100
AcDbCircle
 10
763.5
 20
313.114604
 30
0.0
 40
4.0
100
AcDbArc
 50
90.0
 51
180.0
  0
ARC
  5
253
100
AcDbEntity
  8
001
100
AcDbCircle
 10
740.5
 20
313.114604
 30
0.0
 40
4.0
100
AcDbArc
 50
0.0
 51
90.0
  0
LINE
  5
254
100
AcDbEntity
  8
001
100
AcDbLine
 10
813.5
 20
388.5
 30
0.0
 11
761.5
 21
388.5
 31
0.0
  0
LINE
  5
255
100
AcDbEntity
  8
001
100
AcDbLine
 10
813.5
 20
376.5
 30
0.0
 11
761.5
 21
376.5
 31
0.0
  0
LINE
  5
256
100
AcDbEntity
  8
001
100
AcDbLine
 10
757.5
 20
376.5
 30
0.0
 11
757.5
 21
388.5
 31
0.0
  0
LINE
  5
257
100
AcDbEntity
  8
001
100
AcDbLine
 10
817.5
 20
376.5
 30
0.0
 11
817.5
 21
388.5
 31
0.0
  0
ARC
  5
258
100
AcDbEntity
  8
001
100
AcDbCircle
 10
761.5
 20
392.5
 30
0.0
 40
4.0
100
AcDbArc
 50
180.0
 51
270.0
  0
ARC
  5
259
100
AcDbEntity
  8
001
100
AcDbCircle
 10
761.5
 20
372.5
 30
0.0
 40
4.0
100
AcDbArc
 50
90.0
 51
180.0
  0
ARC
  5
25A
100
AcDbEntity
  8
001
100
AcDbCircle
 10
813.5
 20
392.5
 30
0.0
 40
4.0
100
AcDbArc
 50
270.0
 51
0.0
  0
ARC
  5
25B
100
AcDbEntity
  8
001
100
AcDbCircle
 10
813.5
 20
372.5
 30
0.0
 40
4.0
100
AcDbArc
 50
0.0
 51
90.0
  0
LINE
  5
25C
100
AcDbEntity
  8
001
100
AcDbLine
 10
858.39982
 20
489.799814
 30
0.0
 11
868.112
 21
488.533066
 31
0.0
  0
LINE
  5
25D
100
AcDbEntity
  8
001
100
AcDbLine
 10
835.372338
 20
484.15
 30
0.0
 11
813.5
 21
484.15
 31
0.0
  0
ARC
  5
25E
100
AcDbEntity
  8
001
100
AcDbCircle
 10
813.5
 20
474.15
 30
0.0
 40
10.0
100
AcDbArc
 50
90.0
 51
123.424189
  0
ARC
  5
25F
100
AcDbEntity
  8
001
100
AcDbCircle
 10
806.339169
 20
485.0
 30
0.0
 40
3.0
100
AcDbArc
 50
270.0
 51
303.424189
  0
LINE
  5
260
100
AcDbEntity
  8
001
100
AcDbLine
 10
808.240509
 20
481.999998
 30
0.0
 11
808.240509
 21
390.421591
 31
0.0
  0
ARC
  5
261
100
AcDbEntity
  8
001
100
AcDbCircle
 10
865.5
 20
485.848336
 30
0.0
 40
3.0
100
AcDbArc
 50
0.0
 51
82.56893
  0
ARC
  5
262
100
AcDbEntity
  8
001
100
AcDbCircle
 10
868.5
 20
491.507869
 30
0.0
 40
3.0
100
AcDbArc
 50
262.56893
 51
325.294955
  0
LINE
  5
263
100
AcDbEntity
  8
001
100
AcDbLine
 10
879.5
 20
476.0
 30
0.0
 11
873.5
 21
476.0
 31
0.0
  0
ARC
  5
264
100
AcDbEntity
  8
001
100
AcDbCircle
 10
873.5
 20
481.0
 30
0.0
 40
5.0
100
AcDbArc
 50
180.0
 51
270.0
  0
ARC
  5
265
100
AcDbEntity
  8
001
100
AcDbCircle
 10
879.5
 20
473.0
 30
0.0
 40
3.0
100
AcDbArc
 50
0.0
 51
90.0
  0
ARC
  5
266
100
AcDbEntity
  8
001
100
AcDbCircle
 10
848.49661
 20
479.998308
 30
0.0
 40
11.0
100
AcDbArc
 50
114.662541
 51
145.111533
  0
ARC
  5
267
100
AcDbEntity
  8
001
100
AcDbCircle
 10
835.372338
 20
489.15
 30
0.0
 40
5.0
100
AcDbArc
 50
270.0
 51
325.111533
  0
LINE
  5
268
100
AcDbEntity
  8
001
100
AcDbLine
 10
849.919277
 20
274.09408
 30
0.0
 11
868.112
 21
276.466934
 31
0.0
  0
LINE
  5
269
100
AcDbEntity
  8
001
100
AcDbLine
 10
835.372338
 20
280.85
 30
0.0
 11
813.5
 21
280.85
 31
0.0
  0
ARC
  5
26A
100
AcDbEntity
  8
001
100
AcDbCircle
 10
813.5
 20
290.85
 30
0.0
 40
10.0
100
AcDbArc
 50
236.575811
 51
270.0
  0
ARC
  5
26B
100
AcDbEntity
  8
001
100
AcDbCircle
 10
806.339169
 20
280.0
 30
0.0
 40
3.0
100
AcDbArc
 50
56.575811
 51
90.0
  0
LINE
  5
26C
100
AcDbEntity
  8
001
100
AcDbLine
 10
808.240509
 20
283.000002
 30
0.0
 11
808.240509
 21
374.578409
 31
0.0
  0
LINE
  5
26D
100
AcDbEntity
  8
001
100
AcDbLine
 10
874.5
 20
260.5
 30
0.0
 11
879.5
 21
260.5
 31
0.0
  0
ARC
  5
26E
100
AcDbEntity
  8
001
100
AcDbCircle
 10
879.5
 20
263.5
 30
0.0
 40
3.0
100
AcDbArc
 50
270.0
 51
297.497089
  0
LINE
  5
26F
100
AcDbEntity
  8
001
100
AcDbLine
 10
871.5
 20
273.492131
 30
0.0
 11
871.5
 21
263.5
 31
0.0
  0
ARC
  5
270
100
AcDbEntity
  8
001
100
AcDbCircle
 10
874.5
 20
263.5
 30
0.0
 40
3.0
100
AcDbArc
 50
180.0
 51
270.0
  0
ARC
  5
271
100
AcDbEntity
  8
001
100
AcDbCircle
 10
865.5
 20
279.151664
 30
0.0
 40
3.0
100
AcDbArc
 50
277.43107
 51
0.0
  0
ARC
  5
272
100
AcDbEntity
  8
001
100
AcDbCircle
 10
868.5
 20
273.492131
 30
0.0
 40
3.0
100
AcDbArc
 50
0.0
 51
97.43107
  0
LINE
  5
273
100
AcDbEntity
  8
001
100
AcDbLine
 10
879.5
 20
289.0
 30
0.0
 11
873.5
 21
289.0
 31
0.0
  0
ARC
  5
274
100
AcDbEntity
  8
001
100
AcDbCircle
 10
873.5
 20
284.0
 30
0.0
 40
5.0
100
AcDbArc
 50
90.0
 51
180.0
  0
ARC
  5
275
100
AcDbEntity
  8
001
100
AcDbCircle
 10
879.5
 20
292.0
 30
0.0
 40
3.0
100
AcDbArc
 50
270.0
 51
0.0
  0
ARC
  5
276
100
AcDbEntity
  8
001
100
AcDbCircle
 10
848.49661
 20
285.001692
 30
0.0
 40
11.0
100
AcDbArc
 50
214.888467
 51
277.43107
  0
ARC
  5
277
100
AcDbEntity
  8
001
100
AcDbCircle
 10
835.372338
 20
275.85
 30
0.0
 40
5.0
100
AcDbArc
 50
34.888467
 51
90.0
  0
ARC
  5
278
100
AcDbEntity
  8
001
100
AcDbCircle
 10
665.732922
 20
474.5
 30
0.0
 40
10.0
100
AcDbArc
 50
167.499998
 51
270.0
  0
LINE
  5
279
100
AcDbEntity
  8
001
100
AcDbLine
 10
700.304973
 20
300.5
 30
0.0
 11
494.695027
 21
300.5
 31
0.0
  0
LINE
  5
27A
100
AcDbEntity
  8
001
100
AcDbLine
 10
299.5
 20
484.5
 30
0.0
 11
282.5
 21
484.5
 31
0.0
  0
LINE
  5
27B
100
AcDbEntity
  8
001
100
AcDbLine
 10
255.715535
 20
479.143107
 30
0.0
 11
282.5
 21
484.5
 31
0.0
  0
ARC
  5
27C
100
AcDbEntity
  8
001
100
AcDbCircle
 10
295.5
 20
478.5
 30
0.0
 40
6.0
100
AcDbArc
 50
90.0
 51
180.0
  0
LINE
  5
27D
100
AcDbEntity
  8
001
100
AcDbLine
 10
303.5
 20
513.0
 30
0.0
 11
303.5
 21
488.5
 31
0.0
  0
ARC
  5
27E
100
AcDbEntity
  8
001
100
AcDbCircle
 10
256.5
 20
475.220784
 30
0.0
 40
4.0
100
AcDbArc
 50
101.309932
 51
180.0
  0
LINE
  5
27F
100
AcDbEntity
  8
001
100
AcDbLine
 10
347.5
 20
517.0
 30
0.0
 11
307.5
 21
517.0
 31
0.0
  0
ARC
  5
280
100
AcDbEntity
  8
001
100
AcDbCircle
 10
299.5
 20
488.5
 30
0.0
 40
4.0
100
AcDbArc
 50
270.0
 51
0.0
  0
ARC
  5
281
100
AcDbEntity
  8
001
100
AcDbCircle
 10
307.5
 20
513.0
 30
0.0
 40
4.0
100
AcDbArc
 50
90.0
 51
180.0
  0
LINE
  5
282
100
AcDbEntity
  8
001
100
AcDbLine
 10
347.5
 20
511.810672
 30
0.0
 11
307.5
 21
511.810672
 31
0.0
  0
ARC
  5
283
100
AcDbEntity
  8
001
100
AcDbCircle
 10
307.5
 20
507.810672
 30
0.0
 40
4.0
100
AcDbArc
 50
90.0
 51
180.0
  0
LINE
  5
284
100
AcDbEntity
  8
001
100
AcDbLine
 10
351.5
 20
490.799814
 30
0.0
 11
351.5
 21
513.0
 31
0.0
  0
ARC
  5
285
100
AcDbEntity
  8
001
100
AcDbCircle
 10
347.5
 20
507.810672
 30
0.0
 40
4.0
100
AcDbArc
 50
0.0
 51
90.0
  0
ARC
  5
286
100
AcDbEntity
  8
001
100
AcDbCircle
 10
347.5
 20
513.0
 30
0.0
 40
4.0
100
AcDbArc
 50
0.0
 51
90.0
  0
LINE
  5
287
100
AcDbEntity
  8
001
100
AcDbLine
 10
316.5
 20
502.42185
 30
0.0
 11
338.5
 21
502.42185
 31
0.0
  0
LINE
  5
288
100
AcDbEntity
  8
001
100
AcDbLine
 10
342.5
 20
490.799814
 30
0.0
 11
342.5
 21
498.42185
 31
0.0
  0
ARC
  5
289
100
AcDbEntity
  8
001
100
AcDbCircle
 10
338.5
 20
498.42185
 30
0.0
 40
4.0
100
AcDbArc
 50
0.0
 51
90.0
  0
ARC
  5
28A
100
AcDbEntity
  8
001
100
AcDbCircle
 10
316.5
 20
498.42185
 30
0.0
 40
4.0
100
AcDbArc
 50
90.0
 51
180.0
  0
ARC
  5
28B
100
AcDbEntity
  8
001
100
AcDbCircle
 10
350.5
 20
490.799814
 30
0.0
 40
1.0
100
AcDbArc
 50
270.0
 51
0.0
  0
ARC
  5
28C
100
AcDbEntity
  8
001
100
AcDbCircle
 10
343.5
 20
490.799814
 30
0.0
 40
1.0
100
AcDbArc
 50
180.0
 51
270.0
  0
LINE
  5
28D
100
AcDbEntity
  8
001
100
AcDbLine
 10
301.5
 20
495.228501
 30
0.0
 11
301.5
 21
505.228501
 31
0.0
  0
LINE
  5
28E
100
AcDbEntity
  8
001
100
AcDbLine
 10
301.5
 20
505.228501
 30
0.0
 11
303.5
 21
505.228501
 31
0.0
  0
LINE
  5
28F
100
AcDbEntity
  8
001
100
AcDbLine
 10
303.5
 20
495.228501
 30
0.0
 11
301.5
 21
495.228501
 31
0.0
  0
LINE
  5
290
100
AcDbEntity
  8
001
100
AcDbLine
 10
363.5
 20
503.228501
 30
0.0
 11
351.5
 21
503.228501
 31
0.0
  0
LINE
  5
291
100
AcDbEntity
  8
001
100
AcDbLine
 10
363.5
 20
497.228501
 30
0.0
 11
363.5
 21
503.228501
 31
0.0
  0
LINE
  5
292
100
AcDbEntity
  8
001
100
AcDbLine
 10
363.5
 20
497.228501
 30
0.0
 11
351.5
 21
497.228501
 31
0.0
  0
LINE
  5
293
100
AcDbEntity
  8
001
100
AcDbLine
 10
342.5
 20
497.228501
 30
0.0
 11
312.5
 21
497.228501
 31
0.0
  0
LINE
  5
294
100
AcDbEntity
  8
001
100
AcDbLine
 10
254.119031
 20
478.43497
 30
0.0
 11
305.119031
 21
516.214185
 31
0.0
  0
LINE
  5
295
100
AcDbEntity
  8
001
100
AcDbLine
 10
293.5
 20
477.552617
 30
0.0
 11
308.5
 21
477.552617
 31
0.0
  0
ARC
  5
296
100
AcDbEntity
  8
001
100
AcDbCircle
 10
308.5
 20
481.552617
 30
0.0
 40
4.0
100
AcDbArc
 50
270.0
 51
0.0
  0
ARC
  5
297
100
AcDbEntity
  8
001
100
AcDbCircle
 10
293.5
 20
473.552617
 30
0.0
 40
4.0
100
AcDbArc
 50
90.0
 51
180.0
  0
LINE
  5
298
100
AcDbEntity
  8
001
100
AcDbLine
 10
293.5
 20
418.0
 30
0.0
 11
347.5
 21
418.0
 31
0.0
  0
LINE
  5
299
100
AcDbEntity
  8
001
100
AcDbLine
 10
293.5
 20
355.0
 30
0.0
 11
347.5
 21
355.0
 31
0.0
  0
LINE
  5
29A
100
AcDbEntity
  8
001
100
AcDbLine
 10
351.5
 20
359.0
 30
0.0
 11
351.5
 21
414.0
 31
0.0
  0
ARC
  5
29B
100
AcDbEntity
  8
001
100
AcDbCircle
 10
347.5
 20
414.0
 30
0.0
 40
4.0
100
AcDbArc
 50
0.0
 51
90.0
  0
ARC
  5
29C
100
AcDbEntity
  8
001
100
AcDbCircle
 10
347.5
 20
359.0
 30
0.0
 40
4.0
100
AcDbArc
 50
270.0
 51
0.0
  0
ARC
  5
29D
100
AcDbEntity
  8
001
100
AcDbCircle
 10
307.5
 20
414.0
 30
0.0
 40
4.0
100
AcDbArc
 50
90.0
 51
180.0
  0
ARC
  5
29E
100
AcDbEntity
  8
001
100
AcDbCircle
 10
307.5
 20
359.0
 30
0.0
 40
4.0
100
AcDbArc
 50
180.0
 51
270.0
  0
ARC
  5
29F
100
AcDbEntity
  8
001
100
AcDbCircle
 10
293.5
 20
422.0
 30
0.0
 40
4.0
100
AcDbArc
 50
180.0
 51
270.0
  0
ARC
  5
2A0
100
AcDbEntity
  8
001
100
AcDbCircle
 10
293.5
 20
351.0
 30
0.0
 40
4.0
100
AcDbArc
 50
90.0
 51
180.0
  0
LINE
  5
2A1
100
AcDbEntity
  8
001
100
AcDbLine
 10
289.5
 20
478.5
 30
0.0
 11
289.5
 21
422.0
 31
0.0
  0
LINE
  5
2A2
100
AcDbEntity
  8
001
100
AcDbLine
 10
256.5
 20
386.5
 30
0.0
 11
305.119031
 21
386.5
 31
0.0
  0
LINE
  5
2A3
100
AcDbEntity
  8
001
100
AcDbLine
 10
256.5
 20
378.5
 30
0.0
 11
305.119031
 21
378.5
 31
0.0
  0
ARC
  5
2A4
100
AcDbEntity
  8
001
100
AcDbCircle
 10
299.5
 20
390.5
 30
0.0
 40
4.0
100
AcDbArc
 50
270.0
 51
0.0
  0
ARC
  5
2A5
100
AcDbEntity
  8
001
100
AcDbCircle
 10
299.5
 20
374.5
 30
0.0
 40
4.0
100
AcDbArc
 50
0.0
 51
90.0
  0
LINE
  5
2A6
100
AcDbEntity
  8
001
100
AcDbLine
 10
289.5
 20
390.5
 30
0.0
 11
289.5
 21
418.0
 31
0.0
  0
LINE
  5
2A7
100
AcDbEntity
  8
001
100
AcDbLine
 10
289.5
 20
374.5
 30
0.0
 11
289.5
 21
355.0
 31
0.0
  0
ARC
  5
2A8
100
AcDbEntity
  8
001
100
AcDbCircle
 10
285.5
 20
390.5
 30
0.0
 40
4.0
100
AcDbArc
 50
270.0
 51
0.0
  0
ARC
  5
2A9
100
AcDbEntity
  8
001
100
AcDbCircle
 10
285.5
 20
374.5
 30
0.0
 40
4.0
100
AcDbArc
 50
0.0
 51
90.0
  0
ARC
  5
2AA
100
AcDbEntity
  8
001
100
AcDbCircle
 10
256.5
 20
390.5
 30
0.0
 40
4.0
100
AcDbArc
 50
180.0
 51
270.0
  0
ARC
  5
2AB
100
AcDbEntity
  8
001
100
AcDbCircle
 10
256.5
 20
374.5
 30
0.0
 40
4.0
100
AcDbArc
 50
90.0
 51
180.0
  0
LINE
  5
2AC
100
AcDbEntity
  8
001
100
AcDbLine
 10
303.5
 20
359.0
 30
0.0
 11
303.5
 21
374.5
 31
0.0
  0
LINE
  5
2AD
100
AcDbEntity
  8
001
100
AcDbLine
 10
303.5
 20
390.5
 30
0.0
 11
303.5
 21
414.0
 31
0.0
  0
LINE
  5
2AE
100
AcDbEntity
  8
001
100
AcDbLine
 10
303.5
 20
276.5
 30
0.0
 11
303.5
 21
252.0
 31
0.0
  0
LINE
  5
2AF
100
AcDbEntity
  8
001
100
AcDbLine
 10
351.5
 20
271.381882
 30
0.0
 11
351.5
 21
252.0
 31
0.0
  0
LINE
  5
2B0
100
AcDbEntity
  8
001
100
AcDbLine
 10
307.5
 20
248.0
 30
0.0
 11
347.5
 21
248.0
 31
0.0
  0
LINE
  5
2B1
100
AcDbEntity
  8
001
100
AcDbLine
 10
307.5
 20
250.84135
 30
0.0
 11
347.5
 21
250.84135
 31
0.0
  0
LINE
  5
2B2
100
AcDbEntity
  8
001
100
AcDbLine
 10
289.5
 20
351.0
 30
0.0
 11
289.5
 21
286.5
 31
0.0
  0
LINE
  5
2B3
100
AcDbEntity
  8
001
100
AcDbLine
 10
252.5
 20
475.220784
 30
0.0
 11
252.5
 21
289.779216
 31
0.0
  0
ARC
  5
2B4
100
AcDbEntity
  8
001
100
AcDbCircle
 10
347.5
 20
254.84135
 30
0.0
 40
4.0
100
AcDbArc
 50
270.0
 51
0.0
  0
ARC
  5
2B5
100
AcDbEntity
  8
001
100
AcDbCircle
 10
307.5
 20
254.84135
 30
0.0
 40
4.0
100
AcDbArc
 50
180.0
 51
270.0
  0
ARC
  5
2B6
100
AcDbEntity
  8
001
100
AcDbCircle
 10
347.5
 20
252.0
 30
0.0
 40
4.0
100
AcDbArc
 50
270.0
 51
0.0
  0
ARC
  5
2B7
100
AcDbEntity
  8
001
100
AcDbCircle
 10
307.5
 20
252.0
 30
0.0
 40
4.0
100
AcDbArc
 50
180.0
 51
270.0
  0
LINE
  5
2B8
100
AcDbEntity
  8
001
100
AcDbLine
 10
316.5
 20
272.381882
 30
0.0
 11
350.5
 21
272.381882
 31
0.0
  0
ARC
  5
2B9
100
AcDbEntity
  8
001
100
AcDbCircle
 10
350.5
 20
271.381882
 30
0.0
 40
1.0
100
AcDbArc
 50
0.0
 51
90.0
  0
ARC
  5
2BA
100
AcDbEntity
  8
001
100
AcDbCircle
 10
316.5
 20
276.381882
 30
0.0
 40
4.0
100
AcDbArc
 50
180.0
 51
270.0
  0
LINE
  5
2BB
100
AcDbEntity
  8
001
100
AcDbLine
 10
299.5
 20
280.5
 30
0.0
 11
282.5
 21
280.5
 31
0.0
  0
LINE
  5
2BC
100
AcDbEntity
  8
001
100
AcDbLine
 10
255.715535
 20
285.856893
 30
0.0
 11
282.5
 21
280.5
 31
0.0
  0
ARC
  5
2BD
100
AcDbEntity
  8
001
100
AcDbCircle
 10
256.5
 20
289.779216
 30
0.0
 40
4.0
100
AcDbArc
 50
180.0
 51
258.690068
  0
ARC
  5
2BE
100
AcDbEntity
  8
001
100
AcDbCircle
 10
299.5
 20
276.5
 30
0.0
 40
4.0
100
AcDbArc
 50
0.0
 51
90.0
  0
ARC
  5
2BF
100
AcDbEntity
  8
001
100
AcDbCircle
 10
295.5
 20
286.5
 30
0.0
 40
6.0
100
AcDbArc
 50
180.0
 51
270.0
  0
LINE
  5
2C0
100
AcDbEntity
  8
001
100
AcDbLine
 10
293.5
 20
284.277039
 30
0.0
 11
308.5
 21
284.277039
 31
0.0
  0
ARC
  5
2C1
100
AcDbEntity
  8
001
100
AcDbCircle
 10
308.5
 20
280.277039
 30
0.0
 40
4.0
100
AcDbArc
 50
0.0
 51
90.0
  0
ARC
  5
2C2
100
AcDbEntity
  8
001
100
AcDbCircle
 10
293.5
 20
288.277039
 30
0.0
 40
4.0
100
AcDbArc
 50
180.0
 51
270.0
  0
LINE
  5
2C3
100
AcDbEntity
  8
001
100
AcDbLine
 10
282.304845
 20
461.941222
 30
0.0
 11
282.304845
 21
446.415033
 31
0.0
  0
POLYLINE
  5
2C4
100
AcDbEntity
  8
001
100
AcDb2dPolyline
 66
     1
 10
0.0
 20
0.0
 30
0.0
  0
VERTEX
  5
2C5
100
AcDbEntity
  8
001
100
AcDbVertex
100
AcDb2dVertex
 10
277.892232
 20
442.573376
 30
0.0
  0
VERTEX
  5
2C6
100
AcDbEntity
  8
001
100
AcDbVertex
100
AcDb2dVertex
 10
278.276817
 20
442.587995
 30
0.0
  0
VERTEX
  5
2C7
100
AcDbEntity
  8
001
100
AcDbVertex
100
AcDb2dVertex
 10
278.658474
 20
442.631739
 30
0.0
  0
VERTEX
  5
2C8
100
AcDbEntity
  8
001
100
AcDbVertex
100
AcDb2dVertex
 10
279.034301
 20
442.704277
 30
0.0
  0
VERTEX
  5
2C9
100
AcDbEntity
  8
001
100
AcDbVertex
100
AcDb2dVertex
 10
279.401435
 20
442.805056
 30
0.0
  0
VERTEX
  5
2CA
100
AcDbEntity
  8
001
100
AcDbVertex
100
AcDb2dVertex
 10
279.757083
 20
442.933309
 30
0.0
  0
VERTEX
  5
2CB
100
AcDbEntity
  8
001
100
AcDbVertex
100
AcDb2dVertex
 10
280.098539
 20
443.08806
 30
0.0
  0
VERTEX
  5
2CC
100
AcDbEntity
  8
001
100
AcDbVertex
100
AcDb2dVertex
 10
280.423203
 20
443.268132
 30
0.0
  0
VERTEX
  5
2CD
100
AcDbEntity
  8
001
100
AcDbVertex
100
AcDb2dVertex
 10
280.728605
 20
443.472153
 30
0.0
  0
VERTEX
  5
2CE
100
AcDbEntity
  8
001
100
AcDbVertex
100
AcDb2dVertex
 10
281.012421
 20
443.698571
 30
0.0
  0
VERTEX
  5
2CF
100
AcDbEntity
  8
001
100
AcDbVertex
100
AcDb2dVertex
 10
281.27249
 20
443.945663
 30
0.0
  0
VERTEX
  5
2D0
100
AcDbEntity
  8
001
100
AcDbVertex
100
AcDb2dVertex
 10
281.506833
 20
444.211549
 30
0.0
  0
VERTEX
  5
2D1
100
AcDbEntity
  8
001
100
AcDbVertex
100
AcDb2dVertex
 10
281.713667
 20
444.494204
 30
0.0
  0
VERTEX
  5
2D2
100
AcDbEntity
  8
001
100
AcDbVertex
100
AcDb2dVertex
 10
281.891418
 20
444.791478
 30
0.0
  0
VERTEX
  5
2D3
100
AcDbEntity
  8
001
100
AcDbVertex
100
AcDb2dVertex
 10
282.038732
 20
445.101109
 30
0.0
  0
VERTEX
  5
2D4
100
AcDbEntity
  8
001
100
AcDbVertex
100
AcDb2dVertex
 10
282.154489
 20
445.420739
 30
0.0
  0
VERTEX
  5
2D5
100
AcDbEntity
  8
001
100
AcDbVertex
100
AcDb2dVertex
 10
282.237808
 20
445.747936
 30
0.0
  0
VERTEX
  5
2D6
100
AcDbEntity
  8
001
100
AcDbVertex
100
AcDb2dVertex
 10
282.288054
 20
446.08021
 30
0.0
  0
VERTEX
  5
2D7
100
AcDbEntity
  8
001
100
AcDbVertex
100
AcDb2dVertex
 10
282.304845
 20
446.415033
 30
0.0
  0
SEQEND
  5
2D8
100
AcDbEntity
  8
001
  0
LINE
  5
2D9
100
AcDbEntity
  8
001
100
AcDbLine
 10
273.087387
 20
462.080758
 30
0.0
 11
273.087387
 21
446.554453
 31
0.0
  0
LINE
  5
2DA
100
AcDbEntity
  8
001
100
AcDbLine
 10
281.912613
 20
463.336432
 30
0.0
 11
281.912613
 21
447.809115
 31
0.0
  0
POLYLINE
  5
2DB
100
AcDbEntity
  8
001
100
AcDb2dPolyline
 66
     1
 10
0.0
 20
0.0
 30
0.0
  0
VERTEX
  5
2DC
100
AcDbEntity
  8
001
100
AcDbVertex
100
AcDb2dVertex
 10
277.5
 20
465.252933
 30
0.0
  0
VERTEX
  5
2DD
100
AcDbEntity
  8
001
100
AcDbVertex
100
AcDb2dVertex
 10
277.115415
 20
465.240862
 30
0.0
  0
VERTEX
  5
2DE
100
AcDbEntity
  8
001
100
AcDbVertex
100
AcDb2dVertex
 10
276.733758
 20
465.204741
 30
0.0
  0
VERTEX
  5
2DF
100
AcDbEntity
  8
001
100
AcDbVertex
100
AcDb2dVertex
 10
276.357932
 20
465.144844
 30
0.0
  0
VERTEX
  5
2E0
100
AcDbEntity
  8
001
100
AcDbVertex
100
AcDb2dVertex
 10
275.990797
 20
465.061627
 30
0.0
  0
VERTEX
  5
2E1
100
AcDbEntity
  8
001
100
AcDbVertex
100
AcDb2dVertex
 10
275.635149
 20
464.955725
 30
0.0
  0
VERTEX
  5
2E2
100
AcDbEntity
  8
001
100
AcDbVertex
100
AcDb2dVertex
 10
275.293693
 20
464.827942
 30
0.0
  0
VERTEX
  5
2E3
100
AcDbEntity
  8
001
100
AcDbVertex
100
AcDb2dVertex
 10
274.969029
 20
464.679252
 30
0.0
  0
VERTEX
  5
2E4
100
AcDbEntity
  8
001
100
AcDbVertex
100
AcDb2dVertex
 10
274.663627
 20
464.510785
 30
0.0
  0
VERTEX
  5
2E5
100
AcDbEntity
  8
001
100
AcDbVertex
100
AcDb2dVertex
 10
274.379811
 20
464.323825
 30
0.0
  0
VERTEX
  5
2E6
100
AcDbEntity
  8
001
100
AcDbVertex
100
AcDb2dVertex
 10
274.119742
 20
464.119793
 30
0.0
  0
VERTEX
  5
2E7
100
AcDbEntity
  8
001
100
AcDbVertex
100
AcDb2dVertex
 10
273.885399
 20
463.900243
 30
0.0
  0
VERTEX
  5
2E8
100
AcDbEntity
  8
001
100
AcDbVertex
100
AcDb2dVertex
 10
273.678565
 20
463.666846
 30
0.0
  0
VERTEX
  5
2E9
100
AcDbEntity
  8
001
100
AcDbVertex
100
AcDb2dVertex
 10
273.500814
 20
463.421377
 30
0.0
  0
VERTEX
  5
2EA
100
AcDbEntity
  8
001
100
AcDbVertex
100
AcDb2dVertex
 10
273.3535
 20
463.165706
 30
0.0
  0
VERTEX
  5
2EB
100
AcDbEntity
  8
001
100
AcDbVertex
100
AcDb2dVertex
 10
273.237743
 20
462.901778
 30
0.0
  0
VERTEX
  5
2EC
100
AcDbEntity
  8
001
100
AcDbVertex
100
AcDb2dVertex
 10
273.154424
 20
462.631601
 30
0.0
  0
VERTEX
  5
2ED
100
AcDbEntity
  8
001
100
AcDbVertex
100
AcDb2dVertex
 10
273.104178
 20
462.357232
 30
0.0
  0
VERTEX
  5
2EE
100
AcDbEntity
  8
001
100
AcDbVertex
100
AcDb2dVertex
 10
273.087387
 20
462.080758
 30
0.0
  0
SEQEND
  5
2EF
100
AcDbEntity
  8
001
  0
POLYLINE
  5
2F0
100
AcDbEntity
  8
001
100
AcDb2dPolyline
 66
     1
 10
0.0
 20
0.0
 30
0.0
  0
VERTEX
  5
2F1
100
AcDbEntity
  8
001
100
AcDbVertex
100
AcDb2dVertex
 10
277.5
 20
443.973197
 30
0.0
  0
VERTEX
  5
2F2
100
AcDbEntity
  8
001
100
AcDbVertex
100
AcDb2dVertex
 10
277.884585
 20
443.987793
 30
0.0
  0
VERTEX
  5
2F3
100
AcDbEntity
  8
001
100
AcDbVertex
100
AcDb2dVertex
 10
278.266242
 20
444.031473
 30
0.0
  0
VERTEX
  5
2F4
100
AcDbEntity
  8
001
100
AcDbVertex
100
AcDb2dVertex
 10
278.642068
 20
444.103902
 30
0.0
  0
VERTEX
  5
2F5
100
AcDbEntity
  8
001
100
AcDbVertex
100
AcDb2dVertex
 10
279.009203
 20
444.204531
 30
0.0
  0
VERTEX
  5
2F6
100
AcDbEntity
  8
001
100
AcDbVertex
100
AcDb2dVertex
 10
279.364851
 20
444.332592
 30
0.0
  0
VERTEX
  5
2F7
100
AcDbEntity
  8
001
100
AcDbVertex
100
AcDb2dVertex
 10
279.706307
 20
444.487112
 30
0.0
  0
VERTEX
  5
2F8
100
AcDbEntity
  8
001
100
AcDbVertex
100
AcDb2dVertex
 10
280.030971
 20
444.666915
 30
0.0
  0
VERTEX
  5
2F9
100
AcDbEntity
  8
001
100
AcDbVertex
100
AcDb2dVertex
 10
280.336373
 20
444.870631
 30
0.0
  0
VERTEX
  5
2FA
100
AcDbEntity
  8
001
100
AcDbVertex
100
AcDb2dVertex
 10
280.620189
 20
445.096711
 30
0.0
  0
VERTEX
  5
2FB
100
AcDbEntity
  8
001
100
AcDbVertex
100
AcDb2dVertex
 10
280.880258
 20
445.343434
 30
0.0
  0
VERTEX
  5
2FC
100
AcDbEntity
  8
001
100
AcDbVertex
100
AcDb2dVertex
 10
281.114601
 20
445.608923
 30
0.0
  0
VERTEX
  5
2FD
100
AcDbEntity
  8
001
100
AcDbVertex
100
AcDb2dVertex
 10
281.321435
 20
445.891156
 30
0.0
  0
VERTEX
  5
2FE
100
AcDbEntity
  8
001
100
AcDbVertex
100
AcDb2dVertex
 10
281.499186
 20
446.187986
 30
0.0
  0
VERTEX
  5
2FF
100
AcDbEntity
  8
001
100
AcDbVertex
100
AcDb2dVertex
 10
281.6465
 20
446.497154
 30
0.0
  0
VERTEX
  5
300
100
AcDbEntity
  8
001
100
AcDbVertex
100
AcDb2dVertex
 10
281.762257
 20
446.816306
 30
0.0
  0
VERTEX
  5
301
100
AcDbEntity
  8
001
100
AcDbVertex
100
AcDb2dVertex
 10
281.845576
 20
447.143015
 30
0.0
  0
VERTEX
  5
302
100
AcDbEntity
  8
001
100
AcDbVertex
100
AcDb2dVertex
 10
281.895822
 20
447.474793
 30
0.0
  0
VERTEX
  5
303
100
AcDbEntity
  8
001
100
AcDbVertex
100
AcDb2dVertex
 10
281.912613
 20
447.809115
 30
0.0
  0
SEQEND
  5
304
100
AcDbEntity
  8
001
  0
POLYLINE
  5
305
100
AcDbEntity
  8
001
100
AcDb2dPolyline
 66
     1
 10
0.0
 20
0.0
 30
0.0
  0
VERTEX
  5
306
100
AcDbEntity
  8
001
100
AcDbVertex
100
AcDb2dVertex
 10
281.912613
 20
463.336432
 30
0.0
  0
VERTEX
  5
307
100
AcDbEntity
  8
001
100
AcDbVertex
100
AcDb2dVertex
 10
281.895822
 20
463.503466
 30
0.0
  0
VERTEX
  5
308
100
AcDbEntity
  8
001
100
AcDbVertex
100
AcDb2dVertex
 10
281.845576
 20
463.669229
 30
0.0
  0
VERTEX
  5
309
100
AcDbEntity
  8
001
100
AcDbVertex
100
AcDb2dVertex
 10
281.762257
 20
463.832459
 30
0.0
  0
VERTEX
  5
30A
100
AcDbEntity
  8
001
100
AcDbVertex
100
AcDb2dVertex
 10
281.6465
 20
463.991914
 30
0.0
  0
VERTEX
  5
30B
100
AcDbEntity
  8
001
100
AcDbVertex
100
AcDb2dVertex
 10
281.499186
 20
464.14638
 30
0.0
  0
VERTEX
  5
30C
100
AcDbEntity
  8
001
100
AcDbVertex
100
AcDb2dVertex
 10
281.321435
 20
464.294682
 30
0.0
  0
VERTEX
  5
30D
100
AcDbEntity
  8
001
100
AcDbVertex
100
AcDb2dVertex
 10
281.114601
 20
464.435692
 30
0.0
  0
VERTEX
  5
30E
100
AcDbEntity
  8
001
100
AcDbVertex
100
AcDb2dVertex
 10
280.880258
 20
464.568335
 30
0.0
  0
VERTEX
  5
30F
100
AcDbEntity
  8
001
100
AcDbVertex
100
AcDb2dVertex
 10
280.620189
 20
464.691603
 30
0.0
  0
VERTEX
  5
310
100
AcDbEntity
  8
001
100
AcDbVertex
100
AcDb2dVertex
 10
280.336373
 20
464.804557
 30
0.0
  0
VERTEX
  5
311
100
AcDbEntity
  8
001
100
AcDbVertex
100
AcDb2dVertex
 10
280.030971
 20
464.906338
 30
0.0
  0
VERTEX
  5
312
100
AcDbEntity
  8
001
100
AcDbVertex
100
AcDb2dVertex
 10
279.706307
 20
464.996171
 30
0.0
  0
VERTEX
  5
313
100
AcDbEntity
  8
001
100
AcDbVertex
100
AcDb2dVertex
 10
279.364851
 20
465.073372
 30
0.0
  0
VERTEX
  5
314
100
AcDbEntity
  8
001
100
AcDbVertex
100
AcDb2dVertex
 10
279.009203
 20
465.137354
 30
0.0
  0
VERTEX
  5
315
100
AcDbEntity
  8
001
100
AcDbVertex
100
AcDb2dVertex
 10
278.642068
 20
465.18763
 30
0.0
  0
VERTEX
  5
316
100
AcDbEntity
  8
001
100
AcDbVertex
100
AcDb2dVertex
 10
278.266242
 20
465.223817
 30
0.0
  0
VERTEX
  5
317
100
AcDbEntity
  8
001
100
AcDbVertex
100
AcDb2dVertex
 10
277.884585
 20
465.24564
 30
0.0
  0
VERTEX
  5
318
100
AcDbEntity
  8
001
100
AcDbVertex
100
AcDb2dVertex
 10
277.5
 20
465.252933
 30
0.0
  0
SEQEND
  5
319
100
AcDbEntity
  8
001
  0
POLYLINE
  5
31A
100
AcDbEntity
  8
001
100
AcDb2dPolyline
 66
     1
 10
0.0
 20
0.0
 30
0.0
  0
VERTEX
  5
31B
100
AcDbEntity
  8
001
100
AcDbVertex
100
AcDb2dVertex
 10
282.304845
 20
461.941222
 30
0.0
  0
VERTEX
  5
31C
100
AcDbEntity
  8
001
100
AcDbVertex
100
AcDb2dVertex
 10
282.272602
 20
462.171599
 30
0.0
  0
SEQEND
  5
31D
100
AcDbEntity
  8
001
  0
LINE
  5
31E
100
AcDbEntity
  8
001
100
AcDbLine
 10
281.880124
 20
463.568567
 30
0.0
 11
282.272602
 21
462.171599
 31
0.0
  0
POLYLINE
  5
31F
100
AcDbEntity
  8
001
100
AcDb2dPolyline
 66
     1
 10
0.0
 20
0.0
 30
0.0
  0
VERTEX
  5
320
100
AcDbEntity
  8
001
100
AcDbVertex
100
AcDb2dVertex
 10
273.538347
 20
444.7395
 30
0.0
  0
VERTEX
  5
321
100
AcDbEntity
  8
001
100
AcDbVertex
100
AcDb2dVertex
 10
273.618218
 20
444.516897
 30
0.0
  0
VERTEX
  5
322
100
AcDbEntity
  8
001
100
AcDbVertex
100
AcDb2dVertex
 10
273.731141
 20
444.299268
 30
0.0
  0
VERTEX
  5
323
100
AcDbEntity
  8
001
100
AcDbVertex
100
AcDb2dVertex
 10
273.876242
 20
444.088297
 30
0.0
  0
VERTEX
  5
324
100
AcDbEntity
  8
001
100
AcDbVertex
100
AcDb2dVertex
 10
274.052398
 20
443.885614
 30
0.0
  0
VERTEX
  5
325
100
AcDbEntity
  8
001
100
AcDbVertex
100
AcDb2dVertex
 10
274.258249
 20
443.692787
 30
0.0
  0
VERTEX
  5
326
100
AcDbEntity
  8
001
100
AcDbVertex
100
AcDb2dVertex
 10
274.492202
 20
443.511306
 30
0.0
  0
VERTEX
  5
327
100
AcDbEntity
  8
001
100
AcDbVertex
100
AcDb2dVertex
 10
274.752448
 20
443.342577
 30
0.0
  0
VERTEX
  5
328
100
AcDbEntity
  8
001
100
AcDbVertex
100
AcDb2dVertex
 10
275.036973
 20
443.187903
 30
0.0
  0
VERTEX
  5
329
100
AcDbEntity
  8
001
100
AcDbVertex
100
AcDb2dVertex
 10
275.343579
 20
443.04848
 30
0.0
  0
VERTEX
  5
32A
100
AcDbEntity
  8
001
100
AcDbVertex
100
AcDb2dVertex
 10
275.669894
 20
442.925387
 30
0.0
  0
VERTEX
  5
32B
100
AcDbEntity
  8
001
100
AcDbVertex
100
AcDb2dVertex
 10
276.013395
 20
442.819575
 30
0.0
  0
VERTEX
  5
32C
100
AcDbEntity
  8
001
100
AcDbVertex
100
AcDb2dVertex
 10
276.371425
 20
442.731863
 30
0.0
  0
VERTEX
  5
32D
100
AcDbEntity
  8
001
100
AcDbVertex
100
AcDb2dVertex
 10
276.741215
 20
442.662929
 30
0.0
  0
VERTEX
  5
32E
100
AcDbEntity
  8
001
100
AcDbVertex
100
AcDb2dVertex
 10
277.119907
 20
442.613306
 30
0.0
  0
VERTEX
  5
32F
100
AcDbEntity
  8
001
100
AcDbVertex
100
AcDb2dVertex
 10
277.504571
 20
442.583378
 30
0.0
  0
VERTEX
  5
330
100
AcDbEntity
  8
001
100
AcDbVertex
100
AcDb2dVertex
 10
277.892232
 20
442.573376
 30
0.0
  0
SEQEND
  5
331
100
AcDbEntity
  8
001
  0
POLYLINE
  5
332
100
AcDbEntity
  8
001
100
AcDb2dPolyline
 66
     1
 10
0.0
 20
0.0
 30
0.0
  0
VERTEX
  5
333
100
AcDbEntity
  8
001
100
AcDbVertex
100
AcDb2dVertex
 10
273.087387
 20
446.554453
 30
0.0
  0
VERTEX
  5
334
100
AcDbEntity
  8
001
100
AcDbVertex
100
AcDb2dVertex
 10
273.10621
 20
446.316285
 30
0.0
  0
VERTEX
  5
335
100
AcDbEntity
  8
001
100
AcDbVertex
100
AcDb2dVertex
 10
273.16252
 20
446.080148
 30
0.0
  0
VERTEX
  5
336
100
AcDbEntity
  8
001
100
AcDbVertex
100
AcDb2dVertex
 10
273.255836
 20
445.848059
 30
0.0
  0
VERTEX
  5
337
100
AcDbEntity
  8
001
100
AcDbVertex
100
AcDb2dVertex
 10
273.385361
 20
445.621996
 30
0.0
  0
VERTEX
  5
338
100
AcDbEntity
  8
001
100
AcDbVertex
100
AcDb2dVertex
 10
273.549991
 20
445.403888
 30
0.0
  0
VERTEX
  5
339
100
AcDbEntity
  8
001
100
AcDbVertex
100
AcDb2dVertex
 10
273.748321
 20
445.195597
 30
0.0
  0
VERTEX
  5
33A
100
AcDbEntity
  8
001
100
AcDbVertex
100
AcDb2dVertex
 10
273.978659
 20
444.998898
 30
0.0
  0
VERTEX
  5
33B
100
AcDbEntity
  8
001
100
AcDbVertex
100
AcDb2dVertex
 10
274.23904
 20
444.815472
 30
0.0
  0
VERTEX
  5
33C
100
AcDbEntity
  8
001
100
AcDbVertex
100
AcDb2dVertex
 10
274.527242
 20
444.646881
 30
0.0
  0
VERTEX
  5
33D
100
AcDbEntity
  8
001
100
AcDbVertex
100
AcDb2dVertex
 10
274.840807
 20
444.494566
 30
0.0
  0
VERTEX
  5
33E
100
AcDbEntity
  8
001
100
AcDbVertex
100
AcDb2dVertex
 10
275.177059
 20
444.359824
 30
0.0
  0
VERTEX
  5
33F
100
AcDbEntity
  8
001
100
AcDbVertex
100
AcDb2dVertex
 10
275.533129
 20
444.243807
 30
0.0
  0
VERTEX
  5
340
100
AcDbEntity
  8
001
100
AcDbVertex
100
AcDb2dVertex
 10
275.90598
 20
444.147503
 30
0.0
  0
VERTEX
  5
341
100
AcDbEntity
  8
001
100
AcDbVertex
100
AcDb2dVertex
 10
276.292431
 20
444.071734
 30
0.0
  0
VERTEX
  5
342
100
AcDbEntity
  8
001
100
AcDbVertex
100
AcDb2dVertex
 10
276.689184
 20
444.017147
 30
0.0
  0
VERTEX
  5
343
100
AcDbEntity
  8
001
100
AcDbVertex
100
AcDb2dVertex
 10
277.092855
 20
443.984208
 30
0.0
  0
VERTEX
  5
344
100
AcDbEntity
  8
001
100
AcDbVertex
100
AcDb2dVertex
 10
277.5
 20
443.973197
 30
0.0
  0
SEQEND
  5
345
100
AcDbEntity
  8
001
  0
LINE
  5
346
100
AcDbEntity
  8
001
100
AcDbLine
 10
273.538347
 20
444.7395
 30
0.0
 11
273.145871
 21
446.13559
 31
0.0
  0
LINE
  5
347
100
AcDbEntity
  8
001
100
AcDbLine
 10
895.5
 20
484.5
 30
0.0
 11
912.5
 21
484.5
 31
0.0
  0
LINE
  5
348
100
AcDbEntity
  8
001
100
AcDbLine
 10
939.284465
 20
479.143107
 30
0.0
 11
912.5
 21
484.5
 31
0.0
  0
ARC
  5
349
100
AcDbEntity
  8
001
100
AcDbCircle
 10
899.5
 20
478.5
 30
0.0
 40
6.0
100
AcDbArc
 50
0.0
 51
90.0
  0
LINE
  5
34A
100
AcDbEntity
  8
001
100
AcDbLine
 10
891.5
 20
513.0
 30
0.0
 11
891.5
 21
488.5
 31
0.0
  0
ARC
  5
34B
100
AcDbEntity
  8
001
100
AcDbCircle
 10
938.5
 20
475.220784
 30
0.0
 40
4.0
100
AcDbArc
 50
0.0
 51
78.690068
  0
LINE
  5
34C
100
AcDbEntity
  8
001
100
AcDbLine
 10
847.5
 20
517.0
 30
0.0
 11
887.5
 21
517.0
 31
0.0
  0
ARC
  5
34D
100
AcDbEntity
  8
001
100
AcDbCircle
 10
895.5
 20
488.5
 30
0.0
 40
4.0
100
AcDbArc
 50
180.0
 51
270.0
  0
ARC
  5
34E
100
AcDbEntity
  8
001
100
AcDbCircle
 10
887.5
 20
513.0
 30
0.0
 40
4.0
100
AcDbArc
 50
0.0
 51
90.0
  0
LINE
  5
34F
100
AcDbEntity
  8
001
100
AcDbLine
 10
847.5
 20
511.810672
 30
0.0
 11
887.5
 21
511.810672
 31
0.0
  0
ARC
  5
350
100
AcDbEntity
  8
001
100
AcDbCircle
 10
887.5
 20
507.810672
 30
0.0
 40
4.0
100
AcDbArc
 50
0.0
 51
90.0
  0
LINE
  5
351
100
AcDbEntity
  8
001
100
AcDbLine
 10
843.5
 20
490.799814
 30
0.0
 11
843.5
 21
513.0
 31
0.0
  0
ARC
  5
352
100
AcDbEntity
  8
001
100
AcDbCircle
 10
847.5
 20
507.810672
 30
0.0
 40
4.0
100
AcDbArc
 50
90.0
 51
180.0
  0
ARC
  5
353
100
AcDbEntity
  8
001
100
AcDbCircle
 10
847.5
 20
513.0
 30
0.0
 40
4.0
100
AcDbArc
 50
90.0
 51
180.0
  0
LINE
  5
354
100
AcDbEntity
  8
001
100
AcDbLine
 10
878.5
 20
489.799814
 30
0.0
 11
844.5
 21
489.799814
 31
0.0
  0
ARC
  5
355
100
AcDbEntity
  8
001
100
AcDbCircle
 10
844.5
 20
490.799814
 30
0.0
 40
1.0
100
AcDbArc
 50
180.0
 51
270.0
  0
LINE
  5
356
100
AcDbEntity
  8
001
100
AcDbLine
 10
831.5
 20
503.228501
 30
0.0
 11
843.5
 21
503.228501
 31
0.0
  0
LINE
  5
357
100
AcDbEntity
  8
001
100
AcDbLine
 10
831.5
 20
497.228501
 30
0.0
 11
831.5
 21
503.228501
 31
0.0
  0
LINE
  5
358
100
AcDbEntity
  8
001
100
AcDbLine
 10
831.5
 20
497.228501
 30
0.0
 11
843.5
 21
497.228501
 31
0.0
  0
LINE
  5
359
100
AcDbEntity
  8
001
100
AcDbLine
 10
940.880969
 20
478.43497
 30
0.0
 11
889.880969
 21
516.214185
 31
0.0
  0
LINE
  5
35A
100
AcDbEntity
  8
001
100
AcDbLine
 10
901.5
 20
477.552617
 30
0.0
 11
886.5
 21
477.552617
 31
0.0
  0
ARC
  5
35B
100
AcDbEntity
  8
001
100
AcDbCircle
 10
886.5
 20
481.552617
 30
0.0
 40
4.0
100
AcDbArc
 50
180.0
 51
270.0
  0
ARC
  5
35C
100
AcDbEntity
  8
001
100
AcDbCircle
 10
901.5
 20
473.552617
 30
0.0
 40
4.0
100
AcDbArc
 50
0.0
 51
90.0
  0
LINE
  5
35D
100
AcDbEntity
  8
001
100
AcDbLine
 10
901.5
 20
347.0
 30
0.0
 11
847.5
 21
347.0
 31
0.0
  0
LINE
  5
35E
100
AcDbEntity
  8
001
100
AcDbLine
 10
901.5
 20
410.0
 30
0.0
 11
847.5
 21
410.0
 31
0.0
  0
LINE
  5
35F
100
AcDbEntity
  8
001
100
AcDbLine
 10
843.5
 20
406.0
 30
0.0
 11
843.5
 21
351.0
 31
0.0
  0
ARC
  5
360
100
AcDbEntity
  8
001
100
AcDbCircle
 10
847.5
 20
351.0
 30
0.0
 40
4.0
100
AcDbArc
 50
180.0
 51
270.0
  0
ARC
  5
361
100
AcDbEntity
  8
001
100
AcDbCircle
 10
847.5
 20
406.0
 30
0.0
 40
4.0
100
AcDbArc
 50
90.0
 51
180.0
  0
ARC
  5
362
100
AcDbEntity
  8
001
100
AcDbCircle
 10
887.5
 20
351.0
 30
0.0
 40
4.0
100
AcDbArc
 50
270.0
 51
0.0
  0
ARC
  5
363
100
AcDbEntity
  8
001
100
AcDbCircle
 10
887.5
 20
406.0
 30
0.0
 40
4.0
100
AcDbArc
 50
0.0
 51
90.0
  0
ARC
  5
364
100
AcDbEntity
  8
001
100
AcDbCircle
 10
901.5
 20
343.0
 30
0.0
 40
4.0
100
AcDbArc
 50
0.0
 51
90.0
  0
ARC
  5
365
100
AcDbEntity
  8
001
100
AcDbCircle
 10
901.5
 20
414.0
 30
0.0
 40
4.0
100
AcDbArc
 50
270.0
 51
0.0
  0
LINE
  5
366
100
AcDbEntity
  8
001
100
AcDbLine
 10
905.5
 20
478.5
 30
0.0
 11
905.5
 21
414.0
 31
0.0
  0
LINE
  5
367
100
AcDbEntity
  8
001
100
AcDbLine
 10
938.5
 20
378.5
 30
0.0
 11
889.880969
 21
378.5
 31
0.0
  0
LINE
  5
368
100
AcDbEntity
  8
001
100
AcDbLine
 10
938.5
 20
386.5
 30
0.0
 11
889.880969
 21
386.5
 31
0.0
  0
ARC
  5
369
100
AcDbEntity
  8
001
100
AcDbCircle
 10
895.5
 20
374.5
 30
0.0
 40
4.0
100
AcDbArc
 50
90.0
 51
180.0
  0
ARC
  5
36A
100
AcDbEntity
  8
001
100
AcDbCircle
 10
895.5
 20
390.5
 30
0.0
 40
4.0
100
AcDbArc
 50
180.0
 51
270.0
  0
LINE
  5
36B
100
AcDbEntity
  8
001
100
AcDbLine
 10
905.5
 20
374.5
 30
0.0
 11
905.5
 21
347.0
 31
0.0
  0
LINE
  5
36C
100
AcDbEntity
  8
001
100
AcDbLine
 10
905.5
 20
390.5
 30
0.0
 11
905.5
 21
410.0
 31
0.0
  0
ARC
  5
36D
100
AcDbEntity
  8
001
100
AcDbCircle
 10
909.5
 20
374.5
 30
0.0
 40
4.0
100
AcDbArc
 50
90.0
 51
180.0
  0
ARC
  5
36E
100
AcDbEntity
  8
001
100
AcDbCircle
 10
909.5
 20
390.5
 30
0.0
 40
4.0
100
AcDbArc
 50
180.0
 51
270.0
  0
ARC
  5
36F
100
AcDbEntity
  8
001
100
AcDbCircle
 10
938.5
 20
390.5
 30
0.0
 40
4.0
100
AcDbArc
 50
270.0
 51
0.0
  0
ARC
  5
370
100
AcDbEntity
  8
001
100
AcDbCircle
 10
938.5
 20
374.5
 30
0.0
 40
4.0
100
AcDbArc
 50
0.0
 51
90.0
  0
LINE
  5
371
100
AcDbEntity
  8
001
100
AcDbLine
 10
891.5
 20
406.0
 30
0.0
 11
891.5
 21
390.5
 31
0.0
  0
LINE
  5
372
100
AcDbEntity
  8
001
100
AcDbLine
 10
891.5
 20
374.5
 30
0.0
 11
891.5
 21
351.0
 31
0.0
  0
LINE
  5
373
100
AcDbEntity
  8
001
100
AcDbLine
 10
891.5
 20
276.5
 30
0.0
 11
891.5
 21
252.0
 31
0.0
  0
LINE
  5
374
100
AcDbEntity
  8
001
100
AcDbLine
 10
843.5
 20
271.381882
 30
0.0
 11
843.5
 21
252.0
 31
0.0
  0
LINE
  5
375
100
AcDbEntity
  8
001
100
AcDbLine
 10
887.5
 20
248.0
 30
0.0
 11
847.5
 21
248.0
 31
0.0
  0
LINE
  5
376
100
AcDbEntity
  8
001
100
AcDbLine
 10
887.5
 20
250.84135
 30
0.0
 11
847.5
 21
250.84135
 31
0.0
  0
LINE
  5
377
100
AcDbEntity
  8
001
100
AcDbLine
 10
905.5
 20
343.0
 30
0.0
 11
905.5
 21
286.5
 31
0.0
  0
LINE
  5
378
100
AcDbEntity
  8
001
100
AcDbLine
 10
942.5
 20
475.220784
 30
0.0
 11
942.5
 21
289.779216
 31
0.0
  0
ARC
  5
379
100
AcDbEntity
  8
001
100
AcDbCircle
 10
847.5
 20
254.84135
 30
0.0
 40
4.0
100
AcDbArc
 50
180.0
 51
270.0
  0
ARC
  5
37A
100
AcDbEntity
  8
001
100
AcDbCircle
 10
887.5
 20
254.84135
 30
0.0
 40
4.0
100
AcDbArc
 50
270.0
 51
0.0
  0
ARC
  5
37B
100
AcDbEntity
  8
001
100
AcDbCircle
 10
847.5
 20
252.0
 30
0.0
 40
4.0
100
AcDbArc
 50
180.0
 51
270.0
  0
ARC
  5
37C
100
AcDbEntity
  8
001
100
AcDbCircle
 10
887.5
 20
252.0
 30
0.0
 40
4.0
100
AcDbArc
 50
270.0
 51
0.0
  0
LINE
  5
37D
100
AcDbEntity
  8
001
100
AcDbLine
 10
871.5
 20
272.381882
 30
0.0
 11
844.5
 21
272.381882
 31
0.0
  0
ARC
  5
37E
100
AcDbEntity
  8
001
100
AcDbCircle
 10
844.5
 20
271.381882
 30
0.0
 40
1.0
100
AcDbArc
 50
90.0
 51
180.0
  0
LINE
  5
37F
100
AcDbEntity
  8
001
100
AcDbLine
 10
895.5
 20
280.5
 30
0.0
 11
912.5
 21
280.5
 31
0.0
  0
LINE
  5
380
100
AcDbEntity
  8
001
100
AcDbLine
 10
939.284465
 20
285.856893
 30
0.0
 11
912.5
 21
280.5
 31
0.0
  0
ARC
  5
381
100
AcDbEntity
  8
001
100
AcDbCircle
 10
938.5
 20
289.779216
 30
0.0
 40
4.0
100
AcDbArc
 50
281.309932
 51
0.0
  0
ARC
  5
382
100
AcDbEntity
  8
001
100
AcDbCircle
 10
895.5
 20
276.5
 30
0.0
 40
4.0
100
AcDbArc
 50
90.0
 51
180.0
  0
ARC
  5
383
100
AcDbEntity
  8
001
100
AcDbCircle
 10
899.5
 20
286.5
 30
0.0
 40
6.0
100
AcDbArc
 50
270.0
 51
0.0
  0
LINE
  5
384
100
AcDbEntity
  8
001
100
AcDbLine
 10
901.5
 20
284.277039
 30
0.0
 11
886.5
 21
284.277039
 31
0.0
  0
ARC
  5
385
100
AcDbEntity
  8
001
100
AcDbCircle
 10
886.5
 20
280.277039
 30
0.0
 40
4.0
100
AcDbArc
 50
90.0
 51
180.0
  0
ARC
  5
386
100
AcDbEntity
  8
001
100
AcDbCircle
 10
901.5
 20
288.277039
 30
0.0
 40
4.0
100
AcDbArc
 50
270.0
 51
0.0
  0
ARC
  5
387
100
AcDbEntity
  8
001
100
AcDbCircle
 10
878.5
 20
485.799814
 30
0.0
 40
4.0
100
AcDbArc
 50
0.0
 51
90.0
  0
LINE
  5
388
100
AcDbEntity
  8
001
100
AcDbLine
 10
878.5
 20
260.05001
 30
0.0
 11
856.5
 21
260.05001
 31
0.0
  0
LINE
  5
389
100
AcDbEntity
  8
001
100
AcDbLine
 10
852.5
 20
264.05001
 30
0.0
 11
852.5
 21
271.381882
 31
0.0
  0
ARC
  5
38A
100
AcDbEntity
  8
001
100
AcDbCircle
 10
851.5
 20
271.381882
 30
0.0
 40
1.0
100
AcDbArc
 50
0.0
 51
90.0
  0
ARC
  5
38B
100
AcDbEntity
  8
001
100
AcDbCircle
 10
856.5
 20
264.05001
 30
0.0
 40
4.0
100
AcDbArc
 50
180.0
 51
270.0
  0
ARC
  5
38C
100
AcDbEntity
  8
001
100
AcDbCircle
 10
878.5
 20
264.05001
 30
0.0
 40
4.0
100
AcDbArc
 50
270.0
 51
0.0
  0
LINE
  5
38D
100
AcDbEntity
  8
001
100
AcDbLine
 10
837.487488
 20
482.624421
 30
0.0
 11
837.487488
 21
282.375579
 31
0.0
  0
LINE
  5
38E
100
AcDbEntity
  8
001
100
AcDbLine
 10
357.512512
 20
482.624421
 30
0.0
 11
357.512512
 21
282.375579
 31
0.0
  0
LINE
  5
38F
100
AcDbEntity
  8
001
100
AcDbLine
 10
324.033718
 20
489.799814
 30
0.0
 11
336.60018
 21
489.799814
 31
0.0
  0
LINE
  5
390
100
AcDbEntity
  8
001
100
AcDbLine
 10
343.5
 20
489.799814
 30
0.0
 11
350.5
 21
489.799814
 31
0.0
  0
LINE
  5
391
100
AcDbEntity
  8
001
100
AcDbLine
 10
312.5
 20
498.42185
 30
0.0
 11
312.5
 21
418.0
 31
0.0
  0
LINE
  5
392
100
AcDbEntity
  8
001
100
AcDbLine
 10
312.5
 20
355.0
 30
0.0
 11
312.5
 21
276.381882
 31
0.0
  0
LINE
  5
393
100
AcDbEntity
  8
001
100
AcDbLine
 10
326.5
 20
485.848336
 30
0.0
 11
326.5
 21
418.0
 31
0.0
  0
LINE
  5
394
100
AcDbEntity
  8
001
100
AcDbLine
 10
326.5
 20
355.0
 30
0.0
 11
326.5
 21
279.151664
 31
0.0
  0
LINE
  5
395
100
AcDbEntity
  8
001
100
AcDbLine
 10
882.5
 20
485.799814
 30
0.0
 11
882.5
 21
410.0
 31
0.0
  0
LINE
  5
396
100
AcDbEntity
  8
001
100
AcDbLine
 10
882.5
 20
347.0
 30
0.0
 11
882.5
 21
264.05001
 31
0.0
  0
LINE
  5
397
100
AcDbEntity
  8
001
100
AcDbLine
 10
868.5
 20
485.848336
 30
0.0
 11
868.5
 21
410.0
 31
0.0
  0
LINE
  5
398
100
AcDbEntity
  8
001
100
AcDbLine
 10
868.5
 20
347.0
 30
0.0
 11
868.5
 21
279.151664
 31
0.0
  0
LINE
  5
399
100
AcDbEntity
  8
001
100
AcDbLine
 10
611.5
 20
822.5
 30
0.0
 11
597.5
 21
797.5
 31
0.0
  0
LINE
  5
39A
100
AcDbEntity
  8
001
100
AcDbLine
 10
597.5
 20
797.5
 30
0.0
 11
611.072242
 21
773.263854
 31
0.0
  0
LINE
  5
39B
100
AcDbEntity
  8
001
  6
CENTER
100
AcDbLine
 10
586.25
 20
749.5
 30
0.0
 11
608.75
 21
749.5
 31
0.0
  0
CIRCLE
  5
39C
100
AcDbEntity
  8
001
100
AcDbCircle
 10
597.5
 20
749.5
 30
0.0
 40
5.0
  0
ARC
  5
39D
100
AcDbEntity
  8
001
100
AcDbCircle
 10
571.030151
 20
1333.539646
 30
0.0
 40
31.0
100
AcDbArc
 50
107.925887
 51
172.357547
  0
ARC
  5
39E
100
AcDbEntity
  8
001
100
AcDbCircle
 10
1076.5
 20
1265.714573
 30
0.0
 40
541.0
100
AcDbArc
 50
172.357572
 51
187.642432
  0
ARC
  5
39F
100
AcDbEntity
  8
001
100
AcDbCircle
 10
571.030151
 20
1197.8895
 30
0.0
 40
31.0
100
AcDbArc
 50
187.642509
 51
252.074113
  0
ARC
  5
3A0
100
AcDbEntity
  8
001
100
AcDbCircle
 10
623.969848
 20
1197.889439
 30
0.0
 40
31.0
100
AcDbArc
 50
287.926136
 51
352.357603
  0
ARC
  5
3A1
100
AcDbEntity
  8
001
100
AcDbCircle
 10
118.5
 20
1265.714573
 30
0.0
 40
541.0
100
AcDbArc
 50
352.357568
 51
7.642428
  0
ARC
  5
3A2
100
AcDbEntity
  8
001
100
AcDbCircle
 10
623.969848
 20
1333.539707
 30
0.0
 40
31.0
100
AcDbArc
 50
7.642342
 51
72.073864
  0
ARC
  5
3A3
100
AcDbEntity
  8
001
100
AcDbCircle
 10
637.0
 20
1334.70734
 30
0.0
 40
3.0
100
AcDbArc
 50
359.999417
 51
60.207116
  0
ARC
  5
3A4
100
AcDbEntity
  8
001
100
AcDbCircle
 10
558.0
 20
1334.707279
 30
0.0
 40
3.0
100
AcDbArc
 50
119.790281
 51
179.999417
  0
ARC
  5
3A5
100
AcDbEntity
  8
001
100
AcDbCircle
 10
597.5
 20
1265.714573
 30
0.0
 40
82.5
100
AcDbArc
 50
60.20781
 51
119.792116
  0
ARC
  5
3A6
100
AcDbEntity
  8
001
100
AcDbCircle
 10
558.0
 20
1196.721897
 30
0.0
 40
3.0
100
AcDbArc
 50
180.002331
 51
240.210008
  0
ARC
  5
3A7
100
AcDbEntity
  8
001
100
AcDbCircle
 10
637.0
 20
1196.721775
 30
0.0
 40
3.0
100
AcDbArc
 50
299.793173
 51
0.0
  0
ARC
  5
3A8
100
AcDbEntity
  8
001
100
AcDbCircle
 10
597.5
 20
1265.714573
 30
0.0
 40
82.5
100
AcDbArc
 50
240.207884
 51
299.79219
  0
LINE
  5
3A9
100
AcDbEntity
  8
001
100
AcDbLine
 10
640.0
 20
1221.555759
 30
0.0
 11
640.0
 21
1196.721775
 31
0.0
  0
LINE
  5
3AA
100
AcDbEntity
  8
001
100
AcDbLine
 10
555.0
 20
1221.555759
 30
0.0
 11
555.0
 21
1196.721775
 31
0.0
  0
LINE
  5
3AB
100
AcDbEntity
  8
001
100
AcDbLine
 10
555.0
 20
1334.70731
 30
0.0
 11
555.0
 21
1309.873386
 31
0.0
  0
ARC
  5
3AC
100
AcDbEntity
  8
001
100
AcDbCircle
 10
540.0
 20
1309.873264
 30
0.0
 40
15.0
100
AcDbArc
 50
322.476838
 51
0.000466
  0
ARC
  5
3AD
100
AcDbEntity
  8
001
100
AcDbCircle
 10
597.500122
 20
1265.714573
 30
0.0
 40
57.5
100
AcDbArc
 50
142.476559
 51
217.52349
  0
LINE
  5
3AE
100
AcDbEntity
  8
001
100
AcDbLine
 10
640.0
 20
1334.70731
 30
0.0
 11
640.0
 21
1309.873386
 31
0.0
  0
ARC
  5
3AF
100
AcDbEntity
  8
001
100
AcDbCircle
 10
655.0
 20
1309.873447
 30
0.0
 40
15.0
100
AcDbArc
 50
180.000233
 51
217.524001
  0
ARC
  5
3B0
100
AcDbEntity
  8
001
100
AcDbCircle
 10
597.5
 20
1265.714573
 30
0.0
 40
57.5
100
AcDbArc
 50
322.47651
 51
37.523441
  0
ARC
  5
3B1
100
AcDbEntity
  8
001
100
AcDbCircle
 10
655.0
 20
1221.555637
 30
0.0
 40
15.0
100
AcDbArc
 50
142.475999
 51
179.999534
  0
ARC
  5
3B2
100
AcDbEntity
  8
001
100
AcDbCircle
 10
540.0
 20
1221.555821
 30
0.0
 40
15.0
100
AcDbArc
 50
359.999767
 51
37.523162
  0
ARC
  5
3B3
100
AcDbEntity
  8
001
100
AcDbCircle
 10
597.5
 20
1265.714512
 30
0.0
 40
42.5
100
AcDbArc
 50
236.812877
 51
249.595569
  0
ARC
  5
3B4
100
AcDbEntity
  8
001
100
AcDbCircle
 10
597.499878
 20
1265.714451
 30
0.0
 40
42.5
100
AcDbArc
 50
290.404768
 51
303.187306
  0
ARC
  5
3B5
100
AcDbEntity
  8
001
100
AcDbCircle
 10
597.5
 20
1265.714573
 30
0.0
 40
65.0
100
AcDbArc
 50
230.006545
 51
310.832219
  0
LINE
  5
3B6
100
AcDbEntity
  8
001
100
AcDbLine
 10
568.244384
 20
1229.75742
 30
0.0
 11
555.692627
 21
1218.990513
 31
0.0
  0
ARC
  5
3B7
100
AcDbEntity
  8
001
100
AcDbCircle
 10
556.994873
 20
1217.472569
 30
0.0
 40
2.0
100
AcDbArc
 50
130.626329
 51
230.765093
  0
ARC
  5
3B8
100
AcDbEntity
  8
001
100
AcDbCircle
 10
571.499756
 20
1225.962376
 30
0.0
 40
5.0
100
AcDbArc
 50
56.813518
 51
130.622839
  0
LINE
  5
3B9
100
AcDbEntity
  8
001
100
AcDbLine
 10
626.755737
 20
1229.75742
 30
0.0
 11
639.307373
 21
1218.990513
 31
0.0
  0
ARC
  5
3BA
100
AcDbEntity
  8
001
100
AcDbCircle
 10
623.500366
 20
1225.962376
 30
0.0
 40
5.0
100
AcDbArc
 50
49.377161
 51
123.187653
  0
ARC
  5
3BB
100
AcDbEntity
  8
001
100
AcDbCircle
 10
638.005249
 20
1217.472508
 30
0.0
 40
2.0
100
AcDbArc
 50
309.236013
 51
49.377464
  0
ARC
  5
3BC
100
AcDbEntity
  8
001
100
AcDbCircle
 10
597.499878
 20
1265.714634
 30
0.0
 40
42.5
100
AcDbArc
 50
56.812694
 51
69.595232
  0
LINE
  5
3BD
100
AcDbEntity
  8
001
100
AcDbLine
 10
626.755737
 20
1301.671665
 30
0.0
 11
639.307373
 21
1312.438572
 31
0.0
  0
ARC
  5
3BE
100
AcDbEntity
  8
001
100
AcDbCircle
 10
623.500366
 20
1305.466709
 30
0.0
 40
5.0
100
AcDbArc
 50
236.812347
 51
310.622839
  0
ARC
  5
3BF
100
AcDbEntity
  8
001
100
AcDbCircle
 10
638.005249
 20
1313.956638
 30
0.0
 40
2.0
100
AcDbArc
 50
310.621398
 51
50.763987
  0
ARC
  5
3C0
100
AcDbEntity
  8
001
100
AcDbCircle
 10
597.5
 20
1265.714573
 30
0.0
 40
42.5
100
AcDbArc
 50
110.404431
 51
123.187123
  0
LINE
  5
3C1
100
AcDbEntity
  8
001
100
AcDbLine
 10
568.244384
 20
1301.671665
 30
0.0
 11
555.692627
 21
1312.438572
 31
0.0
  0
ARC
  5
3C2
100
AcDbEntity
  8
001
100
AcDbCircle
 10
571.499756
 20
1305.466709
 30
0.0
 40
5.0
100
AcDbArc
 50
229.377161
 51
303.186482
  0
ARC
  5
3C3
100
AcDbEntity
  8
001
100
AcDbCircle
 10
556.994873
 20
1313.956577
 30
0.0
 40
2.0
100
AcDbArc
 50
129.234907
 51
229.374809
  0
ARC
  5
3C4
100
AcDbEntity
  8
001
100
AcDbCircle
 10
597.5
 20
1265.714573
 30
0.0
 40
65.0
100
AcDbArc
 50
50.006393
 51
129.99349
  0
ARC
  5
3C5
100
AcDbEntity
  8
001
100
AcDbCircle
 10
603.420288
 20
1131.214573
 30
0.0
 40
3.0
100
AcDbArc
 50
270.0
 51
351.385889
  0
ARC
  5
3C6
100
AcDbEntity
  8
001
100
AcDbCircle
 10
591.579834
 20
1131.214573
 30
0.0
 40
3.0
100
AcDbArc
 50
188.614111
 51
270.0
  0
ARC
  5
3C7
100
AcDbEntity
  8
001
100
AcDbCircle
 10
575.700439
 20
1182.627293
 30
0.0
 40
5.0
100
AcDbArc
 50
8.614181
 51
29.368726
  0
ARC
  5
3C8
100
AcDbEntity
  8
001
100
AcDbCircle
 10
619.299682
 20
1182.627293
 30
0.0
 40
5.0
100
AcDbArc
 50
150.631274
 51
171.385819
  0
ARC
  5
3C9
100
AcDbEntity
  8
001
100
AcDbCircle
 10
597.500122
 20
1279.714573
 30
0.0
 40
117.0
100
AcDbArc
 50
276.798741
 51
287.925998
  0
ARC
  5
3CA
100
AcDbEntity
  8
001
100
AcDbCircle
 10
597.5
 20
1279.714573
 30
0.0
 40
117.0
100
AcDbArc
 50
252.074002
 51
263.201259
  0
LINE
  5
3CB
100
AcDbEntity
  8
001
100
AcDbLine
 10
603.420288
 20
1128.214573
 30
0.0
 11
591.579834
 21
1128.214573
 31
0.0
  0
LINE
  5
3CC
100
AcDbEntity
  8
001
100
AcDbLine
 10
588.599121
 20
1142.214573
 30
0.0
 11
606.401001
 21
1142.214573
 31
0.0
  0
LINE
  5
3CD
100
AcDbEntity
  8
001
100
AcDbLine
 10
580.644043
 20
1183.376194
 30
0.0
 11
588.613647
 21
1130.765232
 31
0.0
  0
LINE
  5
3CE
100
AcDbEntity
  8
001
100
AcDbLine
 10
614.356079
 20
1183.376194
 30
0.0
 11
606.386474
 21
1130.765232
 31
0.0
  0
ARC
  5
3CF
100
AcDbEntity
  8
001
100
AcDbCircle
 10
591.579834
 20
1400.214542
 30
0.0
 40
3.0
100
AcDbArc
 50
90.0
 51
171.385889
  0
LINE
  5
3D0
100
AcDbEntity
  8
001
100
AcDbLine
 10
603.420288
 20
1403.214542
 30
0.0
 11
591.579834
 21
1403.214542
 31
0.0
  0
LINE
  5
3D1
100
AcDbEntity
  8
001
100
AcDbLine
 10
588.599121
 20
1389.214542
 30
0.0
 11
606.401001
 21
1389.214542
 31
0.0
  0
LINE
  5
3D2
100
AcDbEntity
  8
001
100
AcDbLine
 10
580.644043
 20
1348.052921
 30
0.0
 11
588.613647
 21
1400.663883
 31
0.0
  0
ARC
  5
3D3
100
AcDbEntity
  8
001
100
AcDbCircle
 10
603.420288
 20
1400.214542
 30
0.0
 40
3.0
100
AcDbArc
 50
8.614111
 51
90.0
  0
LINE
  5
3D4
100
AcDbEntity
  8
001
100
AcDbLine
 10
614.356079
 20
1348.052921
 30
0.0
 11
606.386474
 21
1400.663883
 31
0.0
  0
ARC
  5
3D5
100
AcDbEntity
  8
001
100
AcDbCircle
 10
619.299682
 20
1348.801762
 30
0.0
 40
5.0
100
AcDbArc
 50
188.61349
 51
209.368421
  0
ARC
  5
3D6
100
AcDbEntity
  8
001
100
AcDbCircle
 10
575.700439
 20
1348.801762
 30
0.0
 40
5.0
100
AcDbArc
 50
330.631579
 51
351.38651
  0
ARC
  5
3D7
100
AcDbEntity
  8
001
100
AcDbCircle
 10
597.500122
 20
1251.714573
 30
0.0
 40
117.0
100
AcDbArc
 50
72.074002
 51
83.201259
  0
ARC
  5
3D8
100
AcDbEntity
  8
001
100
AcDbCircle
 10
597.5
 20
1251.714573
 30
0.0
 40
117.0
100
AcDbArc
 50
96.798741
 51
107.925998
  0
ARC
  5
3D9
100
AcDbEntity
  8
001
100
AcDbCircle
 10
597.500122
 20
1239.214573
 30
0.0
 40
4.5
100
AcDbArc
 50
0.0
 51
180.0
  0
ARC
  5
3DA
100
AcDbEntity
  8
001
100
AcDbCircle
 10
597.500122
 20
1239.214573
 30
0.0
 40
2.5
100
AcDbArc
 50
0.0
 51
180.0
  0
ARC
  5
3DB
100
AcDbEntity
  8
001
100
AcDbCircle
 10
593.500122
 20
1259.714573
 30
0.0
 40
3.0
100
AcDbArc
 50
180.0
 51
270.0
  0
LINE
  5
3DC
100
AcDbEntity
  8
001
100
AcDbLine
 10
593.500122
 20
1256.714573
 30
0.0
 11
601.500122
 21
1256.714573
 31
0.0
  0
ARC
  5
3DD
100
AcDbEntity
  8
001
100
AcDbCircle
 10
601.500122
 20
1259.714573
 30
0.0
 40
3.0
100
AcDbArc
 50
270.0
 51
0.0
  0
LINE
  5
3DE
100
AcDbEntity
  8
001
100
AcDbLine
 10
604.500122
 20
1261.214573
 30
0.0
 11
604.500122
 21
1259.714573
 31
0.0
  0
ARC
  5
3DF
100
AcDbEntity
  8
001
100
AcDbCircle
 10
601.500122
 20
1261.214573
 30
0.0
 40
3.0
100
AcDbArc
 50
0.0
 51
90.0
  0
ARC
  5
3E0
100
AcDbEntity
  8
001
100
AcDbCircle
 10
593.500122
 20
1270.214573
 30
0.0
 40
3.0
100
AcDbArc
 50
180.0
 51
270.0
  0
LINE
  5
3E1
100
AcDbEntity
  8
001
100
AcDbLine
 10
590.500122
 20
1271.714573
 30
0.0
 11
590.500122
 21
1270.214573
 31
0.0
  0
ARC
  5
3E2
100
AcDbEntity
  8
001
100
AcDbCircle
 10
593.500122
 20
1271.714573
 30
0.0
 40
3.0
100
AcDbArc
 50
90.0
 51
180.0
  0
LINE
  5
3E3
100
AcDbEntity
  8
001
100
AcDbLine
 10
593.500122
 20
1274.714573
 30
0.0
 11
601.500122
 21
1274.714573
 31
0.0
  0
ARC
  5
3E4
100
AcDbEntity
  8
001
100
AcDbCircle
 10
601.500122
 20
1271.714573
 30
0.0
 40
3.0
100
AcDbArc
 50
0.0
 51
90.0
  0
ARC
  5
3E5
100
AcDbEntity
  8
001
100
AcDbCircle
 10
601.500122
 20
1271.714573
 30
0.0
 40
6.0
100
AcDbArc
 50
0.0
 51
90.0
  0
LINE
  5
3E6
100
AcDbEntity
  8
001
100
AcDbLine
 10
593.500122
 20
1277.714573
 30
0.0
 11
601.500122
 21
1277.714573
 31
0.0
  0
ARC
  5
3E7
100
AcDbEntity
  8
001
100
AcDbCircle
 10
593.500122
 20
1271.714573
 30
0.0
 40
6.0
100
AcDbArc
 50
90.0
 51
180.0
  0
LINE
  5
3E8
100
AcDbEntity
  8
001
100
AcDbLine
 10
587.500122
 20
1271.714573
 30
0.0
 11
587.500122
 21
1270.214573
 31
0.0
  0
ARC
  5
3E9
100
AcDbEntity
  8
001
100
AcDbCircle
 10
593.500122
 20
1270.214573
 30
0.0
 40
6.0
100
AcDbArc
 50
180.0
 51
270.0
  0
LINE
  5
3EA
100
AcDbEntity
  8
001
100
AcDbLine
 10
593.500122
 20
1264.214573
 30
0.0
 11
601.500122
 21
1264.214573
 31
0.0
  0
LINE
  5
3EB
100
AcDbEntity
  8
001
100
AcDbLine
 10
593.500122
 20
1267.214573
 30
0.0
 11
601.500122
 21
1267.214573
 31
0.0
  0
ARC
  5
3EC
100
AcDbEntity
  8
001
100
AcDbCircle
 10
601.500122
 20
1261.214573
 30
0.0
 40
6.0
100
AcDbArc
 50
0.0
 51
90.0
  0
LINE
  5
3ED
100
AcDbEntity
  8
001
100
AcDbLine
 10
607.500122
 20
1261.214573
 30
0.0
 11
607.500122
 21
1259.714573
 31
0.0
  0
ARC
  5
3EE
100
AcDbEntity
  8
001
100
AcDbCircle
 10
601.500122
 20
1259.714573
 30
0.0
 40
6.0
100
AcDbArc
 50
270.0
 51
0.0
  0
LINE
  5
3EF
100
AcDbEntity
  8
001
100
AcDbLine
 10
593.500122
 20
1253.714573
 30
0.0
 11
601.500122
 21
1253.714573
 31
0.0
  0
ARC
  5
3F0
100
AcDbEntity
  8
001
100
AcDbCircle
 10
593.500122
 20
1259.714573
 30
0.0
 40
6.0
100
AcDbArc
 50
180.0
 51
270.0
  0
LINE
  5
3F1
100
AcDbEntity
  8
001
100
AcDbLine
 10
587.500122
 20
1259.714573
 30
0.0
 11
590.500122
 21
1259.714573
 31
0.0
  0
LINE
  5
3F2
100
AcDbEntity
  8
001
100
AcDbLine
 10
604.500122
 20
1271.714573
 30
0.0
 11
607.500122
 21
1271.714573
 31
0.0
  0
ARC
  5
3F3
100
AcDbEntity
  8
001
100
AcDbCircle
 10
597.500122
 20
1233.214573
 30
0.0
 40
4.5
100
AcDbArc
 50
180.0
 51
0.0
  0
LINE
  5
3F4
100
AcDbEntity
  8
001
100
AcDbLine
 10
593.000122
 20
1233.214573
 30
0.0
 11
593.000122
 21
1239.214573
 31
0.0
  0
LINE
  5
3F5
100
AcDbEntity
  8
001
100
AcDbLine
 10
602.000122
 20
1233.214573
 30
0.0
 11
602.000122
 21
1239.214573
 31
0.0
  0
LINE
  5
3F6
100
AcDbEntity
  8
001
100
AcDbLine
 10
595.000122
 20
1239.214573
 30
0.0
 11
595.000122
 21
1233.214573
 31
0.0
  0
ARC
  5
3F7
100
AcDbEntity
  8
001
100
AcDbCircle
 10
597.500122
 20
1233.214573
 30
0.0
 40
2.5
100
AcDbArc
 50
180.0
 51
0.0
  0
LINE
  5
3F8
100
AcDbEntity
  8
001
100
AcDbLine
 10
600.000122
 20
1233.214573
 30
0.0
 11
600.000122
 21
1239.214573
 31
0.0
  0
CIRCLE
  5
3F9
100
AcDbEntity
  8
001
100
AcDbCircle
 10
597.5
 20
1265.714512
 30
0.0
 40
40.0
  0
ARC
  5
3FA
100
AcDbEntity
  8
001
100
AcDbCircle
 10
597.5
 20
1265.714573
 30
0.0
 40
35.0
100
AcDbArc
 50
315.000071
 51
59.584294
  0
LINE
  5
3FB
100
AcDbEntity
  8
001
100
AcDbLine
 10
622.248779
 20
1240.965855
 30
0.0
 11
625.784301
 21
1237.430271
 31
0.0
  0
LINE
  5
3FC
100
AcDbEntity
  8
001
100
AcDbLine
 10
611.735107
 20
1289.862705
 30
0.0
 11
607.852783
 21
1304.351597
 31
0.0
  0
LINE
  5
3FD
100
AcDbEntity
  8
001
100
AcDbLine
 10
611.735107
 20
1289.862705
 30
0.0
 11
615.219482
 21
1295.897739
 31
0.0
  0
ARC
  5
3FE
100
AcDbEntity
  8
001
100
AcDbCircle
 10
597.500122
 20
1265.714573
 30
0.0
 40
35.0
100
AcDbArc
 50
105.000091
 51
209.584478
  0
LINE
  5
3FF
100
AcDbEntity
  8
001
100
AcDbLine
 10
588.441406
 20
1299.521946
 30
0.0
 11
587.147339
 21
1304.351597
 31
0.0
  0
LINE
  5
400
100
AcDbEntity
  8
001
100
AcDbLine
 10
573.098022
 20
1251.919163
 30
0.0
 11
569.21582
 21
1237.430271
 31
0.0
  0
LINE
  5
401
100
AcDbEntity
  8
001
100
AcDbLine
 10
573.098022
 20
1251.919163
 30
0.0
 11
567.06311
 21
1248.434849
 31
0.0
  0
ARC
  5
402
100
AcDbEntity
  8
001
100
AcDbCircle
 10
610.574218
 20
1230.567478
 30
0.0
 40
5.0
100
AcDbArc
 50
227.14837
 51
290.405096
  0
ARC
  5
403
100
AcDbEntity
  8
001
100
AcDbCircle
 10
584.425781
 20
1230.567478
 30
0.0
 40
5.0
100
AcDbArc
 50
249.596215
 51
312.85163
  0
ARC
  5
404
100
AcDbEntity
  8
001
100
AcDbCircle
 10
584.425903
 20
1300.861607
 30
0.0
 40
5.0
100
AcDbArc
 50
47.14837
 51
110.405096
  0
ARC
  5
405
100
AcDbEntity
  8
001
100
AcDbCircle
 10
610.57434
 20
1300.861607
 30
0.0
 40
5.0
100
AcDbArc
 50
69.596215
 51
132.853131
  0
LINE
  5
406
100
AcDbEntity
  8
001
100
AcDbLine
 10
611.5
 20
1246.714573
 30
0.0
 11
583.5
 21
1246.714573
 31
0.0
  0
LINE
  5
407
100
AcDbEntity
  8
001
100
AcDbLine
 10
583.5
 20
1284.714573
 30
0.0
 11
611.5
 21
1284.714573
 31
0.0
  0
LINE
  5
408
100
AcDbEntity
  8
001
100
AcDbLine
 10
578.5
 20
1279.714573
 30
0.0
 11
578.5
 21
1251.714573
 31
0.0
  0
LINE
  5
409
100
AcDbEntity
  8
001
100
AcDbLine
 10
616.5
 20
1279.714573
 30
0.0
 11
616.5
 21
1251.714573
 31
0.0
  0
LINE
  5
40A
100
AcDbEntity
  8
001
100
AcDbLine
 10
580.75
 20
1279.714573
 30
0.0
 11
580.75
 21
1251.714573
 31
0.0
  0
LINE
  5
40B
100
AcDbEntity
  8
001
100
AcDbLine
 10
614.25
 20
1279.714573
 30
0.0
 11
614.25
 21
1251.714573
 31
0.0
  0
LINE
  5
40C
100
AcDbEntity
  8
001
100
AcDbLine
 10
611.5
 20
1248.964573
 30
0.0
 11
583.5
 21
1248.964573
 31
0.0
  0
LINE
  5
40D
100
AcDbEntity
  8
001
100
AcDbLine
 10
583.5
 20
1282.464573
 30
0.0
 11
611.5
 21
1282.464573
 31
0.0
  0
LINE
  5
40E
100
AcDbEntity
  8
001
100
AcDbLine
 10
578.5
 20
1251.714573
 30
0.0
 11
583.5
 21
1246.714573
 31
0.0
  0
LINE
  5
40F
100
AcDbEntity
  8
001
100
AcDbLine
 10
611.5
 20
1246.714573
 30
0.0
 11
616.5
 21
1251.714573
 31
0.0
  0
LINE
  5
410
100
AcDbEntity
  8
001
100
AcDbLine
 10
616.5
 20
1279.714573
 30
0.0
 11
611.5
 21
1284.714573
 31
0.0
  0
LINE
  5
411
100
AcDbEntity
  8
001
100
AcDbLine
 10
583.5
 20
1284.714573
 30
0.0
 11
578.5
 21
1279.714573
 31
0.0
  0
LINE
  5
412
100
AcDbEntity
  8
001
100
AcDbLine
 10
580.75
 20
1251.714573
 30
0.0
 11
583.5
 21
1248.964573
 31
0.0
  0
LINE
  5
413
100
AcDbEntity
  8
001
100
AcDbLine
 10
611.5
 20
1248.964573
 30
0.0
 11
614.25
 21
1251.714573
 31
0.0
  0
LINE
  5
414
100
AcDbEntity
  8
001
100
AcDbLine
 10
614.25
 20
1279.714573
 30
0.0
 11
611.5
 21
1282.464573
 31
0.0
  0
LINE
  5
415
100
AcDbEntity
  8
001
100
AcDbLine
 10
583.5
 20
1282.464573
 30
0.0
 11
580.75
 21
1279.714573
 31
0.0
  0
LINE
  5
416
100
AcDbEntity
  8
001
100
AcDbLine
 10
578.5
 20
1251.714573
 30
0.0
 11
580.75
 21
1251.714573
 31
0.0
  0
LINE
  5
417
100
AcDbEntity
  8
001
100
AcDbLine
 10
578.5
 20
1279.714573
 30
0.0
 11
580.75
 21
1279.714573
 31
0.0
  0
LINE
  5
418
100
AcDbEntity
  8
001
100
AcDbLine
 10
583.5
 20
1284.714573
 30
0.0
 11
583.5
 21
1282.464573
 31
0.0
  0
LINE
  5
419
100
AcDbEntity
  8
001
100
AcDbLine
 10
583.5
 20
1246.714573
 30
0.0
 11
583.5
 21
1248.964573
 31
0.0
  0
LINE
  5
41A
100
AcDbEntity
  8
001
100
AcDbLine
 10
611.5
 20
1246.714573
 30
0.0
 11
611.5
 21
1248.964573
 31
0.0
  0
LINE
  5
41B
100
AcDbEntity
  8
001
100
AcDbLine
 10
611.5
 20
1284.714573
 30
0.0
 11
611.5
 21
1282.464573
 31
0.0
  0
LINE
  5
41C
100
AcDbEntity
  8
001
100
AcDbLine
 10
614.25
 20
1279.714573
 30
0.0
 11
616.5
 21
1279.714573
 31
0.0
  0
LINE
  5
41D
100
AcDbEntity
  8
001
100
AcDbLine
 10
614.25
 20
1251.714573
 30
0.0
 11
616.5
 21
1251.714573
 31
0.0
  0
LINE
  5
41E
100
AcDbEntity
  8
001
  6
CENTER
100
AcDbLine
 10
597.5
 20
1095.714573
 30
0.0
 11
597.5
 21
1435.714573
 31
0.0
  0
LINE
  5
41F
100
AcDbEntity
  8
001
  6
CENTER
100
AcDbLine
 10
227.5
 20
1265.714573
 30
0.0
 11
967.5
 21
1265.714573
 31
0.0
  0
ARC
  5
420
100
AcDbEntity
  8
001
100
AcDbCircle
 10
623.969836
 20
1333.539678
 30
0.0
 40
73.0
100
AcDbArc
 50
7.642431
 51
72.073977
  0
ARC
  5
421
100
AcDbEntity
  8
001
100
AcDbCircle
 10
118.5
 20
1265.714573
 30
0.0
 40
583.0
100
AcDbArc
 50
352.357569
 51
7.642431
  0
ARC
  5
422
100
AcDbEntity
  8
001
100
AcDbCircle
 10
597.5
 20
1251.714573
 30
0.0
 40
159.0
100
AcDbArc
 50
72.073977
 51
107.926023
  0
ARC
  5
423
100
AcDbEntity
  8
001
100
AcDbCircle
 10
571.030164
 20
1333.539678
 30
0.0
 40
73.0
100
AcDbArc
 50
107.926023
 51
172.357569
  0
ARC
  5
424
100
AcDbEntity
  8
001
100
AcDbCircle
 10
1076.5
 20
1265.714573
 30
0.0
 40
583.0
100
AcDbArc
 50
172.357569
 51
187.642431
  0
ARC
  5
425
100
AcDbEntity
  8
001
100
AcDbCircle
 10
623.969836
 20
1197.889468
 30
0.0
 40
73.0
100
AcDbArc
 50
287.926023
 51
352.357569
  0
ARC
  5
426
100
AcDbEntity
  8
001
100
AcDbCircle
 10
597.5
 20
1279.714573
 30
0.0
 40
159.0
100
AcDbArc
 50
252.073977
 51
287.926023
  0
ARC
  5
427
100
AcDbEntity
  8
001
100
AcDbCircle
 10
571.030164
 20
1197.889468
 30
0.0
 40
73.0
100
AcDbArc
 50
187.642431
 51
252.073977
  0
LINE
  5
428
100
AcDbEntity
  8
001
100
AcDbLine
 10
471.891896
 20
1361.573259
 30
0.0
 11
485.417913
 21
1350.927497
 31
0.0
  0
LINE
  5
429
100
AcDbEntity
  8
001
100
AcDbLine
 10
489.5
 20
1183.714573
 30
0.0
 11
489.5
 21
1347.714573
 31
0.0
  0
LINE
  5
42A
100
AcDbEntity
  8
001
100
AcDbLine
 10
388.660831
 20
1365.214573
 30
0.0
 11
461.377834
 21
1365.214573
 31
0.0
  0
ARC
  5
42B
100
AcDbEntity
  8
001
100
AcDbCircle
 10
494.695027
 20
1362.714573
 30
0.0
 40
15.0
100
AcDbArc
 50
231.795198
 51
270.0
  0
ARC
  5
42C
100
AcDbEntity
  8
001
100
AcDbCircle
 10
461.377834
 20
1348.214573
 30
0.0
 40
17.0
100
AcDbArc
 50
51.795198
 51
90.0
  0
LINE
  5
42D
100
AcDbEntity
  8
001
100
AcDbLine
 10
485.417913
 20
1180.501649
 30
0.0
 11
471.891896
 21
1169.855887
 31
0.0
  0
ARC
  5
42E
100
AcDbEntity
  8
001
100
AcDbCircle
 10
461.377834
 20
1183.214573
 30
0.0
 40
17.0
100
AcDbArc
 50
270.0
 51
308.204802
  0
ARC
  5
42F
100
AcDbEntity
  8
001
100
AcDbCircle
 10
494.695027
 20
1168.714573
 30
0.0
 40
15.0
100
AcDbArc
 50
90.0
 51
128.204802
  0
LINE
  5
430
100
AcDbEntity
  8
001
100
AcDbLine
 10
345.080723
 20
1374.120493
 30
0.0
 11
326.888
 21
1371.747639
 31
0.0
  0
LINE
  5
431
100
AcDbEntity
  8
001
100
AcDbLine
 10
359.627662
 20
1367.364573
 30
0.0
 11
381.5
 21
1367.364573
 31
0.0
  0
ARC
  5
432
100
AcDbEntity
  8
001
100
AcDbCircle
 10
381.5
 20
1357.364573
 30
0.0
 40
10.0
100
AcDbArc
 50
56.575811
 51
90.0
  0
ARC
  5
433
100
AcDbEntity
  8
001
100
AcDbCircle
 10
388.660831
 20
1368.214573
 30
0.0
 40
3.0
100
AcDbArc
 50
236.575811
 51
270.0
  0
LINE
  5
434
100
AcDbEntity
  8
001
100
AcDbLine
 10
323.5
 20
1385.714573
 30
0.0
 11
323.5
 21
1374.722442
 31
0.0
  0
ARC
  5
435
100
AcDbEntity
  8
001
100
AcDbCircle
 10
329.5
 20
1369.062909
 30
0.0
 40
3.0
100
AcDbArc
 50
97.43107
 51
180.0
  0
ARC
  5
436
100
AcDbEntity
  8
001
100
AcDbCircle
 10
326.5
 20
1374.722442
 30
0.0
 40
3.0
100
AcDbArc
 50
180.0
 51
277.43107
  0
LINE
  5
437
100
AcDbEntity
  8
001
100
AcDbLine
 10
315.5
 20
1359.214573
 30
0.0
 11
321.5
 21
1359.214573
 31
0.0
  0
ARC
  5
438
100
AcDbEntity
  8
001
100
AcDbCircle
 10
321.5
 20
1364.214573
 30
0.0
 40
5.0
100
AcDbArc
 50
270.0
 51
0.0
  0
ARC
  5
439
100
AcDbEntity
  8
001
100
AcDbCircle
 10
315.5
 20
1356.214573
 30
0.0
 40
3.0
100
AcDbArc
 50
90.0
 51
180.0
  0
ARC
  5
43A
100
AcDbEntity
  8
001
100
AcDbCircle
 10
346.50339
 20
1363.212881
 30
0.0
 40
11.0
100
AcDbArc
 50
34.888467
 51
97.43107
  0
ARC
  5
43B
100
AcDbEntity
  8
001
100
AcDbCircle
 10
359.627662
 20
1372.364573
 30
0.0
 40
5.0
100
AcDbArc
 50
214.888467
 51
270.0
  0
LINE
  5
43C
100
AcDbEntity
  8
001
100
AcDbLine
 10
340.476369
 20
1157.909193
 30
0.0
 11
326.888
 21
1159.681507
 31
0.0
  0
LINE
  5
43D
100
AcDbEntity
  8
001
100
AcDbLine
 10
359.627662
 20
1164.064573
 30
0.0
 11
381.5
 21
1164.064573
 31
0.0
  0
ARC
  5
43E
100
AcDbEntity
  8
001
100
AcDbCircle
 10
381.5
 20
1174.064573
 30
0.0
 40
10.0
100
AcDbArc
 50
270.0
 51
303.424189
  0
ARC
  5
43F
100
AcDbEntity
  8
001
100
AcDbCircle
 10
388.660831
 20
1163.214573
 30
0.0
 40
3.0
100
AcDbArc
 50
90.0
 51
123.424189
  0
ARC
  5
440
100
AcDbEntity
  8
001
100
AcDbCircle
 10
329.5
 20
1162.366237
 30
0.0
 40
3.0
100
AcDbArc
 50
180.0
 51
262.56893
  0
ARC
  5
441
100
AcDbEntity
  8
001
100
AcDbCircle
 10
326.5
 20
1156.706704
 30
0.0
 40
3.0
100
AcDbArc
 50
82.56893
 51
156.369942
  0
LINE
  5
442
100
AcDbEntity
  8
001
100
AcDbLine
 10
315.5
 20
1172.214573
 30
0.0
 11
321.5
 21
1172.214573
 31
0.0
  0
ARC
  5
443
100
AcDbEntity
  8
001
100
AcDbCircle
 10
321.5
 20
1167.214573
 30
0.0
 40
5.0
100
AcDbArc
 50
0.0
 51
90.0
  0
ARC
  5
444
100
AcDbEntity
  8
001
100
AcDbCircle
 10
315.5
 20
1175.214573
 30
0.0
 40
3.0
100
AcDbArc
 50
180.0
 51
270.0
  0
ARC
  5
445
100
AcDbEntity
  8
001
100
AcDbCircle
 10
346.50339
 20
1168.216265
 30
0.0
 40
11.0
100
AcDbArc
 50
290.445218
 51
325.111533
  0
ARC
  5
446
100
AcDbEntity
  8
001
100
AcDbCircle
 10
359.627662
 20
1159.064573
 30
0.0
 40
5.0
100
AcDbArc
 50
90.0
 51
145.111533
  0
LINE
  5
447
100
AcDbEntity
  8
001
100
AcDbLine
 10
299.5
 20
1367.714573
 30
0.0
 11
282.5
 21
1367.714573
 31
0.0
  0
LINE
  5
448
100
AcDbEntity
  8
001
100
AcDbLine
 10
255.715535
 20
1362.35768
 30
0.0
 11
282.5
 21
1367.714573
 31
0.0
  0
ARC
  5
449
100
AcDbEntity
  8
001
100
AcDbCircle
 10
295.5
 20
1361.714573
 30
0.0
 40
6.0
100
AcDbArc
 50
90.0
 51
180.0
  0
LINE
  5
44A
100
AcDbEntity
  8
001
100
AcDbLine
 10
303.5
 20
1396.214573
 30
0.0
 11
303.5
 21
1371.714573
 31
0.0
  0
ARC
  5
44B
100
AcDbEntity
  8
001
100
AcDbCircle
 10
256.5
 20
1358.435357
 30
0.0
 40
4.0
100
AcDbArc
 50
101.309932
 51
180.0
  0
LINE
  5
44C
100
AcDbEntity
  8
001
100
AcDbLine
 10
347.5
 20
1400.214573
 30
0.0
 11
307.5
 21
1400.214573
 31
0.0
  0
ARC
  5
44D
100
AcDbEntity
  8
001
100
AcDbCircle
 10
299.5
 20
1371.714573
 30
0.0
 40
4.0
100
AcDbArc
 50
270.0
 51
0.0
  0
ARC
  5
44E
100
AcDbEntity
  8
001
100
AcDbCircle
 10
307.5
 20
1396.214573
 30
0.0
 40
4.0
100
AcDbArc
 50
90.0
 51
180.0
  0
LINE
  5
44F
100
AcDbEntity
  8
001
100
AcDbLine
 10
351.5
 20
1374.519953
 30
0.0
 11
351.5
 21
1396.214573
 31
0.0
  0
LINE
  5
450
100
AcDbEntity
  8
001
100
AcDbLine
 10
342.5
 20
1384.164563
 30
0.0
 11
342.5
 21
1373.783893
 31
0.0
  0
LINE
  5
451
100
AcDbEntity
  8
001
100
AcDbLine
 10
301.5
 20
1240.214573
 30
0.0
 11
301.5
 21
1250.214573
 31
0.0
  0
LINE
  5
452
100
AcDbEntity
  8
001
100
AcDbLine
 10
301.5
 20
1250.214573
 30
0.0
 11
303.5
 21
1250.214573
 31
0.0
  0
LINE
  5
453
100
AcDbEntity
  8
001
100
AcDbLine
 10
303.5
 20
1240.214573
 30
0.0
 11
301.5
 21
1240.214573
 31
0.0
  0
LINE
  5
454
100
AcDbEntity
  8
001
100
AcDbLine
 10
363.5
 20
1248.214573
 30
0.0
 11
351.5
 21
1248.214573
 31
0.0
  0
LINE
  5
455
100
AcDbEntity
  8
001
100
AcDbLine
 10
363.5
 20
1242.214573
 30
0.0
 11
363.5
 21
1248.214573
 31
0.0
  0
LINE
  5
456
100
AcDbEntity
  8
001
100
AcDbLine
 10
363.5
 20
1242.214573
 30
0.0
 11
351.5
 21
1242.214573
 31
0.0
  0
LINE
  5
457
100
AcDbEntity
  8
001
100
AcDbLine
 10
254.119031
 20
1361.649543
 30
0.0
 11
305.119031
 21
1399.428758
 31
0.0
  0
LINE
  5
458
100
AcDbEntity
  8
001
100
AcDbLine
 10
351.5
 20
1232.714573
 30
0.0
 11
351.5
 21
1298.714573
 31
0.0
  0
LINE
  5
459
100
AcDbEntity
  8
001
100
AcDbLine
 10
289.5
 20
1306.714573
 30
0.0
 11
289.5
 21
1361.714573
 31
0.0
  0
LINE
  5
45A
100
AcDbEntity
  8
001
100
AcDbLine
 10
256.5
 20
1269.714573
 30
0.0
 11
305.119031
 21
1269.714573
 31
0.0
  0
LINE
  5
45B
100
AcDbEntity
  8
001
100
AcDbLine
 10
256.5
 20
1261.714573
 30
0.0
 11
305.119031
 21
1261.714573
 31
0.0
  0
ARC
  5
45C
100
AcDbEntity
  8
001
100
AcDbCircle
 10
299.5
 20
1273.714573
 30
0.0
 40
4.0
100
AcDbArc
 50
270.0
 51
0.0
  0
ARC
  5
45D
100
AcDbEntity
  8
001
100
AcDbCircle
 10
299.5
 20
1257.714573
 30
0.0
 40
4.0
100
AcDbArc
 50
0.0
 51
90.0
  0
LINE
  5
45E
100
AcDbEntity
  8
001
100
AcDbLine
 10
289.5
 20
1273.714573
 30
0.0
 11
289.5
 21
1302.714573
 31
0.0
  0
LINE
  5
45F
100
AcDbEntity
  8
001
100
AcDbLine
 10
289.5
 20
1257.714573
 30
0.0
 11
289.5
 21
1228.714573
 31
0.0
  0
ARC
  5
460
100
AcDbEntity
  8
001
100
AcDbCircle
 10
285.5
 20
1273.714573
 30
0.0
 40
4.0
100
AcDbArc
 50
270.0
 51
0.0
  0
ARC
  5
461
100
AcDbEntity
  8
001
100
AcDbCircle
 10
285.5
 20
1257.714573
 30
0.0
 40
4.0
100
AcDbArc
 50
0.0
 51
90.0
  0
ARC
  5
462
100
AcDbEntity
  8
001
100
AcDbCircle
 10
256.5
 20
1273.714573
 30
0.0
 40
4.0
100
AcDbArc
 50
180.0
 51
270.0
  0
ARC
  5
463
100
AcDbEntity
  8
001
100
AcDbCircle
 10
256.5
 20
1257.714573
 30
0.0
 40
4.0
100
AcDbArc
 50
90.0
 51
180.0
  0
LINE
  5
464
100
AcDbEntity
  8
001
100
AcDbLine
 10
303.5
 20
1232.714573
 30
0.0
 11
303.5
 21
1257.714573
 31
0.0
  0
LINE
  5
465
100
AcDbEntity
  8
001
100
AcDbLine
 10
303.5
 20
1298.714573
 30
0.0
 11
303.5
 21
1273.714573
 31
0.0
  0
LINE
  5
466
100
AcDbEntity
  8
001
100
AcDbLine
 10
303.5
 20
1159.714573
 30
0.0
 11
303.5
 21
1135.214573
 31
0.0
  0
LINE
  5
467
100
AcDbEntity
  8
001
100
AcDbLine
 10
351.5
 20
1156.909193
 30
0.0
 11
351.5
 21
1135.214573
 31
0.0
  0
LINE
  5
468
100
AcDbEntity
  8
001
100
AcDbLine
 10
307.5
 20
1131.214573
 30
0.0
 11
347.5
 21
1131.214573
 31
0.0
  0
LINE
  5
469
100
AcDbEntity
  8
001
100
AcDbLine
 10
289.5
 20
1224.714573
 30
0.0
 11
289.5
 21
1169.714573
 31
0.0
  0
LINE
  5
46A
100
AcDbEntity
  8
001
100
AcDbLine
 10
252.5
 20
1358.435357
 30
0.0
 11
252.5
 21
1172.993789
 31
0.0
  0
ARC
  5
46B
100
AcDbEntity
  8
001
100
AcDbCircle
 10
347.5
 20
1135.214573
 30
0.0
 40
4.0
100
AcDbArc
 50
270.0
 51
0.0
  0
ARC
  5
46C
100
AcDbEntity
  8
001
100
AcDbCircle
 10
307.5
 20
1135.214573
 30
0.0
 40
4.0
100
AcDbArc
 50
180.0
 51
270.0
  0
LINE
  5
46D
100
AcDbEntity
  8
001
100
AcDbLine
 10
299.5
 20
1163.714573
 30
0.0
 11
282.5
 21
1163.714573
 31
0.0
  0
LINE
  5
46E
100
AcDbEntity
  8
001
100
AcDbLine
 10
255.715535
 20
1169.071466
 30
0.0
 11
282.5
 21
1163.714573
 31
0.0
  0
ARC
  5
46F
100
AcDbEntity
  8
001
100
AcDbCircle
 10
256.5
 20
1172.993789
 30
0.0
 40
4.0
100
AcDbArc
 50
180.0
 51
258.690068
  0
ARC
  5
470
100
AcDbEntity
  8
001
100
AcDbCircle
 10
299.5
 20
1159.714573
 30
0.0
 40
4.0
100
AcDbArc
 50
0.0
 51
90.0
  0
ARC
  5
471
100
AcDbEntity
  8
001
100
AcDbCircle
 10
295.5
 20
1169.714573
 30
0.0
 40
6.0
100
AcDbArc
 50
180.0
 51
270.0
  0
LINE
  5
472
100
AcDbEntity
  8
001
100
AcDbLine
 10
282.304845
 20
1186.273351
 30
0.0
 11
282.304845
 21
1201.79954
 31
0.0
  0
POLYLINE
  5
473
100
AcDbEntity
  8
001
100
AcDb2dPolyline
 66
     1
 10
0.0
 20
0.0
 30
0.0
  0
VERTEX
  5
474
100
AcDbEntity
  8
001
100
AcDbVertex
100
AcDb2dVertex
 10
282.304845
 20
1201.79954
 30
0.0
  0
VERTEX
  5
475
100
AcDbEntity
  8
001
100
AcDbVertex
100
AcDb2dVertex
 10
282.288054
 20
1202.134363
 30
0.0
  0
VERTEX
  5
476
100
AcDbEntity
  8
001
100
AcDbVertex
100
AcDb2dVertex
 10
282.237808
 20
1202.466637
 30
0.0
  0
VERTEX
  5
477
100
AcDbEntity
  8
001
100
AcDbVertex
100
AcDb2dVertex
 10
282.154489
 20
1202.793834
 30
0.0
  0
VERTEX
  5
478
100
AcDbEntity
  8
001
100
AcDbVertex
100
AcDb2dVertex
 10
282.038732
 20
1203.113464
 30
0.0
  0
VERTEX
  5
479
100
AcDbEntity
  8
001
100
AcDbVertex
100
AcDb2dVertex
 10
281.891418
 20
1203.423095
 30
0.0
  0
VERTEX
  5
47A
100
AcDbEntity
  8
001
100
AcDbVertex
100
AcDb2dVertex
 10
281.713667
 20
1203.720369
 30
0.0
  0
VERTEX
  5
47B
100
AcDbEntity
  8
001
100
AcDbVertex
100
AcDb2dVertex
 10
281.506833
 20
1204.003024
 30
0.0
  0
VERTEX
  5
47C
100
AcDbEntity
  8
001
100
AcDbVertex
100
AcDb2dVertex
 10
281.27249
 20
1204.26891
 30
0.0
  0
VERTEX
  5
47D
100
AcDbEntity
  8
001
100
AcDbVertex
100
AcDb2dVertex
 10
281.012421
 20
1204.516002
 30
0.0
  0
VERTEX
  5
47E
100
AcDbEntity
  8
001
100
AcDbVertex
100
AcDb2dVertex
 10
280.728605
 20
1204.74242
 30
0.0
  0
VERTEX
  5
47F
100
AcDbEntity
  8
001
100
AcDbVertex
100
AcDb2dVertex
 10
280.423203
 20
1204.946441
 30
0.0
  0
VERTEX
  5
480
100
AcDbEntity
  8
001
100
AcDbVertex
100
AcDb2dVertex
 10
280.098539
 20
1205.126513
 30
0.0
  0
VERTEX
  5
481
100
AcDbEntity
  8
001
100
AcDbVertex
100
AcDb2dVertex
 10
279.757083
 20
1205.281264
 30
0.0
  0
VERTEX
  5
482
100
AcDbEntity
  8
001
100
AcDbVertex
100
AcDb2dVertex
 10
279.401435
 20
1205.409517
 30
0.0
  0
VERTEX
  5
483
100
AcDbEntity
  8
001
100
AcDbVertex
100
AcDb2dVertex
 10
279.034301
 20
1205.510296
 30
0.0
  0
VERTEX
  5
484
100
AcDbEntity
  8
001
100
AcDbVertex
100
AcDb2dVertex
 10
278.658474
 20
1205.582834
 30
0.0
  0
VERTEX
  5
485
100
AcDbEntity
  8
001
100
AcDbVertex
100
AcDb2dVertex
 10
278.276817
 20
1205.626578
 30
0.0
  0
VERTEX
  5
486
100
AcDbEntity
  8
001
100
AcDbVertex
100
AcDb2dVertex
 10
277.892232
 20
1205.641197
 30
0.0
  0
SEQEND
  5
487
100
AcDbEntity
  8
001
  0
LINE
  5
488
100
AcDbEntity
  8
001
100
AcDbLine
 10
273.087387
 20
1186.133815
 30
0.0
 11
273.087387
 21
1201.66012
 31
0.0
  0
LINE
  5
489
100
AcDbEntity
  8
001
100
AcDbLine
 10
281.912613
 20
1184.878141
 30
0.0
 11
281.912613
 21
1200.405458
 31
0.0
  0
POLYLINE
  5
48A
100
AcDbEntity
  8
001
100
AcDb2dPolyline
 66
     1
 10
0.0
 20
0.0
 30
0.0
  0
VERTEX
  5
48B
100
AcDbEntity
  8
001
100
AcDbVertex
100
AcDb2dVertex
 10
273.087387
 20
1186.133815
 30
0.0
  0
VERTEX
  5
48C
100
AcDbEntity
  8
001
100
AcDbVertex
100
AcDb2dVertex
 10
273.104178
 20
1185.857341
 30
0.0
  0
VERTEX
  5
48D
100
AcDbEntity
  8
001
100
AcDbVertex
100
AcDb2dVertex
 10
273.154424
 20
1185.582972
 30
0.0
  0
VERTEX
  5
48E
100
AcDbEntity
  8
001
100
AcDbVertex
100
AcDb2dVertex
 10
273.237743
 20
1185.312795
 30
0.0
  0
VERTEX
  5
48F
100
AcDbEntity
  8
001
100
AcDbVertex
100
AcDb2dVertex
 10
273.3535
 20
1185.048867
 30
0.0
  0
VERTEX
  5
490
100
AcDbEntity
  8
001
100
AcDbVertex
100
AcDb2dVertex
 10
273.500814
 20
1184.793196
 30
0.0
  0
VERTEX
  5
491
100
AcDbEntity
  8
001
100
AcDbVertex
100
AcDb2dVertex
 10
273.678565
 20
1184.547727
 30
0.0
  0
VERTEX
  5
492
100
AcDbEntity
  8
001
100
AcDbVertex
100
AcDb2dVertex
 10
273.885399
 20
1184.31433
 30
0.0
  0
VERTEX
  5
493
100
AcDbEntity
  8
001
100
AcDbVertex
100
AcDb2dVertex
 10
274.119742
 20
1184.09478
 30
0.0
  0
VERTEX
  5
494
100
AcDbEntity
  8
001
100
AcDbVertex
100
AcDb2dVertex
 10
274.379811
 20
1183.890748
 30
0.0
  0
VERTEX
  5
495
100
AcDbEntity
  8
001
100
AcDbVertex
100
AcDb2dVertex
 10
274.663627
 20
1183.703788
 30
0.0
  0
VERTEX
  5
496
100
AcDbEntity
  8
001
100
AcDbVertex
100
AcDb2dVertex
 10
274.969029
 20
1183.535321
 30
0.0
  0
VERTEX
  5
497
100
AcDbEntity
  8
001
100
AcDbVertex
100
AcDb2dVertex
 10
275.293693
 20
1183.386631
 30
0.0
  0
VERTEX
  5
498
100
AcDbEntity
  8
001
100
AcDbVertex
100
AcDb2dVertex
 10
275.635149
 20
1183.258848
 30
0.0
  0
VERTEX
  5
499
100
AcDbEntity
  8
001
100
AcDbVertex
100
AcDb2dVertex
 10
275.990797
 20
1183.152946
 30
0.0
  0
VERTEX
  5
49A
100
AcDbEntity
  8
001
100
AcDbVertex
100
AcDb2dVertex
 10
276.357932
 20
1183.069729
 30
0.0
  0
VERTEX
  5
49B
100
AcDbEntity
  8
001
100
AcDbVertex
100
AcDb2dVertex
 10
276.733758
 20
1183.009832
 30
0.0
  0
VERTEX
  5
49C
100
AcDbEntity
  8
001
100
AcDbVertex
100
AcDb2dVertex
 10
277.115415
 20
1182.973711
 30
0.0
  0
VERTEX
  5
49D
100
AcDbEntity
  8
001
100
AcDbVertex
100
AcDb2dVertex
 10
277.5
 20
1182.96164
 30
0.0
  0
SEQEND
  5
49E
100
AcDbEntity
  8
001
  0
POLYLINE
  5
49F
100
AcDbEntity
  8
001
100
AcDb2dPolyline
 66
     1
 10
0.0
 20
0.0
 30
0.0
  0
VERTEX
  5
4A0
100
AcDbEntity
  8
001
100
AcDbVertex
100
AcDb2dVertex
 10
281.912613
 20
1200.405458
 30
0.0
  0
VERTEX
  5
4A1
100
AcDbEntity
  8
001
100
AcDbVertex
100
AcDb2dVertex
 10
281.895822
 20
1200.73978
 30
0.0
  0
VERTEX
  5
4A2
100
AcDbEntity
  8
001
100
AcDbVertex
100
AcDb2dVertex
 10
281.845576
 20
1201.071558
 30
0.0
  0
VERTEX
  5
4A3
100
AcDbEntity
  8
001
100
AcDbVertex
100
AcDb2dVertex
 10
281.762257
 20
1201.398267
 30
0.0
  0
VERTEX
  5
4A4
100
AcDbEntity
  8
001
100
AcDbVertex
100
AcDb2dVertex
 10
281.6465
 20
1201.717419
 30
0.0
  0
VERTEX
  5
4A5
100
AcDbEntity
  8
001
100
AcDbVertex
100
AcDb2dVertex
 10
281.499186
 20
1202.026587
 30
0.0
  0
VERTEX
  5
4A6
100
AcDbEntity
  8
001
100
AcDbVertex
100
AcDb2dVertex
 10
281.321435
 20
1202.323417
 30
0.0
  0
VERTEX
  5
4A7
100
AcDbEntity
  8
001
100
AcDbVertex
100
AcDb2dVertex
 10
281.114601
 20
1202.60565
 30
0.0
  0
VERTEX
  5
4A8
100
AcDbEntity
  8
001
100
AcDbVertex
100
AcDb2dVertex
 10
280.880258
 20
1202.871139
 30
0.0
  0
VERTEX
  5
4A9
100
AcDbEntity
  8
001
100
AcDbVertex
100
AcDb2dVertex
 10
280.620189
 20
1203.117862
 30
0.0
  0
VERTEX
  5
4AA
100
AcDbEntity
  8
001
100
AcDbVertex
100
AcDb2dVertex
 10
280.336373
 20
1203.343942
 30
0.0
  0
VERTEX
  5
4AB
100
AcDbEntity
  8
001
100
AcDbVertex
100
AcDb2dVertex
 10
280.030971
 20
1203.547658
 30
0.0
  0
VERTEX
  5
4AC
100
AcDbEntity
  8
001
100
AcDbVertex
100
AcDb2dVertex
 10
279.706307
 20
1203.727461
 30
0.0
  0
VERTEX
  5
4AD
100
AcDbEntity
  8
001
100
AcDbVertex
100
AcDb2dVertex
 10
279.364851
 20
1203.881981
 30
0.0
  0
VERTEX
  5
4AE
100
AcDbEntity
  8
001
100
AcDbVertex
100
AcDb2dVertex
 10
279.009203
 20
1204.010042
 30
0.0
  0
VERTEX
  5
4AF
100
AcDbEntity
  8
001
100
AcDbVertex
100
AcDb2dVertex
 10
278.642068
 20
1204.110671
 30
0.0
  0
VERTEX
  5
4B0
100
AcDbEntity
  8
001
100
AcDbVertex
100
AcDb2dVertex
 10
278.266242
 20
1204.1831
 30
0.0
  0
VERTEX
  5
4B1
100
AcDbEntity
  8
001
100
AcDbVertex
100
AcDb2dVertex
 10
277.884585
 20
1204.22678
 30
0.0
  0
VERTEX
  5
4B2
100
AcDbEntity
  8
001
100
AcDbVertex
100
AcDb2dVertex
 10
277.5
 20
1204.241376
 30
0.0
  0
SEQEND
  5
4B3
100
AcDbEntity
  8
001
  0
POLYLINE
  5
4B4
100
AcDbEntity
  8
001
100
AcDb2dPolyline
 66
     1
 10
0.0
 20
0.0
 30
0.0
  0
VERTEX
  5
4B5
100
AcDbEntity
  8
001
100
AcDbVertex
100
AcDb2dVertex
 10
277.5
 20
1182.96164
 30
0.0
  0
VERTEX
  5
4B6
100
AcDbEntity
  8
001
100
AcDbVertex
100
AcDb2dVertex
 10
277.884585
 20
1182.968933
 30
0.0
  0
VERTEX
  5
4B7
100
AcDbEntity
  8
001
100
AcDbVertex
100
AcDb2dVertex
 10
278.266242
 20
1182.990756
 30
0.0
  0
VERTEX
  5
4B8
100
AcDbEntity
  8
001
100
AcDbVertex
100
AcDb2dVertex
 10
278.642068
 20
1183.026943
 30
0.0
  0
VERTEX
  5
4B9
100
AcDbEntity
  8
001
100
AcDbVertex
100
AcDb2dVertex
 10
279.009203
 20
1183.077219
 30
0.0
  0
VERTEX
  5
4BA
100
AcDbEntity
  8
001
100
AcDbVertex
100
AcDb2dVertex
 10
279.364851
 20
1183.141201
 30
0.0
  0
VERTEX
  5
4BB
100
AcDbEntity
  8
001
100
AcDbVertex
100
AcDb2dVertex
 10
279.706307
 20
1183.218402
 30
0.0
  0
VERTEX
  5
4BC
100
AcDbEntity
  8
001
100
AcDbVertex
100
AcDb2dVertex
 10
280.030971
 20
1183.308235
 30
0.0
  0
VERTEX
  5
4BD
100
AcDbEntity
  8
001
100
AcDbVertex
100
AcDb2dVertex
 10
280.336373
 20
1183.410016
 30
0.0
  0
VERTEX
  5
4BE
100
AcDbEntity
  8
001
100
AcDbVertex
100
AcDb2dVertex
 10
280.620189
 20
1183.52297
 30
0.0
  0
VERTEX
  5
4BF
100
AcDbEntity
  8
001
100
AcDbVertex
100
AcDb2dVertex
 10
280.880258
 20
1183.646238
 30
0.0
  0
VERTEX
  5
4C0
100
AcDbEntity
  8
001
100
AcDbVertex
100
AcDb2dVertex
 10
281.114601
 20
1183.778881
 30
0.0
  0
VERTEX
  5
4C1
100
AcDbEntity
  8
001
100
AcDbVertex
100
AcDb2dVertex
 10
281.321435
 20
1183.919891
 30
0.0
  0
VERTEX
  5
4C2
100
AcDbEntity
  8
001
100
AcDbVertex
100
AcDb2dVertex
 10
281.499186
 20
1184.068193
 30
0.0
  0
VERTEX
  5
4C3
100
AcDbEntity
  8
001
100
AcDbVertex
100
AcDb2dVertex
 10
281.6465
 20
1184.222659
 30
0.0
  0
VERTEX
  5
4C4
100
AcDbEntity
  8
001
100
AcDbVertex
100
AcDb2dVertex
 10
281.762257
 20
1184.382114
 30
0.0
  0
VERTEX
  5
4C5
100
AcDbEntity
  8
001
100
AcDbVertex
100
AcDb2dVertex
 10
281.845576
 20
1184.545344
 30
0.0
  0
VERTEX
  5
4C6
100
AcDbEntity
  8
001
100
AcDbVertex
100
AcDb2dVertex
 10
281.895822
 20
1184.711107
 30
0.0
  0
VERTEX
  5
4C7
100
AcDbEntity
  8
001
100
AcDbVertex
100
AcDb2dVertex
 10
281.912613
 20
1184.878141
 30
0.0
  0
SEQEND
  5
4C8
100
AcDbEntity
  8
001
  0
POLYLINE
  5
4C9
100
AcDbEntity
  8
001
100
AcDb2dPolyline
 66
     1
 10
0.0
 20
0.0
 30
0.0
  0
VERTEX
  5
4CA
100
AcDbEntity
  8
001
100
AcDbVertex
100
AcDb2dVertex
 10
282.272602
 20
1186.042974
 30
0.0
  0
VERTEX
  5
4CB
100
AcDbEntity
  8
001
100
AcDbVertex
100
AcDb2dVertex
 10
282.304845
 20
1186.273351
 30
0.0
  0
SEQEND
  5
4CC
100
AcDbEntity
  8
001
  0
LINE
  5
4CD
100
AcDbEntity
  8
001
100
AcDbLine
 10
281.880124
 20
1184.646006
 30
0.0
 11
282.272602
 21
1186.042974
 31
0.0
  0
POLYLINE
  5
4CE
100
AcDbEntity
  8
001
100
AcDb2dPolyline
 66
     1
 10
0.0
 20
0.0
 30
0.0
  0
VERTEX
  5
4CF
100
AcDbEntity
  8
001
100
AcDbVertex
100
AcDb2dVertex
 10
277.892232
 20
1205.641197
 30
0.0
  0
VERTEX
  5
4D0
100
AcDbEntity
  8
001
100
AcDbVertex
100
AcDb2dVertex
 10
277.504571
 20
1205.631195
 30
0.0
  0
VERTEX
  5
4D1
100
AcDbEntity
  8
001
100
AcDbVertex
100
AcDb2dVertex
 10
277.119907
 20
1205.601267
 30
0.0
  0
VERTEX
  5
4D2
100
AcDbEntity
  8
001
100
AcDbVertex
100
AcDb2dVertex
 10
276.741215
 20
1205.551644
 30
0.0
  0
VERTEX
  5
4D3
100
AcDbEntity
  8
001
100
AcDbVertex
100
AcDb2dVertex
 10
276.371425
 20
1205.48271
 30
0.0
  0
VERTEX
  5
4D4
100
AcDbEntity
  8
001
100
AcDbVertex
100
AcDb2dVertex
 10
276.013395
 20
1205.394998
 30
0.0
  0
VERTEX
  5
4D5
100
AcDbEntity
  8
001
100
AcDbVertex
100
AcDb2dVertex
 10
275.669894
 20
1205.289186
 30
0.0
  0
VERTEX
  5
4D6
100
AcDbEntity
  8
001
100
AcDbVertex
100
AcDb2dVertex
 10
275.343579
 20
1205.166093
 30
0.0
  0
VERTEX
  5
4D7
100
AcDbEntity
  8
001
100
AcDbVertex
100
AcDb2dVertex
 10
275.036973
 20
1205.02667
 30
0.0
  0
VERTEX
  5
4D8
100
AcDbEntity
  8
001
100
AcDbVertex
100
AcDb2dVertex
 10
274.752448
 20
1204.871996
 30
0.0
  0
VERTEX
  5
4D9
100
AcDbEntity
  8
001
100
AcDbVertex
100
AcDb2dVertex
 10
274.492202
 20
1204.703267
 30
0.0
  0
VERTEX
  5
4DA
100
AcDbEntity
  8
001
100
AcDbVertex
100
AcDb2dVertex
 10
274.258249
 20
1204.521786
 30
0.0
  0
VERTEX
  5
4DB
100
AcDbEntity
  8
001
100
AcDbVertex
100
AcDb2dVertex
 10
274.052398
 20
1204.328959
 30
0.0
  0
VERTEX
  5
4DC
100
AcDbEntity
  8
001
100
AcDbVertex
100
AcDb2dVertex
 10
273.876242
 20
1204.126276
 30
0.0
  0
VERTEX
  5
4DD
100
AcDbEntity
  8
001
100
AcDbVertex
100
AcDb2dVertex
 10
273.731141
 20
1203.915305
 30
0.0
  0
VERTEX
  5
4DE
100
AcDbEntity
  8
001
100
AcDbVertex
100
AcDb2dVertex
 10
273.618218
 20
1203.697676
 30
0.0
  0
VERTEX
  5
4DF
100
AcDbEntity
  8
001
100
AcDbVertex
100
AcDb2dVertex
 10
273.538347
 20
1203.475073
 30
0.0
  0
SEQEND
  5
4E0
100
AcDbEntity
  8
001
  0
POLYLINE
  5
4E1
100
AcDbEntity
  8
001
100
AcDb2dPolyline
 66
     1
 10
0.0
 20
0.0
 30
0.0
  0
VERTEX
  5
4E2
100
AcDbEntity
  8
001
100
AcDbVertex
100
AcDb2dVertex
 10
277.5
 20
1204.241376
 30
0.0
  0
VERTEX
  5
4E3
100
AcDbEntity
  8
001
100
AcDbVertex
100
AcDb2dVertex
 10
277.092855
 20
1204.230365
 30
0.0
  0
VERTEX
  5
4E4
100
AcDbEntity
  8
001
100
AcDbVertex
100
AcDb2dVertex
 10
276.689184
 20
1204.197426
 30
0.0
  0
VERTEX
  5
4E5
100
AcDbEntity
  8
001
100
AcDbVertex
100
AcDb2dVertex
 10
276.292431
 20
1204.142839
 30
0.0
  0
VERTEX
  5
4E6
100
AcDbEntity
  8
001
100
AcDbVertex
100
AcDb2dVertex
 10
275.90598
 20
1204.06707
 30
0.0
  0
VERTEX
  5
4E7
100
AcDbEntity
  8
001
100
AcDbVertex
100
AcDb2dVertex
 10
275.533129
 20
1203.970766
 30
0.0
  0
VERTEX
  5
4E8
100
AcDbEntity
  8
001
100
AcDbVertex
100
AcDb2dVertex
 10
275.177059
 20
1203.854749
 30
0.0
  0
VERTEX
  5
4E9
100
AcDbEntity
  8
001
100
AcDbVertex
100
AcDb2dVertex
 10
274.840807
 20
1203.720007
 30
0.0
  0
VERTEX
  5
4EA
100
AcDbEntity
  8
001
100
AcDbVertex
100
AcDb2dVertex
 10
274.527242
 20
1203.567692
 30
0.0
  0
VERTEX
  5
4EB
100
AcDbEntity
  8
001
100
AcDbVertex
100
AcDb2dVertex
 10
274.23904
 20
1203.399101
 30
0.0
  0
VERTEX
  5
4EC
100
AcDbEntity
  8
001
100
AcDbVertex
100
AcDb2dVertex
 10
273.978659
 20
1203.215675
 30
0.0
  0
VERTEX
  5
4ED
100
AcDbEntity
  8
001
100
AcDbVertex
100
AcDb2dVertex
 10
273.748321
 20
1203.018976
 30
0.0
  0
VERTEX
  5
4EE
100
AcDbEntity
  8
001
100
AcDbVertex
100
AcDb2dVertex
 10
273.549991
 20
1202.810685
 30
0.0
  0
VERTEX
  5
4EF
100
AcDbEntity
  8
001
100
AcDbVertex
100
AcDb2dVertex
 10
273.385361
 20
1202.592577
 30
0.0
  0
VERTEX
  5
4F0
100
AcDbEntity
  8
001
100
AcDbVertex
100
AcDb2dVertex
 10
273.255836
 20
1202.366514
 30
0.0
  0
VERTEX
  5
4F1
100
AcDbEntity
  8
001
100
AcDbVertex
100
AcDb2dVertex
 10
273.16252
 20
1202.134425
 30
0.0
  0
VERTEX
  5
4F2
100
AcDbEntity
  8
001
100
AcDbVertex
100
AcDb2dVertex
 10
273.10621
 20
1201.898288
 30
0.0
  0
VERTEX
  5
4F3
100
AcDbEntity
  8
001
100
AcDbVertex
100
AcDb2dVertex
 10
273.087387
 20
1201.66012
 30
0.0
  0
SEQEND
  5
4F4
100
AcDbEntity
  8
001
  0
LINE
  5
4F5
100
AcDbEntity
  8
001
100
AcDbLine
 10
273.538347
 20
1203.475073
 30
0.0
 11
273.145871
 21
1202.078983
 31
0.0
  0
LINE
  5
4F6
100
AcDbEntity
  8
001
100
AcDbLine
 10
312.5
 20
1384.164563
 30
0.0
 11
312.5
 21
1302.714573
 31
0.0
  0
LINE
  5
4F7
100
AcDbEntity
  8
001
100
AcDbLine
 10
312.5
 20
1161.909193
 30
0.0
 11
312.5
 21
1228.714573
 31
0.0
  0
LINE
  5
4F8
100
AcDbEntity
  8
001
100
AcDbLine
 10
326.5
 20
1369.062909
 30
0.0
 11
326.5
 21
1302.714573
 31
0.0
  0
LINE
  5
4F9
100
AcDbEntity
  8
001
100
AcDbLine
 10
326.5
 20
1228.714573
 30
0.0
 11
326.5
 21
1162.366237
 31
0.0
  0
LINE
  5
4FA
100
AcDbEntity
  8
001
  6
CENTER
100
AcDbLine
 10
295.25
 20
1245.214573
 30
0.0
 11
369.75
 21
1245.214573
 31
0.0
  0
LINE
  5
4FB
100
AcDbEntity
  8
001
100
AcDbLine
 10
494.695027
 20
1347.714573
 30
0.0
 11
499.419604
 21
1347.714573
 31
0.0
  0
LINE
  5
4FC
100
AcDbEntity
  8
001
100
AcDbLine
 10
499.419604
 20
1183.714573
 30
0.0
 11
494.695027
 21
1183.714573
 31
0.0
  0
LINE
  5
4FD
100
AcDbEntity
  8
001
100
AcDbLine
 10
293.5
 20
1302.714573
 30
0.0
 11
347.5
 21
1302.714573
 31
0.0
  0
LINE
  5
4FE
100
AcDbEntity
  8
001
100
AcDbLine
 10
293.5
 20
1228.714573
 30
0.0
 11
347.5
 21
1228.714573
 31
0.0
  0
ARC
  5
4FF
100
AcDbEntity
  8
001
100
AcDbCircle
 10
347.5
 20
1298.714573
 30
0.0
 40
4.0
100
AcDbArc
 50
0.0
 51
90.0
  0
ARC
  5
500
100
AcDbEntity
  8
001
100
AcDbCircle
 10
307.5
 20
1298.714573
 30
0.0
 40
4.0
100
AcDbArc
 50
90.0
 51
180.0
  0
ARC
  5
501
100
AcDbEntity
  8
001
100
AcDbCircle
 10
347.5
 20
1232.714573
 30
0.0
 40
4.0
100
AcDbArc
 50
270.0
 51
0.0
  0
ARC
  5
502
100
AcDbEntity
  8
001
100
AcDbCircle
 10
307.5
 20
1232.714573
 30
0.0
 40
4.0
100
AcDbArc
 50
180.0
 51
270.0
  0
ARC
  5
503
100
AcDbEntity
  8
001
100
AcDbCircle
 10
293.5
 20
1306.714573
 30
0.0
 40
4.0
100
AcDbArc
 50
180.0
 51
270.0
  0
ARC
  5
504
100
AcDbEntity
  8
001
100
AcDbCircle
 10
293.5
 20
1224.714573
 30
0.0
 40
4.0
100
AcDbArc
 50
90.0
 51
180.0
  0
LINE
  5
505
100
AcDbEntity
  8
001
100
AcDbLine
 10
357.512512
 20
1365.838994
 30
0.0
 11
357.512512
 21
1248.214573
 31
0.0
  0
LINE
  5
506
100
AcDbEntity
  8
001
100
AcDbLine
 10
357.512512
 20
1242.214573
 30
0.0
 11
357.512512
 21
1165.590152
 31
0.0
  0
LINE
  5
507
100
AcDbEntity
  8
001
100
AcDbLine
 10
307.5
 20
1397.373223
 30
0.0
 11
347.5
 21
1397.373223
 31
0.0
  0
LINE
  5
508
100
AcDbEntity
  8
001
100
AcDbLine
 10
316.5
 20
1388.164563
 30
0.0
 11
338.5
 21
1388.164563
 31
0.0
  0
LINE
  5
509
100
AcDbEntity
  8
001
100
AcDbLine
 10
343.5
 20
1375.832691
 30
0.0
 11
350.5
 21
1375.832691
 31
0.0
  0
ARC
  5
50A
100
AcDbEntity
  8
001
100
AcDbCircle
 10
350.5
 20
1376.832691
 30
0.0
 40
1.0
100
AcDbArc
 50
270.0
 51
0.0
  0
ARC
  5
50B
100
AcDbEntity
  8
001
100
AcDbCircle
 10
343.5
 20
1376.832691
 30
0.0
 40
1.0
100
AcDbArc
 50
180.0
 51
270.0
  0
ARC
  5
50C
100
AcDbEntity
  8
001
100
AcDbCircle
 10
338.5
 20
1384.164563
 30
0.0
 40
4.0
100
AcDbArc
 50
0.0
 51
90.0
  0
ARC
  5
50D
100
AcDbEntity
  8
001
100
AcDbCircle
 10
347.5
 20
1393.373223
 30
0.0
 40
4.0
100
AcDbArc
 50
0.0
 51
90.0
  0
ARC
  5
50E
100
AcDbEntity
  8
001
100
AcDbCircle
 10
347.5
 20
1396.214573
 30
0.0
 40
4.0
100
AcDbArc
 50
0.0
 51
90.0
  0
ARC
  5
50F
100
AcDbEntity
  8
001
100
AcDbCircle
 10
307.5
 20
1393.373223
 30
0.0
 40
4.0
100
AcDbArc
 50
90.0
 51
180.0
  0
ARC
  5
510
100
AcDbEntity
  8
001
100
AcDbCircle
 10
316.5
 20
1384.164563
 30
0.0
 40
4.0
100
AcDbArc
 50
90.0
 51
180.0
  0
ARC
  5
511
100
AcDbEntity
  8
001
100
AcDbCircle
 10
350.5
 20
1374.519953
 30
0.0
 40
1.0
100
AcDbArc
 50
270.0
 51
0.0
  0
LINE
  5
512
100
AcDbEntity
  8
001
100
AcDbLine
 10
350.5
 20
1373.519953
 30
0.0
 11
350.345818
 21
1373.519953
 31
0.0
  0
LINE
  5
513
100
AcDbEntity
  8
001
100
AcDbLine
 10
340.476369
 20
1373.519953
 30
0.0
 11
323.751542
 21
1373.519953
 31
0.0
  0
LINE
  5
514
100
AcDbEntity
  8
001
100
AcDbLine
 10
314.656789
 20
1387.714573
 30
0.0
 11
321.5
 21
1387.714573
 31
0.0
  0
ARC
  5
515
100
AcDbEntity
  8
001
100
AcDbCircle
 10
321.5
 20
1385.714573
 30
0.0
 40
2.0
100
AcDbArc
 50
0.0
 51
90.0
  0
LINE
  5
516
100
AcDbEntity
  8
001
100
AcDbLine
 10
254.119031
 20
1169.779603
 30
0.0
 11
305.119031
 21
1132.000388
 31
0.0
  0
LINE
  5
517
100
AcDbEntity
  8
001
100
AcDbLine
 10
254.119031
 20
286.56503
 30
0.0
 11
305.119031
 21
248.785815
 31
0.0
  0
LINE
  5
518
100
AcDbEntity
  8
001
100
AcDbLine
 10
940.880969
 20
286.56503
 30
0.0
 11
889.880969
 21
248.785815
 31
0.0
  0
LINE
  5
519
100
AcDbEntity
  8
001
100
AcDbLine
 10
293.5
 20
1363.937534
 30
0.0
 11
308.5
 21
1363.937534
 31
0.0
  0
ARC
  5
51A
100
AcDbEntity
  8
001
100
AcDbCircle
 10
308.5
 20
1367.937534
 30
0.0
 40
4.0
100
AcDbArc
 50
270.0
 51
0.0
  0
ARC
  5
51B
100
AcDbEntity
  8
001
100
AcDbCircle
 10
293.5
 20
1359.937534
 30
0.0
 40
4.0
100
AcDbArc
 50
90.0
 51
180.0
  0
LINE
  5
51C
100
AcDbEntity
  8
001
100
AcDbLine
 10
307.5
 20
1135.984083
 30
0.0
 11
347.5
 21
1135.984083
 31
0.0
  0
LINE
  5
51D
100
AcDbEntity
  8
001
100
AcDbLine
 10
316.5
 20
1157.909193
 30
0.0
 11
350.5
 21
1157.909193
 31
0.0
  0
ARC
  5
51E
100
AcDbEntity
  8
001
100
AcDbCircle
 10
347.5
 20
1139.984083
 30
0.0
 40
4.0
100
AcDbArc
 50
270.0
 51
0.0
  0
ARC
  5
51F
100
AcDbEntity
  8
001
100
AcDbCircle
 10
307.5
 20
1139.984083
 30
0.0
 40
4.0
100
AcDbArc
 50
180.0
 51
270.0
  0
ARC
  5
520
100
AcDbEntity
  8
001
100
AcDbCircle
 10
350.5
 20
1156.909193
 30
0.0
 40
1.0
100
AcDbArc
 50
0.0
 51
90.0
  0
ARC
  5
521
100
AcDbEntity
  8
001
100
AcDbCircle
 10
316.5
 20
1161.909193
 30
0.0
 40
4.0
100
AcDbArc
 50
180.0
 51
270.0
  0
LINE
  5
522
100
AcDbEntity
  8
001
100
AcDbLine
 10
308.5
 20
1170.091616
 30
0.0
 11
293.5
 21
1170.091616
 31
0.0
  0
ARC
  5
523
100
AcDbEntity
  8
001
100
AcDbCircle
 10
293.5
 20
1174.091616
 30
0.0
 40
4.0
100
AcDbArc
 50
180.0
 51
270.0
  0
ARC
  5
524
100
AcDbEntity
  8
001
100
AcDbCircle
 10
308.5
 20
1166.091616
 30
0.0
 40
4.0
100
AcDbArc
 50
0.0
 51
90.0
  0
LINE
  5
525
100
AcDbEntity
  8
001
100
AcDbLine
 10
388.660831
 20
1166.214573
 30
0.0
 11
461.377834
 21
1166.214573
 31
0.0
  0
LINE
  5
526
100
AcDbEntity
  8
001
100
AcDbLine
 10
467.265409
 20
286.641314
 30
0.0
 11
467.265409
 21
478.358686
 31
0.0
  0
LINE
  5
527
100
AcDbEntity
  8
001
100
AcDbLine
 10
727.734591
 20
286.641314
 30
0.0
 11
727.734591
 21
478.358686
 31
0.0
  0
LINE
  5
528
100
AcDbEntity
  8
001
100
AcDbLine
 10
467.265409
 20
1169.855887
 30
0.0
 11
467.265409
 21
1361.573259
 31
0.0
  0
LINE
  5
529
100
AcDbEntity
  8
001
  6
CENTER
100
AcDbLine
 10
407.5
 20
1361.964573
 30
0.0
 11
407.5
 21
1399.464573
 31
0.0
  0
LINE
  5
52A
100
AcDbEntity
  8
001
100
AcDbLine
 10
386.759491
 20
1365.214571
 30
0.0
 11
386.759491
 21
1166.214575
 31
0.0
  0
LINE
  5
52B
100
AcDbEntity
  8
001
  6
CENTER
100
AcDbLine
 10
426.25
 20
1380.714573
 30
0.0
 11
388.75
 21
1380.714573
 31
0.0
  0
LINE
  5
52C
100
AcDbEntity
  8
001
100
AcDbLine
 10
431.65778
 20
1387.148986
 30
0.0
 11
437.5
 21
1365.214573
 31
0.0
  0
LINE
  5
52D
100
AcDbEntity
  8
001
100
AcDbLine
 10
383.520523
 20
1387.784558
 30
0.0
 11
377.5
 21
1367.364573
 31
0.0
  0
ARC
  5
52E
100
AcDbEntity
  8
001
100
AcDbCircle
 10
407.5
 20
1380.714573
 30
0.0
 40
25.0
100
AcDbArc
 50
14.91445
 51
163.572646
  0
CIRCLE
  5
52F
100
AcDbEntity
  8
001
100
AcDbCircle
 10
407.5
 20
1380.714573
 30
0.0
 40
12.5
  0
LINE
  5
530
100
AcDbEntity
  8
001
  6
CENTER
100
AcDbLine
 10
407.5
 20
1169.464573
 30
0.0
 11
407.5
 21
1131.964573
 31
0.0
  0
LINE
  5
531
100
AcDbEntity
  8
001
  6
CENTER
100
AcDbLine
 10
426.25
 20
1150.714573
 30
0.0
 11
388.75
 21
1150.714573
 31
0.0
  0
LINE
  5
532
100
AcDbEntity
  8
001
100
AcDbLine
 10
431.65778
 20
1144.28016
 30
0.0
 11
437.5
 21
1166.214573
 31
0.0
  0
LINE
  5
533
100
AcDbEntity
  8
001
100
AcDbLine
 10
383.520523
 20
1143.644588
 30
0.0
 11
377.5
 21
1164.064573
 31
0.0
  0
ARC
  5
534
100
AcDbEntity
  8
001
100
AcDbCircle
 10
407.5
 20
1150.714573
 30
0.0
 40
25.0
100
AcDbArc
 50
196.427354
 51
345.08555
  0
CIRCLE
  5
535
100
AcDbEntity
  8
001
100
AcDbCircle
 10
407.5
 20
1150.714573
 30
0.0
 40
12.5
  0
LINE
  5
536
100
AcDbEntity
  8
001
100
AcDbLine
 10
723.108104
 20
1169.855887
 30
0.0
 11
709.582087
 21
1180.501649
 31
0.0
  0
LINE
  5
537
100
AcDbEntity
  8
001
100
AcDbLine
 10
705.5
 20
1347.714573
 30
0.0
 11
705.5
 21
1183.714573
 31
0.0
  0
LINE
  5
538
100
AcDbEntity
  8
001
100
AcDbLine
 10
806.339169
 20
1166.214573
 30
0.0
 11
733.622166
 21
1166.214573
 31
0.0
  0
ARC
  5
539
100
AcDbEntity
  8
001
100
AcDbCircle
 10
700.304973
 20
1168.714573
 30
0.0
 40
15.0
100
AcDbArc
 50
51.795198
 51
90.0
  0
ARC
  5
53A
100
AcDbEntity
  8
001
100
AcDbCircle
 10
733.622166
 20
1183.214573
 30
0.0
 40
17.0
100
AcDbArc
 50
231.795198
 51
270.0
  0
LINE
  5
53B
100
AcDbEntity
  8
001
100
AcDbLine
 10
709.582087
 20
1350.927497
 30
0.0
 11
723.108104
 21
1361.573259
 31
0.0
  0
ARC
  5
53C
100
AcDbEntity
  8
001
100
AcDbCircle
 10
733.622166
 20
1348.214573
 30
0.0
 40
17.0
100
AcDbArc
 50
90.0
 51
128.204802
  0
ARC
  5
53D
100
AcDbEntity
  8
001
100
AcDbCircle
 10
700.304973
 20
1362.714573
 30
0.0
 40
15.0
100
AcDbArc
 50
270.0
 51
308.204802
  0
LINE
  5
53E
100
AcDbEntity
  8
001
100
AcDbLine
 10
849.919277
 20
1157.308653
 30
0.0
 11
868.112
 21
1159.681507
 31
0.0
  0
LINE
  5
53F
100
AcDbEntity
  8
001
100
AcDbLine
 10
835.372338
 20
1164.064573
 30
0.0
 11
813.5
 21
1164.064573
 31
0.0
  0
ARC
  5
540
100
AcDbEntity
  8
001
100
AcDbCircle
 10
813.5
 20
1174.064573
 30
0.0
 40
10.0
100
AcDbArc
 50
236.575811
 51
270.0
  0
ARC
  5
541
100
AcDbEntity
  8
001
100
AcDbCircle
 10
806.339169
 20
1163.214573
 30
0.0
 40
3.0
100
AcDbArc
 50
56.575811
 51
90.0
  0
LINE
  5
542
100
AcDbEntity
  8
001
100
AcDbLine
 10
871.5
 20
1145.714573
 30
0.0
 11
871.5
 21
1156.706704
 31
0.0
  0
ARC
  5
543
100
AcDbEntity
  8
001
100
AcDbCircle
 10
865.5
 20
1162.366237
 30
0.0
 40
3.0
100
AcDbArc
 50
277.43107
 51
0.0
  0
ARC
  5
544
100
AcDbEntity
  8
001
100
AcDbCircle
 10
868.5
 20
1156.706704
 30
0.0
 40
3.0
100
AcDbArc
 50
0.0
 51
97.43107
  0
LINE
  5
545
100
AcDbEntity
  8
001
100
AcDbLine
 10
879.5
 20
1172.214573
 30
0.0
 11
873.5
 21
1172.214573
 31
0.0
  0
ARC
  5
546
100
AcDbEntity
  8
001
100
AcDbCircle
 10
873.5
 20
1167.214573
 30
0.0
 40
5.0
100
AcDbArc
 50
90.0
 51
180.0
  0
ARC
  5
547
100
AcDbEntity
  8
001
100
AcDbCircle
 10
879.5
 20
1175.214573
 30
0.0
 40
3.0
100
AcDbArc
 50
270.0
 51
0.0
  0
ARC
  5
548
100
AcDbEntity
  8
001
100
AcDbCircle
 10
848.49661
 20
1168.216265
 30
0.0
 40
11.0
100
AcDbArc
 50
214.888467
 51
277.43107
  0
ARC
  5
549
100
AcDbEntity
  8
001
100
AcDbCircle
 10
835.372338
 20
1159.064573
 30
0.0
 40
5.0
100
AcDbArc
 50
34.888467
 51
90.0
  0
LINE
  5
54A
100
AcDbEntity
  8
001
100
AcDbLine
 10
854.523631
 20
1373.519953
 30
0.0
 11
868.112
 21
1371.747639
 31
0.0
  0
LINE
  5
54B
100
AcDbEntity
  8
001
100
AcDbLine
 10
835.372338
 20
1367.364573
 30
0.0
 11
813.5
 21
1367.364573
 31
0.0
  0
ARC
  5
54C
100
AcDbEntity
  8
001
100
AcDbCircle
 10
813.5
 20
1357.364573
 30
0.0
 40
10.0
100
AcDbArc
 50
90.0
 51
123.424189
  0
ARC
  5
54D
100
AcDbEntity
  8
001
100
AcDbCircle
 10
806.339169
 20
1368.214573
 30
0.0
 40
3.0
100
AcDbArc
 50
270.0
 51
303.424189
  0
ARC
  5
54E
100
AcDbEntity
  8
001
100
AcDbCircle
 10
865.5
 20
1369.062909
 30
0.0
 40
3.0
100
AcDbArc
 50
0.0
 51
82.56893
  0
ARC
  5
54F
100
AcDbEntity
  8
001
100
AcDbCircle
 10
868.5
 20
1374.722442
 30
0.0
 40
3.0
100
AcDbArc
 50
262.56893
 51
336.369942
  0
LINE
  5
550
100
AcDbEntity
  8
001
100
AcDbLine
 10
879.5
 20
1359.214573
 30
0.0
 11
873.5
 21
1359.214573
 31
0.0
  0
ARC
  5
551
100
AcDbEntity
  8
001
100
AcDbCircle
 10
873.5
 20
1364.214573
 30
0.0
 40
5.0
100
AcDbArc
 50
180.0
 51
270.0
  0
ARC
  5
552
100
AcDbEntity
  8
001
100
AcDbCircle
 10
879.5
 20
1356.214573
 30
0.0
 40
3.0
100
AcDbArc
 50
0.0
 51
90.0
  0
ARC
  5
553
100
AcDbEntity
  8
001
100
AcDbCircle
 10
848.49661
 20
1363.212881
 30
0.0
 40
11.0
100
AcDbArc
 50
110.445218
 51
145.111533
  0
ARC
  5
554
100
AcDbEntity
  8
001
100
AcDbCircle
 10
835.372338
 20
1372.364573
 30
0.0
 40
5.0
100
AcDbArc
 50
270.0
 51
325.111533
  0
LINE
  5
555
100
AcDbEntity
  8
001
100
AcDbLine
 10
895.5
 20
1163.714573
 30
0.0
 11
912.5
 21
1163.714573
 31
0.0
  0
LINE
  5
556
100
AcDbEntity
  8
001
100
AcDbLine
 10
939.284465
 20
1169.071466
 30
0.0
 11
912.5
 21
1163.714573
 31
0.0
  0
ARC
  5
557
100
AcDbEntity
  8
001
100
AcDbCircle
 10
899.5
 20
1169.714573
 30
0.0
 40
6.0
100
AcDbArc
 50
270.0
 51
0.0
  0
LINE
  5
558
100
AcDbEntity
  8
001
100
AcDbLine
 10
891.5
 20
1135.214573
 30
0.0
 11
891.5
 21
1159.714573
 31
0.0
  0
ARC
  5
559
100
AcDbEntity
  8
001
100
AcDbCircle
 10
938.5
 20
1172.993789
 30
0.0
 40
4.0
100
AcDbArc
 50
281.309932
 51
0.0
  0
LINE
  5
55A
100
AcDbEntity
  8
001
100
AcDbLine
 10
847.5
 20
1131.214573
 30
0.0
 11
887.5
 21
1131.214573
 31
0.0
  0
ARC
  5
55B
100
AcDbEntity
  8
001
100
AcDbCircle
 10
895.5
 20
1159.714573
 30
0.0
 40
4.0
100
AcDbArc
 50
90.0
 51
180.0
  0
ARC
  5
55C
100
AcDbEntity
  8
001
100
AcDbCircle
 10
887.5
 20
1135.214573
 30
0.0
 40
4.0
100
AcDbArc
 50
270.0
 51
0.0
  0
LINE
  5
55D
100
AcDbEntity
  8
001
100
AcDbLine
 10
843.5
 20
1156.909193
 30
0.0
 11
843.5
 21
1135.214573
 31
0.0
  0
LINE
  5
55E
100
AcDbEntity
  8
001
100
AcDbLine
 10
852.5
 20
1147.264583
 30
0.0
 11
852.5
 21
1157.645253
 31
0.0
  0
LINE
  5
55F
100
AcDbEntity
  8
001
100
AcDbLine
 10
893.5
 20
1291.214573
 30
0.0
 11
893.5
 21
1281.214573
 31
0.0
  0
LINE
  5
560
100
AcDbEntity
  8
001
100
AcDbLine
 10
893.5
 20
1281.214573
 30
0.0
 11
891.5
 21
1281.214573
 31
0.0
  0
LINE
  5
561
100
AcDbEntity
  8
001
100
AcDbLine
 10
891.5
 20
1291.214573
 30
0.0
 11
893.5
 21
1291.214573
 31
0.0
  0
LINE
  5
562
100
AcDbEntity
  8
001
100
AcDbLine
 10
831.5
 20
1283.214573
 30
0.0
 11
843.5
 21
1283.214573
 31
0.0
  0
LINE
  5
563
100
AcDbEntity
  8
001
100
AcDbLine
 10
831.5
 20
1289.214573
 30
0.0
 11
831.5
 21
1283.214573
 31
0.0
  0
LINE
  5
564
100
AcDbEntity
  8
001
100
AcDbLine
 10
831.5
 20
1289.214573
 30
0.0
 11
843.5
 21
1289.214573
 31
0.0
  0
LINE
  5
565
100
AcDbEntity
  8
001
100
AcDbLine
 10
940.880969
 20
1169.779603
 30
0.0
 11
889.880969
 21
1132.000388
 31
0.0
  0
LINE
  5
566
100
AcDbEntity
  8
001
100
AcDbLine
 10
843.5
 20
1298.714573
 30
0.0
 11
843.5
 21
1232.714573
 31
0.0
  0
LINE
  5
567
100
AcDbEntity
  8
001
100
AcDbLine
 10
905.5
 20
1224.714573
 30
0.0
 11
905.5
 21
1169.714573
 31
0.0
  0
LINE
  5
568
100
AcDbEntity
  8
001
100
AcDbLine
 10
938.5
 20
1261.714573
 30
0.0
 11
889.880969
 21
1261.714573
 31
0.0
  0
LINE
  5
569
100
AcDbEntity
  8
001
100
AcDbLine
 10
938.5
 20
1269.714573
 30
0.0
 11
889.880969
 21
1269.714573
 31
0.0
  0
ARC
  5
56A
100
AcDbEntity
  8
001
100
AcDbCircle
 10
895.5
 20
1257.714573
 30
0.0
 40
4.0
100
AcDbArc
 50
90.0
 51
180.0
  0
ARC
  5
56B
100
AcDbEntity
  8
001
100
AcDbCircle
 10
895.5
 20
1273.714573
 30
0.0
 40
4.0
100
AcDbArc
 50
180.0
 51
270.0
  0
LINE
  5
56C
100
AcDbEntity
  8
001
100
AcDbLine
 10
905.5
 20
1257.714573
 30
0.0
 11
905.5
 21
1228.714573
 31
0.0
  0
LINE
  5
56D
100
AcDbEntity
  8
001
100
AcDbLine
 10
905.5
 20
1273.714573
 30
0.0
 11
905.5
 21
1302.714573
 31
0.0
  0
ARC
  5
56E
100
AcDbEntity
  8
001
100
AcDbCircle
 10
909.5
 20
1257.714573
 30
0.0
 40
4.0
100
AcDbArc
 50
90.0
 51
180.0
  0
ARC
  5
56F
100
AcDbEntity
  8
001
100
AcDbCircle
 10
909.5
 20
1273.714573
 30
0.0
 40
4.0
100
AcDbArc
 50
180.0
 51
270.0
  0
ARC
  5
570
100
AcDbEntity
  8
001
100
AcDbCircle
 10
938.5
 20
1257.714573
 30
0.0
 40
4.0
100
AcDbArc
 50
0.0
 51
90.0
  0
ARC
  5
571
100
AcDbEntity
  8
001
100
AcDbCircle
 10
938.5
 20
1273.714573
 30
0.0
 40
4.0
100
AcDbArc
 50
270.0
 51
0.0
  0
LINE
  5
572
100
AcDbEntity
  8
001
100
AcDbLine
 10
891.5
 20
1298.714573
 30
0.0
 11
891.5
 21
1273.714573
 31
0.0
  0
LINE
  5
573
100
AcDbEntity
  8
001
100
AcDbLine
 10
891.5
 20
1232.714573
 30
0.0
 11
891.5
 21
1257.714573
 31
0.0
  0
LINE
  5
574
100
AcDbEntity
  8
001
100
AcDbLine
 10
891.5
 20
1371.714573
 30
0.0
 11
891.5
 21
1396.214573
 31
0.0
  0
LINE
  5
575
100
AcDbEntity
  8
001
100
AcDbLine
 10
843.5
 20
1374.519953
 30
0.0
 11
843.5
 21
1396.214573
 31
0.0
  0
LINE
  5
576
100
AcDbEntity
  8
001
100
AcDbLine
 10
887.5
 20
1400.214573
 30
0.0
 11
847.5
 21
1400.214573
 31
0.0
  0
LINE
  5
577
100
AcDbEntity
  8
001
100
AcDbLine
 10
905.5
 20
1306.714573
 30
0.0
 11
905.5
 21
1361.714573
 31
0.0
  0
LINE
  5
578
100
AcDbEntity
  8
001
100
AcDbLine
 10
942.5
 20
1172.993789
 30
0.0
 11
942.5
 21
1358.435357
 31
0.0
  0
ARC
  5
579
100
AcDbEntity
  8
001
100
AcDbCircle
 10
847.5
 20
1396.214573
 30
0.0
 40
4.0
100
AcDbArc
 50
90.0
 51
180.0
  0
ARC
  5
57A
100
AcDbEntity
  8
001
100
AcDbCircle
 10
887.5
 20
1396.214573
 30
0.0
 40
4.0
100
AcDbArc
 50
0.0
 51
90.0
  0
LINE
  5
57B
100
AcDbEntity
  8
001
100
AcDbLine
 10
895.5
 20
1367.714573
 30
0.0
 11
912.5
 21
1367.714573
 31
0.0
  0
LINE
  5
57C
100
AcDbEntity
  8
001
100
AcDbLine
 10
939.284465
 20
1362.35768
 30
0.0
 11
912.5
 21
1367.714573
 31
0.0
  0
ARC
  5
57D
100
AcDbEntity
  8
001
100
AcDbCircle
 10
938.5
 20
1358.435357
 30
0.0
 40
4.0
100
AcDbArc
 50
0.0
 51
78.690068
  0
ARC
  5
57E
100
AcDbEntity
  8
001
100
AcDbCircle
 10
895.5
 20
1371.714573
 30
0.0
 40
4.0
100
AcDbArc
 50
180.0
 51
270.0
  0
ARC
  5
57F
100
AcDbEntity
  8
001
100
AcDbCircle
 10
899.5
 20
1361.714573
 30
0.0
 40
6.0
100
AcDbArc
 50
0.0
 51
90.0
  0
LINE
  5
580
100
AcDbEntity
  8
001
100
AcDbLine
 10
912.695155
 20
1345.155795
 30
0.0
 11
912.695155
 21
1329.629606
 31
0.0
  0
POLYLINE
  5
581
100
AcDbEntity
  8
001
100
AcDb2dPolyline
 66
     1
 10
0.0
 20
0.0
 30
0.0
  0
VERTEX
  5
582
100
AcDbEntity
  8
001
100
AcDbVertex
100
AcDb2dVertex
 10
912.695155
 20
1329.629606
 30
0.0
  0
VERTEX
  5
583
100
AcDbEntity
  8
001
100
AcDbVertex
100
AcDb2dVertex
 10
912.711946
 20
1329.294783
 30
0.0
  0
VERTEX
  5
584
100
AcDbEntity
  8
001
100
AcDbVertex
100
AcDb2dVertex
 10
912.762192
 20
1328.962509
 30
0.0
  0
VERTEX
  5
585
100
AcDbEntity
  8
001
100
AcDbVertex
100
AcDb2dVertex
 10
912.845511
 20
1328.635312
 30
0.0
  0
VERTEX
  5
586
100
AcDbEntity
  8
001
100
AcDbVertex
100
AcDb2dVertex
 10
912.961268
 20
1328.315682
 30
0.0
  0
VERTEX
  5
587
100
AcDbEntity
  8
001
100
AcDbVertex
100
AcDb2dVertex
 10
913.108582
 20
1328.006051
 30
0.0
  0
VERTEX
  5
588
100
AcDbEntity
  8
001
100
AcDbVertex
100
AcDb2dVertex
 10
913.286333
 20
1327.708777
 30
0.0
  0
VERTEX
  5
589
100
AcDbEntity
  8
001
100
AcDbVertex
100
AcDb2dVertex
 10
913.493167
 20
1327.426122
 30
0.0
  0
VERTEX
  5
58A
100
AcDbEntity
  8
001
100
AcDbVertex
100
AcDb2dVertex
 10
913.72751
 20
1327.160236
 30
0.0
  0
VERTEX
  5
58B
100
AcDbEntity
  8
001
100
AcDbVertex
100
AcDb2dVertex
 10
913.987579
 20
1326.913144
 30
0.0
  0
VERTEX
  5
58C
100
AcDbEntity
  8
001
100
AcDbVertex
100
AcDb2dVertex
 10
914.271395
 20
1326.686726
 30
0.0
  0
VERTEX
  5
58D
100
AcDbEntity
  8
001
100
AcDbVertex
100
AcDb2dVertex
 10
914.576797
 20
1326.482705
 30
0.0
  0
VERTEX
  5
58E
100
AcDbEntity
  8
001
100
AcDbVertex
100
AcDb2dVertex
 10
914.901461
 20
1326.302633
 30
0.0
  0
VERTEX
  5
58F
100
AcDbEntity
  8
001
100
AcDbVertex
100
AcDb2dVertex
 10
915.242917
 20
1326.147882
 30
0.0
  0
VERTEX
  5
590
100
AcDbEntity
  8
001
100
AcDbVertex
100
AcDb2dVertex
 10
915.598565
 20
1326.019629
 30
0.0
  0
VERTEX
  5
591
100
AcDbEntity
  8
001
100
AcDbVertex
100
AcDb2dVertex
 10
915.965699
 20
1325.91885
 30
0.0
  0
VERTEX
  5
592
100
AcDbEntity
  8
001
100
AcDbVertex
100
AcDb2dVertex
 10
916.341526
 20
1325.846312
 30
0.0
  0
VERTEX
  5
593
100
AcDbEntity
  8
001
100
AcDbVertex
100
AcDb2dVertex
 10
916.723183
 20
1325.802568
 30
0.0
  0
VERTEX
  5
594
100
AcDbEntity
  8
001
100
AcDbVertex
100
AcDb2dVertex
 10
917.107768
 20
1325.787949
 30
0.0
  0
SEQEND
  5
595
100
AcDbEntity
  8
001
  0
LINE
  5
596
100
AcDbEntity
  8
001
100
AcDbLine
 10
921.912613
 20
1345.295331
 30
0.0
 11
921.912613
 21
1329.769026
 31
0.0
  0
LINE
  5
597
100
AcDbEntity
  8
001
100
AcDbLine
 10
913.087387
 20
1346.551005
 30
0.0
 11
913.087387
 21
1331.023688
 31
0.0
  0
POLYLINE
  5
598
100
AcDbEntity
  8
001
100
AcDb2dPolyline
 66
     1
 10
0.0
 20
0.0
 30
0.0
  0
VERTEX
  5
599
100
AcDbEntity
  8
001
100
AcDbVertex
100
AcDb2dVertex
 10
921.912613
 20
1345.295331
 30
0.0
  0
VERTEX
  5
59A
100
AcDbEntity
  8
001
100
AcDbVertex
100
AcDb2dVertex
 10
921.895822
 20
1345.571805
 30
0.0
  0
VERTEX
  5
59B
100
AcDbEntity
  8
001
100
AcDbVertex
100
AcDb2dVertex
 10
921.845576
 20
1345.846174
 30
0.0
  0
VERTEX
  5
59C
100
AcDbEntity
  8
001
100
AcDbVertex
100
AcDb2dVertex
 10
921.762257
 20
1346.116351
 30
0.0
  0
VERTEX
  5
59D
100
AcDbEntity
  8
001
100
AcDbVertex
100
AcDb2dVertex
 10
921.6465
 20
1346.380279
 30
0.0
  0
VERTEX
  5
59E
100
AcDbEntity
  8
001
100
AcDbVertex
100
AcDb2dVertex
 10
921.499186
 20
1346.63595
 30
0.0
  0
VERTEX
  5
59F
100
AcDbEntity
  8
001
100
AcDbVertex
100
AcDb2dVertex
 10
921.321435
 20
1346.881419
 30
0.0
  0
VERTEX
  5
5A0
100
AcDbEntity
  8
001
100
AcDbVertex
100
AcDb2dVertex
 10
921.114601
 20
1347.114816
 30
0.0
  0
VERTEX
  5
5A1
100
AcDbEntity
  8
001
100
AcDbVertex
100
AcDb2dVertex
 10
920.880258
 20
1347.334366
 30
0.0
  0
VERTEX
  5
5A2
100
AcDbEntity
  8
001
100
AcDbVertex
100
AcDb2dVertex
 10
920.620189
 20
1347.538398
 30
0.0
  0
VERTEX
  5
5A3
100
AcDbEntity
  8
001
100
AcDbVertex
100
AcDb2dVertex
 10
920.336373
 20
1347.725358
 30
0.0
  0
VERTEX
  5
5A4
100
AcDbEntity
  8
001
100
AcDbVertex
100
AcDb2dVertex
 10
920.030971
 20
1347.893825
 30
0.0
  0
VERTEX
  5
5A5
100
AcDbEntity
  8
001
100
AcDbVertex
100
AcDb2dVertex
 10
919.706307
 20
1348.042515
 30
0.0
  0
VERTEX
  5
5A6
100
AcDbEntity
  8
001
100
AcDbVertex
100
AcDb2dVertex
 10
919.364851
 20
1348.170298
 30
0.0
  0
VERTEX
  5
5A7
100
AcDbEntity
  8
001
100
AcDbVertex
100
AcDb2dVertex
 10
919.009203
 20
1348.2762
 30
0.0
  0
VERTEX
  5
5A8
100
AcDbEntity
  8
001
100
AcDbVertex
100
AcDb2dVertex
 10
918.642068
 20
1348.359417
 30
0.0
  0
VERTEX
  5
5A9
100
AcDbEntity
  8
001
100
AcDbVertex
100
AcDb2dVertex
 10
918.266242
 20
1348.419314
 30
0.0
  0
VERTEX
  5
5AA
100
AcDbEntity
  8
001
100
AcDbVertex
100
AcDb2dVertex
 10
917.884585
 20
1348.455435
 30
0.0
  0
VERTEX
  5
5AB
100
AcDbEntity
  8
001
100
AcDbVertex
100
AcDb2dVertex
 10
917.5
 20
1348.467506
 30
0.0
  0
SEQEND
  5
5AC
100
AcDbEntity
  8
001
  0
POLYLINE
  5
5AD
100
AcDbEntity
  8
001
100
AcDb2dPolyline
 66
     1
 10
0.0
 20
0.0
 30
0.0
  0
VERTEX
  5
5AE
100
AcDbEntity
  8
001
100
AcDbVertex
100
AcDb2dVertex
 10
913.087387
 20
1331.023688
 30
0.0
  0
VERTEX
  5
5AF
100
AcDbEntity
  8
001
100
AcDbVertex
100
AcDb2dVertex
 10
913.104178
 20
1330.689366
 30
0.0
  0
VERTEX
  5
5B0
100
AcDbEntity
  8
001
100
AcDbVertex
100
AcDb2dVertex
 10
913.154424
 20
1330.357588
 30
0.0
  0
VERTEX
  5
5B1
100
AcDbEntity
  8
001
100
AcDbVertex
100
AcDb2dVertex
 10
913.237743
 20
1330.030879
 30
0.0
  0
VERTEX
  5
5B2
100
AcDbEntity
  8
001
100
AcDbVertex
100
AcDb2dVertex
 10
913.3535
 20
1329.711727
 30
0.0
  0
VERTEX
  5
5B3
100
AcDbEntity
  8
001
100
AcDbVertex
100
AcDb2dVertex
 10
913.500814
 20
1329.402559
 30
0.0
  0
VERTEX
  5
5B4
100
AcDbEntity
  8
001
100
AcDbVertex
100
AcDb2dVertex
 10
913.678565
 20
1329.105729
 30
0.0
  0
VERTEX
  5
5B5
100
AcDbEntity
  8
001
100
AcDbVertex
100
AcDb2dVertex
 10
913.885399
 20
1328.823496
 30
0.0
  0
VERTEX
  5
5B6
100
AcDbEntity
  8
001
100
AcDbVertex
100
AcDb2dVertex
 10
914.119742
 20
1328.558007
 30
0.0
  0
VERTEX
  5
5B7
100
AcDbEntity
  8
001
100
AcDbVertex
100
AcDb2dVertex
 10
914.379811
 20
1328.311284
 30
0.0
  0
VERTEX
  5
5B8
100
AcDbEntity
  8
001
100
AcDbVertex
100
AcDb2dVertex
 10
914.663627
 20
1328.085204
 30
0.0
  0
VERTEX
  5
5B9
100
AcDbEntity
  8
001
100
AcDbVertex
100
AcDb2dVertex
 10
914.969029
 20
1327.881488
 30
0.0
  0
VERTEX
  5
5BA
100
AcDbEntity
  8
001
100
AcDbVertex
100
AcDb2dVertex
 10
915.293693
 20
1327.701685
 30
0.0
  0
VERTEX
  5
5BB
100
AcDbEntity
  8
001
100
AcDbVertex
100
AcDb2dVertex
 10
915.635149
 20
1327.547165
 30
0.0
  0
VERTEX
  5
5BC
100
AcDbEntity
  8
001
100
AcDbVertex
100
AcDb2dVertex
 10
915.990797
 20
1327.419104
 30
0.0
  0
VERTEX
  5
5BD
100
AcDbEntity
  8
001
100
AcDbVertex
100
AcDb2dVertex
 10
916.357932
 20
1327.318475
 30
0.0
  0
VERTEX
  5
5BE
100
AcDbEntity
  8
001
100
AcDbVertex
100
AcDb2dVertex
 10
916.733758
 20
1327.246046
 30
0.0
  0
VERTEX
  5
5BF
100
AcDbEntity
  8
001
100
AcDbVertex
100
AcDb2dVertex
 10
917.115415
 20
1327.202366
 30
0.0
  0
VERTEX
  5
5C0
100
AcDbEntity
  8
001
100
AcDbVertex
100
AcDb2dVertex
 10
917.5
 20
1327.18777
 30
0.0
  0
SEQEND
  5
5C1
100
AcDbEntity
  8
001
  0
POLYLINE
  5
5C2
100
AcDbEntity
  8
001
100
AcDb2dPolyline
 66
     1
 10
0.0
 20
0.0
 30
0.0
  0
VERTEX
  5
5C3
100
AcDbEntity
  8
001
100
AcDbVertex
100
AcDb2dVertex
 10
917.5
 20
1348.467506
 30
0.0
  0
VERTEX
  5
5C4
100
AcDbEntity
  8
001
100
AcDbVertex
100
AcDb2dVertex
 10
917.115415
 20
1348.460213
 30
0.0
  0
VERTEX
  5
5C5
100
AcDbEntity
  8
001
100
AcDbVertex
100
AcDb2dVertex
 10
916.733758
 20
1348.43839
 30
0.0
  0
VERTEX
  5
5C6
100
AcDbEntity
  8
001
100
AcDbVertex
100
AcDb2dVertex
 10
916.357932
 20
1348.402203
 30
0.0
  0
VERTEX
  5
5C7
100
AcDbEntity
  8
001
100
AcDbVertex
100
AcDb2dVertex
 10
915.990797
 20
1348.351927
 30
0.0
  0
VERTEX
  5
5C8
100
AcDbEntity
  8
001
100
AcDbVertex
100
AcDb2dVertex
 10
915.635149
 20
1348.287945
 30
0.0
  0
VERTEX
  5
5C9
100
AcDbEntity
  8
001
100
AcDbVertex
100
AcDb2dVertex
 10
915.293693
 20
1348.210744
 30
0.0
  0
VERTEX
  5
5CA
100
AcDbEntity
  8
001
100
AcDbVertex
100
AcDb2dVertex
 10
914.969029
 20
1348.120911
 30
0.0
  0
VERTEX
  5
5CB
100
AcDbEntity
  8
001
100
AcDbVertex
100
AcDb2dVertex
 10
914.663627
 20
1348.01913
 30
0.0
  0
VERTEX
  5
5CC
100
AcDbEntity
  8
001
100
AcDbVertex
100
AcDb2dVertex
 10
914.379811
 20
1347.906176
 30
0.0
  0
VERTEX
  5
5CD
100
AcDbEntity
  8
001
100
AcDbVertex
100
AcDb2dVertex
 10
914.119742
 20
1347.782908
 30
0.0
  0
VERTEX
  5
5CE
100
AcDbEntity
  8
001
100
AcDbVertex
100
AcDb2dVertex
 10
913.885399
 20
1347.650265
 30
0.0
  0
VERTEX
  5
5CF
100
AcDbEntity
  8
001
100
AcDbVertex
100
AcDb2dVertex
 10
913.678565
 20
1347.509255
 30
0.0
  0
VERTEX
  5
5D0
100
AcDbEntity
  8
001
100
AcDbVertex
100
AcDb2dVertex
 10
913.500814
 20
1347.360953
 30
0.0
  0
VERTEX
  5
5D1
100
AcDbEntity
  8
001
100
AcDbVertex
100
AcDb2dVertex
 10
913.3535
 20
1347.206487
 30
0.0
  0
VERTEX
  5
5D2
100
AcDbEntity
  8
001
100
AcDbVertex
100
AcDb2dVertex
 10
913.237743
 20
1347.047032
 30
0.0
  0
VERTEX
  5
5D3
100
AcDbEntity
  8
001
100
AcDbVertex
100
AcDb2dVertex
 10
913.154424
 20
1346.883802
 30
0.0
  0
VERTEX
  5
5D4
100
AcDbEntity
  8
001
100
AcDbVertex
100
AcDb2dVertex
 10
913.104178
 20
1346.718039
 30
0.0
  0
VERTEX
  5
5D5
100
AcDbEntity
  8
001
100
AcDbVertex
100
AcDb2dVertex
 10
913.087387
 20
1346.551005
 30
0.0
  0
SEQEND
  5
5D6
100
AcDbEntity
  8
001
  0
POLYLINE
  5
5D7
100
AcDbEntity
  8
001
100
AcDb2dPolyline
 66
     1
 10
0.0
 20
0.0
 30
0.0
  0
VERTEX
  5
5D8
100
AcDbEntity
  8
001
100
AcDbVertex
100
AcDb2dVertex
 10
912.727398
 20
1345.386172
 30
0.0
  0
VERTEX
  5
5D9
100
AcDbEntity
  8
001
100
AcDbVertex
100
AcDb2dVertex
 10
912.695155
 20
1345.155795
 30
0.0
  0
SEQEND
  5
5DA
100
AcDbEntity
  8
001
  0
LINE
  5
5DB
100
AcDbEntity
  8
001
100
AcDbLine
 10
913.119876
 20
1346.78314
 30
0.0
 11
912.727398
 21
1345.386172
 31
0.0
  0
POLYLINE
  5
5DC
100
AcDbEntity
  8
001
100
AcDb2dPolyline
 66
     1
 10
0.0
 20
0.0
 30
0.0
  0
VERTEX
  5
5DD
100
AcDbEntity
  8
001
100
AcDbVertex
100
AcDb2dVertex
 10
917.107768
 20
1325.787949
 30
0.0
  0
VERTEX
  5
5DE
100
AcDbEntity
  8
001
100
AcDbVertex
100
AcDb2dVertex
 10
917.495429
 20
1325.797951
 30
0.0
  0
VERTEX
  5
5DF
100
AcDbEntity
  8
001
100
AcDbVertex
100
AcDb2dVertex
 10
917.880093
 20
1325.827879
 30
0.0
  0
VERTEX
  5
5E0
100
AcDbEntity
  8
001
100
AcDbVertex
100
AcDb2dVertex
 10
918.258785
 20
1325.877502
 30
0.0
  0
VERTEX
  5
5E1
100
AcDbEntity
  8
001
100
AcDbVertex
100
AcDb2dVertex
 10
918.628575
 20
1325.946436
 30
0.0
  0
VERTEX
  5
5E2
100
AcDbEntity
  8
001
100
AcDbVertex
100
AcDb2dVertex
 10
918.986605
 20
1326.034148
 30
0.0
  0
VERTEX
  5
5E3
100
AcDbEntity
  8
001
100
AcDbVertex
100
AcDb2dVertex
 10
919.330106
 20
1326.13996
 30
0.0
  0
VERTEX
  5
5E4
100
AcDbEntity
  8
001
100
AcDbVertex
100
AcDb2dVertex
 10
919.656421
 20
1326.263053
 30
0.0
  0
VERTEX
  5
5E5
100
AcDbEntity
  8
001
100
AcDbVertex
100
AcDb2dVertex
 10
919.963027
 20
1326.402476
 30
0.0
  0
VERTEX
  5
5E6
100
AcDbEntity
  8
001
100
AcDbVertex
100
AcDb2dVertex
 10
920.247552
 20
1326.55715
 30
0.0
  0
VERTEX
  5
5E7
100
AcDbEntity
  8
001
100
AcDbVertex
100
AcDb2dVertex
 10
920.507798
 20
1326.725879
 30
0.0
  0
VERTEX
  5
5E8
100
AcDbEntity
  8
001
100
AcDbVertex
100
AcDb2dVertex
 10
920.741751
 20
1326.90736
 30
0.0
  0
VERTEX
  5
5E9
100
AcDbEntity
  8
001
100
AcDbVertex
100
AcDb2dVertex
 10
920.947602
 20
1327.100187
 30
0.0
  0
VERTEX
  5
5EA
100
AcDbEntity
  8
001
100
AcDbVertex
100
AcDb2dVertex
 10
921.123758
 20
1327.30287
 30
0.0
  0
VERTEX
  5
5EB
100
AcDbEntity
  8
001
100
AcDbVertex
100
AcDb2dVertex
 10
921.268859
 20
1327.513841
 30
0.0
  0
VERTEX
  5
5EC
100
AcDbEntity
  8
001
100
AcDbVertex
100
AcDb2dVertex
 10
921.381782
 20
1327.73147
 30
0.0
  0
VERTEX
  5
5ED
100
AcDbEntity
  8
001
100
AcDbVertex
100
AcDb2dVertex
 10
921.461653
 20
1327.954073
 30
0.0
  0
SEQEND
  5
5EE
100
AcDbEntity
  8
001
  0
POLYLINE
  5
5EF
100
AcDbEntity
  8
001
100
AcDb2dPolyline
 66
     1
 10
0.0
 20
0.0
 30
0.0
  0
VERTEX
  5
5F0
100
AcDbEntity
  8
001
100
AcDbVertex
100
AcDb2dVertex
 10
917.5
 20
1327.18777
 30
0.0
  0
VERTEX
  5
5F1
100
AcDbEntity
  8
001
100
AcDbVertex
100
AcDb2dVertex
 10
917.907145
 20
1327.198781
 30
0.0
  0
VERTEX
  5
5F2
100
AcDbEntity
  8
001
100
AcDbVertex
100
AcDb2dVertex
 10
918.310816
 20
1327.23172
 30
0.0
  0
VERTEX
  5
5F3
100
AcDbEntity
  8
001
100
AcDbVertex
100
AcDb2dVertex
 10
918.707569
 20
1327.286307
 30
0.0
  0
VERTEX
  5
5F4
100
AcDbEntity
  8
001
100
AcDbVertex
100
AcDb2dVertex
 10
919.09402
 20
1327.362076
 30
0.0
  0
VERTEX
  5
5F5
100
AcDbEntity
  8
001
100
AcDbVertex
100
AcDb2dVertex
 10
919.466871
 20
1327.45838
 30
0.0
  0
VERTEX
  5
5F6
100
AcDbEntity
  8
001
100
AcDbVertex
100
AcDb2dVertex
 10
919.822941
 20
1327.574397
 30
0.0
  0
VERTEX
  5
5F7
100
AcDbEntity
  8
001
100
AcDbVertex
100
AcDb2dVertex
 10
920.159193
 20
1327.709139
 30
0.0
  0
VERTEX
  5
5F8
100
AcDbEntity
  8
001
100
AcDbVertex
100
AcDb2dVertex
 10
920.472758
 20
1327.861454
 30
0.0
  0
VERTEX
  5
5F9
100
AcDbEntity
  8
001
100
AcDbVertex
100
AcDb2dVertex
 10
920.76096
 20
1328.030045
 30
0.0
  0
VERTEX
  5
5FA
100
AcDbEntity
  8
001
100
AcDbVertex
100
AcDb2dVertex
 10
921.021341
 20
1328.213471
 30
0.0
  0
VERTEX
  5
5FB
100
AcDbEntity
  8
001
100
AcDbVertex
100
AcDb2dVertex
 10
921.251679
 20
1328.41017
 30
0.0
  0
VERTEX
  5
5FC
100
AcDbEntity
  8
001
100
AcDbVertex
100
AcDb2dVertex
 10
921.450009
 20
1328.618461
 30
0.0
  0
VERTEX
  5
5FD
100
AcDbEntity
  8
001
100
AcDbVertex
100
AcDb2dVertex
 10
921.614639
 20
1328.836569
 30
0.0
  0
VERTEX
  5
5FE
100
AcDbEntity
  8
001
100
AcDbVertex
100
AcDb2dVertex
 10
921.744164
 20
1329.062632
 30
0.0
  0
VERTEX
  5
5FF
100
AcDbEntity
  8
001
100
AcDbVertex
100
AcDb2dVertex
 10
921.83748
 20
1329.294721
 30
0.0
  0
VERTEX
  5
600
100
AcDbEntity
  8
001
100
AcDbVertex
100
AcDb2dVertex
 10
921.89379
 20
1329.530858
 30
0.0
  0
VERTEX
  5
601
100
AcDbEntity
  8
001
100
AcDbVertex
100
AcDb2dVertex
 10
921.912613
 20
1329.769026
 30
0.0
  0
SEQEND
  5
602
100
AcDbEntity
  8
001
  0
LINE
  5
603
100
AcDbEntity
  8
001
100
AcDbLine
 10
921.461653
 20
1327.954073
 30
0.0
 11
921.854129
 21
1329.350163
 31
0.0
  0
LINE
  5
604
100
AcDbEntity
  8
001
100
AcDbLine
 10
882.5
 20
1147.264583
 30
0.0
 11
882.5
 21
1228.714573
 31
0.0
  0
LINE
  5
605
100
AcDbEntity
  8
001
100
AcDbLine
 10
882.5
 20
1369.519953
 30
0.0
 11
882.5
 21
1302.714573
 31
0.0
  0
LINE
  5
606
100
AcDbEntity
  8
001
100
AcDbLine
 10
868.5
 20
1162.366237
 30
0.0
 11
868.5
 21
1228.714573
 31
0.0
  0
LINE
  5
607
100
AcDbEntity
  8
001
100
AcDbLine
 10
868.5
 20
1302.714573
 30
0.0
 11
868.5
 21
1369.062909
 31
0.0
  0
LINE
  5
608
100
AcDbEntity
  8
001
  6
CENTER
100
AcDbLine
 10
899.75
 20
1286.214573
 30
0.0
 11
825.25
 21
1286.214573
 31
0.0
  0
LINE
  5
609
100
AcDbEntity
  8
001
100
AcDbLine
 10
700.304973
 20
1183.714573
 30
0.0
 11
695.580396
 21
1183.714573
 31
0.0
  0
LINE
  5
60A
100
AcDbEntity
  8
001
100
AcDbLine
 10
695.580396
 20
1347.714573
 30
0.0
 11
700.304973
 21
1347.714573
 31
0.0
  0
LINE
  5
60B
100
AcDbEntity
  8
001
100
AcDbLine
 10
901.5
 20
1228.714573
 30
0.0
 11
847.5
 21
1228.714573
 31
0.0
  0
LINE
  5
60C
100
AcDbEntity
  8
001
100
AcDbLine
 10
901.5
 20
1302.714573
 30
0.0
 11
847.5
 21
1302.714573
 31
0.0
  0
ARC
  5
60D
100
AcDbEntity
  8
001
100
AcDbCircle
 10
847.5
 20
1232.714573
 30
0.0
 40
4.0
100
AcDbArc
 50
180.0
 51
270.0
  0
ARC
  5
60E
100
AcDbEntity
  8
001
100
AcDbCircle
 10
887.5
 20
1232.714573
 30
0.0
 40
4.0
100
AcDbArc
 50
270.0
 51
0.0
  0
ARC
  5
60F
100
AcDbEntity
  8
001
100
AcDbCircle
 10
847.5
 20
1298.714573
 30
0.0
 40
4.0
100
AcDbArc
 50
90.0
 51
180.0
  0
ARC
  5
610
100
AcDbEntity
  8
001
100
AcDbCircle
 10
887.5
 20
1298.714573
 30
0.0
 40
4.0
100
AcDbArc
 50
0.0
 51
90.0
  0
ARC
  5
611
100
AcDbEntity
  8
001
100
AcDbCircle
 10
901.5
 20
1224.714573
 30
0.0
 40
4.0
100
AcDbArc
 50
0.0
 51
90.0
  0
ARC
  5
612
100
AcDbEntity
  8
001
100
AcDbCircle
 10
901.5
 20
1306.714573
 30
0.0
 40
4.0
100
AcDbArc
 50
270.0
 51
0.0
  0
LINE
  5
613
100
AcDbEntity
  8
001
100
AcDbLine
 10
837.487488
 20
1165.590152
 30
0.0
 11
837.487488
 21
1283.214573
 31
0.0
  0
LINE
  5
614
100
AcDbEntity
  8
001
100
AcDbLine
 10
837.487488
 20
1289.214573
 30
0.0
 11
837.487488
 21
1365.838994
 31
0.0
  0
LINE
  5
615
100
AcDbEntity
  8
001
100
AcDbLine
 10
887.5
 20
1134.055923
 30
0.0
 11
847.5
 21
1134.055923
 31
0.0
  0
LINE
  5
616
100
AcDbEntity
  8
001
100
AcDbLine
 10
878.5
 20
1143.264583
 30
0.0
 11
856.5
 21
1143.264583
 31
0.0
  0
LINE
  5
617
100
AcDbEntity
  8
001
100
AcDbLine
 10
851.5
 20
1155.596455
 30
0.0
 11
844.5
 21
1155.596455
 31
0.0
  0
ARC
  5
618
100
AcDbEntity
  8
001
100
AcDbCircle
 10
844.5
 20
1154.596455
 30
0.0
 40
1.0
100
AcDbArc
 50
90.0
 51
180.0
  0
ARC
  5
619
100
AcDbEntity
  8
001
100
AcDbCircle
 10
851.5
 20
1154.596455
 30
0.0
 40
1.0
100
AcDbArc
 50
0.0
 51
90.0
  0
ARC
  5
61A
100
AcDbEntity
  8
001
100
AcDbCircle
 10
856.5
 20
1147.264583
 30
0.0
 40
4.0
100
AcDbArc
 50
180.0
 51
270.0
  0
ARC
  5
61B
100
AcDbEntity
  8
001
100
AcDbCircle
 10
847.5
 20
1138.055923
 30
0.0
 40
4.0
100
AcDbArc
 50
180.0
 51
270.0
  0
ARC
  5
61C
100
AcDbEntity
  8
001
100
AcDbCircle
 10
847.5
 20
1135.214573
 30
0.0
 40
4.0
100
AcDbArc
 50
180.0
 51
270.0
  0
ARC
  5
61D
100
AcDbEntity
  8
001
100
AcDbCircle
 10
887.5
 20
1138.055923
 30
0.0
 40
4.0
100
AcDbArc
 50
270.0
 51
0.0
  0
ARC
  5
61E
100
AcDbEntity
  8
001
100
AcDbCircle
 10
878.5
 20
1147.264583
 30
0.0
 40
4.0
100
AcDbArc
 50
270.0
 51
0.0
  0
ARC
  5
61F
100
AcDbEntity
  8
001
100
AcDbCircle
 10
844.5
 20
1156.909193
 30
0.0
 40
1.0
100
AcDbArc
 50
90.0
 51
180.0
  0
LINE
  5
620
100
AcDbEntity
  8
001
100
AcDbLine
 10
844.5
 20
1157.909193
 30
0.0
 11
844.654182
 21
1157.909193
 31
0.0
  0
LINE
  5
621
100
AcDbEntity
  8
001
100
AcDbLine
 10
854.523631
 20
1157.909193
 30
0.0
 11
871.248458
 21
1157.909193
 31
0.0
  0
LINE
  5
622
100
AcDbEntity
  8
001
100
AcDbLine
 10
880.343211
 20
1143.714573
 30
0.0
 11
873.5
 21
1143.714573
 31
0.0
  0
ARC
  5
623
100
AcDbEntity
  8
001
100
AcDbCircle
 10
873.5
 20
1145.714573
 30
0.0
 40
2.0
100
AcDbArc
 50
180.0
 51
270.0
  0
LINE
  5
624
100
AcDbEntity
  8
001
100
AcDbLine
 10
940.880969
 20
1361.649543
 30
0.0
 11
889.880969
 21
1399.428758
 31
0.0
  0
LINE
  5
625
100
AcDbEntity
  8
001
100
AcDbLine
 10
901.5
 20
1167.491612
 30
0.0
 11
886.5
 21
1167.491612
 31
0.0
  0
ARC
  5
626
100
AcDbEntity
  8
001
100
AcDbCircle
 10
886.5
 20
1163.491612
 30
0.0
 40
4.0
100
AcDbArc
 50
90.0
 51
180.0
  0
ARC
  5
627
100
AcDbEntity
  8
001
100
AcDbCircle
 10
901.5
 20
1171.491612
 30
0.0
 40
4.0
100
AcDbArc
 50
270.0
 51
0.0
  0
LINE
  5
628
100
AcDbEntity
  8
001
100
AcDbLine
 10
887.5
 20
1395.445063
 30
0.0
 11
847.5
 21
1395.445063
 31
0.0
  0
LINE
  5
629
100
AcDbEntity
  8
001
100
AcDbLine
 10
878.5
 20
1373.519953
 30
0.0
 11
844.5
 21
1373.519953
 31
0.0
  0
ARC
  5
62A
100
AcDbEntity
  8
001
100
AcDbCircle
 10
847.5
 20
1391.445063
 30
0.0
 40
4.0
100
AcDbArc
 50
90.0
 51
180.0
  0
ARC
  5
62B
100
AcDbEntity
  8
001
100
AcDbCircle
 10
887.5
 20
1391.445063
 30
0.0
 40
4.0
100
AcDbArc
 50
0.0
 51
90.0
  0
ARC
  5
62C
100
AcDbEntity
  8
001
100
AcDbCircle
 10
844.5
 20
1374.519953
 30
0.0
 40
1.0
100
AcDbArc
 50
180.0
 51
270.0
  0
ARC
  5
62D
100
AcDbEntity
  8
001
100
AcDbCircle
 10
878.5
 20
1369.519953
 30
0.0
 40
4.0
100
AcDbArc
 50
0.0
 51
90.0
  0
LINE
  5
62E
100
AcDbEntity
  8
001
100
AcDbLine
 10
886.5
 20
1361.33753
 30
0.0
 11
901.5
 21
1361.33753
 31
0.0
  0
ARC
  5
62F
100
AcDbEntity
  8
001
100
AcDbCircle
 10
901.5
 20
1357.33753
 30
0.0
 40
4.0
100
AcDbArc
 50
0.0
 51
90.0
  0
ARC
  5
630
100
AcDbEntity
  8
001
100
AcDbCircle
 10
886.5
 20
1365.33753
 30
0.0
 40
4.0
100
AcDbArc
 50
180.0
 51
270.0
  0
LINE
  5
631
100
AcDbEntity
  8
001
100
AcDbLine
 10
806.339169
 20
1365.214573
 30
0.0
 11
733.622166
 21
1365.214573
 31
0.0
  0
LINE
  5
632
100
AcDbEntity
  8
001
100
AcDbLine
 10
727.734591
 20
1361.573259
 30
0.0
 11
727.734591
 21
1169.855887
 31
0.0
  0
LINE
  5
633
100
AcDbEntity
  8
001
  6
CENTER
100
AcDbLine
 10
787.5
 20
1169.464573
 30
0.0
 11
787.5
 21
1131.964573
 31
0.0
  0
LINE
  5
634
100
AcDbEntity
  8
001
100
AcDbLine
 10
808.240509
 20
1166.214575
 30
0.0
 11
808.240509
 21
1365.214571
 31
0.0
  0
LINE
  5
635
100
AcDbEntity
  8
001
  6
CENTER
100
AcDbLine
 10
768.75
 20
1150.714573
 30
0.0
 11
806.25
 21
1150.714573
 31
0.0
  0
LINE
  5
636
100
AcDbEntity
  8
001
100
AcDbLine
 10
763.34222
 20
1144.28016
 30
0.0
 11
757.5
 21
1166.214573
 31
0.0
  0
LINE
  5
637
100
AcDbEntity
  8
001
100
AcDbLine
 10
811.479477
 20
1143.644588
 30
0.0
 11
817.5
 21
1164.064573
 31
0.0
  0
ARC
  5
638
100
AcDbEntity
  8
001
100
AcDbCircle
 10
787.5
 20
1150.714573
 30
0.0
 40
25.0
100
AcDbArc
 50
194.91445
 51
343.572646
  0
CIRCLE
  5
639
100
AcDbEntity
  8
001
100
AcDbCircle
 10
787.5
 20
1150.714573
 30
0.0
 40
12.5
  0
LINE
  5
63A
100
AcDbEntity
  8
001
  6
CENTER
100
AcDbLine
 10
787.5
 20
1361.964573
 30
0.0
 11
787.5
 21
1399.464573
 31
0.0
  0
LINE
  5
63B
100
AcDbEntity
  8
001
  6
CENTER
100
AcDbLine
 10
768.75
 20
1380.714573
 30
0.0
 11
806.25
 21
1380.714573
 31
0.0
  0
LINE
  5
63C
100
AcDbEntity
  8
001
100
AcDbLine
 10
763.34222
 20
1387.148986
 30
0.0
 11
757.5
 21
1365.214573
 31
0.0
  0
LINE
  5
63D
100
AcDbEntity
  8
001
100
AcDbLine
 10
811.479477
 20
1387.784558
 30
0.0
 11
817.5
 21
1367.364573
 31
0.0
  0
ARC
  5
63E
100
AcDbEntity
  8
001
100
AcDbCircle
 10
787.5
 20
1380.714573
 30
0.0
 40
25.0
100
AcDbArc
 50
16.427354
 51
165.08555
  0
CIRCLE
  5
63F
100
AcDbEntity
  8
001
100
AcDbCircle
 10
787.5
 20
1380.714573
 30
0.0
 40
12.5
  0
LINE
  5
640
100
AcDbEntity
  8
001
  6
CENTER
100
AcDbLine
 10
513.0
 20
545.05
 30
0.0
 11
513.0
 21
627.55
 31
0.0
  0
ARC
  5
641
100
AcDbEntity
  8
001
  6
CENTER
100
AcDbCircle
 10
623.969836
 20
1197.889468
 30
0.0
 40
55.839158
100
AcDbArc
 50
287.926023
 51
311.232021
  0
ARC
  5
642
100
AcDbEntity
  8
001
  6
CENTER
100
AcDbCircle
 10
597.5
 20
1279.714573
 30
0.0
 40
141.839158
100
AcDbArc
 50
279.911849
 51
287.926023
  0
LINE
  5
643
100
AcDbEntity
  8
001
  6
CENTER
100
AcDbLine
 10
635.448211
 20
1165.26039
 30
0.0
 11
649.551789
 21
1125.168756
 31
0.0
  0
ARC
  5
644
100
AcDbEntity
  8
001
  6
CENTER
100
AcDbCircle
 10
118.5
 20
1265.714573
 30
0.0
 40
565.333972
100
AcDbArc
 50
353.229947
 51
357.537349
  0
LINE
  5
645
100
AcDbEntity
  8
001
  6
CENTER
100
AcDbLine
 10
660.818936
 20
1221.924845
 30
0.0
 11
703.181064
 21
1218.504301
 31
0.0
  0
LINE
  5
646
100
AcDbEntity
  8
001
  6
CENTER
100
AcDbLine
 10
597.5
 20
275.5
 30
0.0
 11
597.5
 21
847.5
 31
0.0
  0
LINE
  5
647
100
AcDbEntity
  8
001
  6
CENTER
100
AcDbLine
 10
227.5
 20
382.5
 30
0.0
 11
967.5
 21
382.5
 31
0.0
  0
LINE
  5
648
100
AcDbEntity
  8
001
  6
CENTER
100
AcDbLine
 10
407.5
 20
370.25
 30
0.0
 11
407.5
 21
394.75
 31
0.0
  0
LINE
  5
649
100
AcDbEntity
  8
001
  6
CENTER
100
AcDbLine
 10
295.25
 20
500.228501
 30
0.0
 11
369.75
 21
500.228501
 31
0.0
  0
LINE
  5
64A
100
AcDbEntity
  8
001
  6
CENTER
100
AcDbLine
 10
787.5
 20
370.25
 30
0.0
 11
787.5
 21
394.75
 31
0.0
  0
LINE
  5
64B
100
AcDbEntity
  8
001
  6
CENTER
100
AcDbLine
 10
897.75
 20
500.228501
 30
0.0
 11
825.25
 21
500.228501
 31
0.0
  0
LINE
  5
64C
100
AcDbEntity
  8
001
100
AcDbLine
 10
535.5
 20
613.5
 30
0.0
 11
540.653591
 21
613.5
 31
0.0
  0
LINE
  5
64D
100
AcDbEntity
  8
001
100
AcDbLine
 10
564.346409
 20
613.5
 30
0.0
 11
630.653591
 21
613.5
 31
0.0
  0
LINE
  5
64E
100
AcDbEntity
  8
001
100
AcDbLine
 10
654.346409
 20
613.5
 30
0.0
 11
659.5
 21
613.5
 31
0.0
  0
LINE
  5
64F
100
AcDbEntity
  8
001
100
AcDbLine
 10
1280.153579
 20
613.5
 30
0.0
 11
1234.5
 21
613.5
 31
0.0
  0
LINE
  5
650
100
AcDbEntity
  8
001
100
AcDbLine
 10
1440.5
 20
613.5
 30
0.0
 11
1394.846421
 21
613.5
 31
0.0
  0
LINE
  5
651
100
AcDbEntity
  8
001
100
AcDbLine
 10
1371.153579
 20
613.5
 30
0.0
 11
1303.846421
 21
613.5
 31
0.0
  0
LINE
  5
652
100
AcDbEntity
  8
001
  6
CENTER
100
AcDbLine
 10
1337.5
 20
222.5
 30
0.0
 11
1337.5
 21
847.5
 31
0.0
  0
LINE
  5
653
100
AcDbEntity
  8
001
  6
CENTER
100
AcDbLine
 10
1172.5
 20
382.5
 30
0.0
 11
1502.5
 21
382.5
 31
0.0
  0
LINE
  5
654
100
AcDbEntity
  8
001
 62
     3
100
AcDbLine
 10
1630.0
 20
80.0
 30
0.0
 11
2025.0
 21
80.0
 31
0.0
  0
TEXT
  5
655
100
AcDbEntity
  8
001
 62
     3
100
AcDbText
 10
1666.25
 20
85.0
 30
0.0
 40
20.0
  1
塩ビ管用継手　　　　　　型両受け
 41
0.833333
100
AcDbText
  0
TEXT
  5
656
100
AcDbEntity
  8
001
 62
     3
100
AcDbText
 10
1776.25
 20
85.0
 30
0.0
 40
20.0
  1
(SGR-N)
 41
1.105263
100
AcDbText
  0
TEXT
  5
657
100
AcDbEntity
  8
001
 62
     3
100
AcDbText
 10
1666.25
 20
110.0
 30
0.0
 40
25.0
  1
浅層埋設対応型　ソフトシール仕切弁
 41
0.666667
100
AcDbText
  0
POLYLINE
  5
658
100
AcDbEntity
  8
001
 62
     2
100
AcDb2dPolyline
 66
     1
 10
0.0
 20
0.0
 30
0.0
 70
     1
  0
VERTEX
  5
659
100
AcDbEntity
  8
001
 62
     2
100
AcDbVertex
100
AcDb2dVertex
 10
1630.0
 20
50.0
 30
0.0
  0
VERTEX
  5
65A
100
AcDbEntity
  8
001
 62
     2
100
AcDbVertex
100
AcDb2dVertex
 10
2025.0
 20
50.0
 30
0.0
  0
VERTEX
  5
65B
100
AcDbEntity
  8
001
 62
     2
100
AcDbVertex
100
AcDb2dVertex
 10
2025.0
 20
167.5
 30
0.0
  0
VERTEX
  5
65C
100
AcDbEntity
  8
001
 62
     2
100
AcDbVertex
100
AcDb2dVertex
 10
1630.0
 20
167.5
 30
0.0
  0
SEQEND
  5
65D
100
AcDbEntity
  8
001
 62
     2
  0
TEXT
  5
65E
100
AcDbEntity
  8
001
 62
     3
100
AcDbText
 10
1648.75
 20
140.0
 30
0.0
 40
22.5
  1
ＪＷＷＡ　Ｂ　１２０準拠　φ１５０
 41
0.648148
100
AcDbText
  0
LINE
  5
661
100
AcDbEntity
  8
001
100
AcDbLine
 10
1353.5
 20
729.5
 30
0.0
 11
1353.5
 21
732.1
 31
0.0
  0
LINE
  5
662
100
AcDbEntity
  8
001
100
AcDbLine
 10
1321.5
 20
732.1
 30
0.0
 11
1353.5
 21
732.1
 31
0.0
  0
LINE
  5
663
100
AcDbEntity
  8
001
100
AcDbLine
 10
1321.5
 20
732.1
 30
0.0
 11
1323.462991
 21
735.5
 31
0.0
  0
LINE
  5
664
100
AcDbEntity
  8
001
100
AcDbLine
 10
1353.5
 20
732.1
 30
0.0
 11
1351.537009
 21
735.5
 31
0.0
  0
ARC
  5
665
100
AcDbEntity
  8
001
100
AcDbCircle
 10
502.607706
 20
557.722668
 30
0.0
 40
6.134002
100
AcDbArc
 50
244.384083
 51
304.384093
  0
ARC
  5
666
100
AcDbEntity
  8
001
100
AcDbCircle
 10
513.00001
 20
574.516934
 30
0.0
 40
22.928265
100
AcDbArc
 50
252.412107
 51
287.587884
  0
ARC
  5
667
100
AcDbEntity
  8
001
100
AcDbCircle
 10
523.392302
 20
557.722668
 30
0.0
 40
6.134002
100
AcDbArc
 50
235.615848
 51
295.615852
  0
ARC
  5
668
100
AcDbEntity
  8
001
100
AcDbCircle
 10
1211.0
 20
568.918851
 30
0.0
 40
17.330189
100
AcDbArc
 50
249.743913
 51
290.256087
  0
ARC
  5
669
100
AcDbEntity
  8
001
100
AcDbCircle
 10
1223.0
 20
568.918851
 30
0.0
 40
17.330189
100
AcDbArc
 50
249.743913
 51
290.256087
  0
LINE
  5
66A
100
AcDbEntity
  8
001
100
AcDbLine
 10
501.500002
 20
551.3
 30
0.0
 11
499.143602
 21
552.660458
 31
0.0
  0
LINE
  5
66B
100
AcDbEntity
  8
001
100
AcDbLine
 10
524.499998
 20
551.3
 30
0.0
 11
526.856398
 21
552.660458
 31
0.0
  0
LINE
  5
66C
100
AcDbEntity
  8
001
100
AcDbLine
 10
501.500002
 20
551.3
 30
0.0
 11
524.499998
 21
551.3
 31
0.0
  0
LINE
  5
66D
100
AcDbEntity
  8
001
100
AcDbLine
 10
499.143602
 20
561.3
 30
0.0
 11
499.143602
 21
552.660458
 31
0.0
  0
LINE
  5
66E
100
AcDbEntity
  8
001
100
AcDbLine
 10
506.07181
 20
561.3
 30
0.0
 11
506.07181
 21
552.660458
 31
0.0
  0
LINE
  5
66F
100
AcDbEntity
  8
001
100
AcDbLine
 10
519.928205
 20
561.3
 30
0.0
 11
519.928205
 21
552.660458
 31
0.0
  0
LINE
  5
670
100
AcDbEntity
  8
001
100
AcDbLine
 10
526.856398
 20
561.3
 30
0.0
 11
526.856398
 21
552.660458
 31
0.0
  0
LINE
  5
671
100
AcDbEntity
  8
001
100
AcDbLine
 10
1205.0
 20
551.588666
 30
0.0
 11
1205.5
 21
551.3
 31
0.0
  0
LINE
  5
672
100
AcDbEntity
  8
001
100
AcDbLine
 10
1229.0
 20
551.588666
 30
0.0
 11
1228.5
 21
551.3
 31
0.0
  0
LINE
  5
673
100
AcDbEntity
  8
001
100
AcDbLine
 10
1205.5
 20
551.3
 30
0.0
 11
1228.500015
 21
551.3
 31
0.0
  0
LINE
  5
674
100
AcDbEntity
  8
001
100
AcDbLine
 10
1229.0
 20
561.3
 30
0.0
 11
1229.0
 21
551.588666
 31
0.0
  0
LINE
  5
675
100
AcDbEntity
  8
001
100
AcDbLine
 10
1217.0
 20
561.3
 30
0.0
 11
1217.0
 21
552.660458
 31
0.0
  0
LINE
  5
676
100
AcDbEntity
  8
001
100
AcDbLine
 10
1205.0
 20
561.3
 30
0.0
 11
1205.0
 21
551.588666
 31
0.0
  0
ARC
  5
677
100
AcDbEntity
  8
001
100
AcDbCircle
 10
502.607697
 20
607.277316
 30
0.0
 40
6.134002
100
AcDbArc
 50
55.615848
 51
115.615852
  0
ARC
  5
678
100
AcDbEntity
  8
001
100
AcDbCircle
 10
513.0
 20
590.483051
 30
0.0
 40
22.928265
100
AcDbArc
 50
72.412089
 51
107.587875
  0
ARC
  5
679
100
AcDbEntity
  8
001
100
AcDbCircle
 10
523.392303
 20
607.277316
 30
0.0
 40
6.134002
100
AcDbArc
 50
64.384148
 51
124.384152
  0
ARC
  5
67A
100
AcDbEntity
  8
001
100
AcDbCircle
 10
1211.0
 20
596.081134
 30
0.0
 40
17.330189
100
AcDbArc
 50
69.743913
 51
110.256087
  0
ARC
  5
67B
100
AcDbEntity
  8
001
100
AcDbCircle
 10
1223.0
 20
596.081134
 30
0.0
 40
17.330189
100
AcDbArc
 50
69.743913
 51
110.256087
  0
LINE
  5
67C
100
AcDbEntity
  8
001
100
AcDbLine
 10
501.5
 20
613.7
 30
0.0
 11
499.1436
 21
612.339526
 31
0.0
  0
LINE
  5
67D
100
AcDbEntity
  8
001
100
AcDbLine
 10
524.5
 20
613.7
 30
0.0
 11
526.8564
 21
612.339526
 31
0.0
  0
LINE
  5
67E
100
AcDbEntity
  8
001
100
AcDbLine
 10
501.5
 20
613.7
 30
0.0
 11
524.5
 21
613.7
 31
0.0
  0
LINE
  5
67F
100
AcDbEntity
  8
001
100
AcDbLine
 10
1205.0
 20
613.411334
 30
0.0
 11
1205.5
 21
613.7
 31
0.0
  0
LINE
  5
680
100
AcDbEntity
  8
001
100
AcDbLine
 10
1229.0
 20
613.411334
 30
0.0
 11
1228.5
 21
613.7
 31
0.0
  0
LINE
  5
681
100
AcDbEntity
  8
001
100
AcDbLine
 10
1205.5
 20
613.7
 30
0.0
 11
1228.5
 21
613.7
 31
0.0
  0
LINE
  5
682
100
AcDbEntity
  8
001
100
AcDbLine
 10
499.1436
 20
600.7
 30
0.0
 11
499.1436
 21
612.339526
 31
0.0
  0
LINE
  5
683
100
AcDbEntity
  8
001
100
AcDbLine
 10
506.071808
 20
600.7
 30
0.0
 11
506.071808
 21
612.339526
 31
0.0
  0
LINE
  5
684
100
AcDbEntity
  8
001
100
AcDbLine
 10
519.928207
 20
600.7
 30
0.0
 11
519.928207
 21
612.339526
 31
0.0
  0
LINE
  5
685
100
AcDbEntity
  8
001
100
AcDbLine
 10
526.8564
 20
600.7
 30
0.0
 11
526.8564
 21
612.339526
 31
0.0
  0
LINE
  5
686
100
AcDbEntity
  8
001
100
AcDbLine
 10
1229.0
 20
600.7
 30
0.0
 11
1229.0
 21
613.411334
 31
0.0
  0
LINE
  5
687
100
AcDbEntity
  8
001
100
AcDbLine
 10
1217.0
 20
600.7
 30
0.0
 11
1217.0
 21
612.339526
 31
0.0
  0
LINE
  5
688
100
AcDbEntity
  8
001
100
AcDbLine
 10
1205.0
 20
600.7
 30
0.0
 11
1205.0
 21
613.411334
 31
0.0
  0
LINE
  5
689
100
AcDbEntity
  8
001
100
AcDbLine
 10
635.571797
 20
1157.214573
 30
0.0
 11
649.428203
 21
1157.214573
 31
0.0
  0
LINE
  5
68A
100
AcDbEntity
  8
001
100
AcDbLine
 10
635.571797
 20
1133.214573
 30
0.0
 11
649.428203
 21
1133.214573
 31
0.0
  0
CIRCLE
  5
68B
100
AcDbEntity
  8
001
100
AcDbCircle
 10
642.5
 20
1145.214573
 30
0.0
 40
11.5
  0
CIRCLE
  5
68C
100
AcDbEntity
  8
001
100
AcDbCircle
 10
642.5
 20
1145.214573
 30
0.0
 40
15.0
  0
LINE
  5
68D
100
AcDbEntity
  8
001
100
AcDbLine
 10
656.356406
 20
1145.214573
 30
0.0
 11
649.428203
 21
1133.214573
 31
0.0
  0
LINE
  5
68E
100
AcDbEntity
  8
001
100
AcDbLine
 10
628.643594
 20
1145.214573
 30
0.0
 11
635.571797
 21
1157.214573
 31
0.0
  0
LINE
  5
68F
100
AcDbEntity
  8
001
100
AcDbLine
 10
649.428203
 20
1157.214573
 30
0.0
 11
656.356406
 21
1145.214573
 31
0.0
  0
LINE
  5
690
100
AcDbEntity
  8
001
100
AcDbLine
 10
635.571797
 20
1133.214573
 30
0.0
 11
628.643594
 21
1145.214573
 31
0.0
  0
CIRCLE
  5
691
100
AcDbEntity
  8
001
100
AcDbCircle
 10
642.5
 20
1145.214573
 30
0.0
 40
8.0
  0
CIRCLE
  5
692
100
AcDbEntity
  8
001
100
AcDbCircle
 10
642.5
 20
1145.214573
 30
0.0
 40
6.92
  0
LINE
  5
693
100
AcDbEntity
  8
001
100
AcDbLine
 10
675.071797
 20
1232.214573
 30
0.0
 11
688.928203
 21
1232.214573
 31
0.0
  0
LINE
  5
694
100
AcDbEntity
  8
001
100
AcDbLine
 10
675.071797
 20
1208.214573
 30
0.0
 11
688.928203
 21
1208.214573
 31
0.0
  0
CIRCLE
  5
695
100
AcDbEntity
  8
001
100
AcDbCircle
 10
682.0
 20
1220.214573
 30
0.0
 40
11.5
  0
CIRCLE
  5
696
100
AcDbEntity
  8
001
100
AcDbCircle
 10
682.0
 20
1220.214573
 30
0.0
 40
15.0
  0
LINE
  5
697
100
AcDbEntity
  8
001
100
AcDbLine
 10
695.856406
 20
1220.214573
 30
0.0
 11
688.928203
 21
1208.214573
 31
0.0
  0
LINE
  5
698
100
AcDbEntity
  8
001
100
AcDbLine
 10
668.143594
 20
1220.214573
 30
0.0
 11
675.071797
 21
1232.214573
 31
0.0
  0
LINE
  5
699
100
AcDbEntity
  8
001
100
AcDbLine
 10
688.928203
 20
1232.214573
 30
0.0
 11
695.856406
 21
1220.214573
 31
0.0
  0
LINE
  5
69A
100
AcDbEntity
  8
001
100
AcDbLine
 10
675.071797
 20
1208.214573
 30
0.0
 11
668.143594
 21
1220.214573
 31
0.0
  0
CIRCLE
  5
69B
100
AcDbEntity
  8
001
100
AcDbCircle
 10
682.0
 20
1220.214573
 30
0.0
 40
8.0
  0
CIRCLE
  5
69C
100
AcDbEntity
  8
001
100
AcDbCircle
 10
682.0
 20
1220.214573
 30
0.0
 40
6.92
  0
ARC
  5
69D
100
AcDbEntity
  8
001
  6
CENTER
100
AcDbCircle
 10
1076.5
 20
1265.714573
 30
0.0
 40
565.333972
100
AcDbArc
 50
182.462651
 51
186.770053
  0
LINE
  5
69E
100
AcDbEntity
  8
001
  6
CENTER
100
AcDbLine
 10
534.181064
 20
1221.924845
 30
0.0
 11
491.818936
 21
1218.504301
 31
0.0
  0
LINE
  5
69F
100
AcDbEntity
  8
001
100
AcDbLine
 10
519.928203
 20
1232.214573
 30
0.0
 11
506.071797
 21
1232.214573
 31
0.0
  0
LINE
  5
6A0
100
AcDbEntity
  8
001
100
AcDbLine
 10
519.928203
 20
1208.214573
 30
0.0
 11
506.071797
 21
1208.214573
 31
0.0
  0
CIRCLE
  5
6A1
100
AcDbEntity
  8
001
100
AcDbCircle
 10
513.0
 20
1220.214573
 30
0.0
 40
11.5
  0
CIRCLE
  5
6A2
100
AcDbEntity
  8
001
100
AcDbCircle
 10
513.0
 20
1220.214573
 30
0.0
 40
15.0
  0
LINE
  5
6A3
100
AcDbEntity
  8
001
100
AcDbLine
 10
499.143594
 20
1220.214573
 30
0.0
 11
506.071797
 21
1208.214573
 31
0.0
  0
LINE
  5
6A4
100
AcDbEntity
  8
001
100
AcDbLine
 10
526.856406
 20
1220.214573
 30
0.0
 11
519.928203
 21
1232.214573
 31
0.0
  0
LINE
  5
6A5
100
AcDbEntity
  8
001
100
AcDbLine
 10
506.071797
 20
1232.214573
 30
0.0
 11
499.143594
 21
1220.214573
 31
0.0
  0
LINE
  5
6A6
100
AcDbEntity
  8
001
100
AcDbLine
 10
519.928203
 20
1208.214573
 30
0.0
 11
526.856406
 21
1220.214573
 31
0.0
  0
CIRCLE
  5
6A7
100
AcDbEntity
  8
001
100
AcDbCircle
 10
513.0
 20
1220.214573
 30
0.0
 40
8.0
  0
CIRCLE
  5
6A8
100
AcDbEntity
  8
001
100
AcDbCircle
 10
513.0
 20
1220.214573
 30
0.0
 40
6.92
  0
ARC
  5
6A9
100
AcDbEntity
  8
001
  6
CENTER
100
AcDbCircle
 10
571.030164
 20
1197.889468
 30
0.0
 40
55.839158
100
AcDbArc
 50
228.767979
 51
252.073977
  0
ARC
  5
6AA
100
AcDbEntity
  8
001
  6
CENTER
100
AcDbCircle
 10
597.5
 20
1279.714573
 30
0.0
 40
141.839158
100
AcDbArc
 50
252.073977
 51
260.088151
  0
LINE
  5
6AB
100
AcDbEntity
  8
001
  6
CENTER
100
AcDbLine
 10
559.551789
 20
1165.26039
 30
0.0
 11
545.448211
 21
1125.168756
 31
0.0
  0
LINE
  5
6AC
100
AcDbEntity
  8
001
100
AcDbLine
 10
559.428203
 20
1157.214573
 30
0.0
 11
545.571797
 21
1157.214573
 31
0.0
  0
LINE
  5
6AD
100
AcDbEntity
  8
001
100
AcDbLine
 10
559.428203
 20
1133.214573
 30
0.0
 11
545.571797
 21
1133.214573
 31
0.0
  0
CIRCLE
  5
6AE
100
AcDbEntity
  8
001
100
AcDbCircle
 10
552.5
 20
1145.214573
 30
0.0
 40
11.5
  0
CIRCLE
  5
6AF
100
AcDbEntity
  8
001
100
AcDbCircle
 10
552.5
 20
1145.214573
 30
0.0
 40
15.0
  0
LINE
  5
6B0
100
AcDbEntity
  8
001
100
AcDbLine
 10
538.643594
 20
1145.214573
 30
0.0
 11
545.571797
 21
1133.214573
 31
0.0
  0
LINE
  5
6B1
100
AcDbEntity
  8
001
100
AcDbLine
 10
566.356406
 20
1145.214573
 30
0.0
 11
559.428203
 21
1157.214573
 31
0.0
  0
LINE
  5
6B2
100
AcDbEntity
  8
001
100
AcDbLine
 10
545.571797
 20
1157.214573
 30
0.0
 11
538.643594
 21
1145.214573
 31
0.0
  0
LINE
  5
6B3
100
AcDbEntity
  8
001
100
AcDbLine
 10
559.428203
 20
1133.214573
 30
0.0
 11
566.356406
 21
1145.214573
 31
0.0
  0
CIRCLE
  5
6B4
100
AcDbEntity
  8
001
100
AcDbCircle
 10
552.5
 20
1145.214573
 30
0.0
 40
8.0
  0
CIRCLE
  5
6B5
100
AcDbEntity
  8
001
100
AcDbCircle
 10
552.5
 20
1145.214573
 30
0.0
 40
6.92
  0
ARC
  5
6B6
100
AcDbEntity
  8
001
  6
CENTER
100
AcDbCircle
 10
118.5
 20
1265.714573
 30
0.0
 40
565.333972
100
AcDbArc
 50
2.462651
 51
6.770053
  0
LINE
  5
6B7
100
AcDbEntity
  8
001
  6
CENTER
100
AcDbLine
 10
660.818936
 20
1309.504301
 30
0.0
 11
703.181064
 21
1312.924845
 31
0.0
  0
LINE
  5
6B8
100
AcDbEntity
  8
001
100
AcDbLine
 10
675.071797
 20
1299.214573
 30
0.0
 11
688.928203
 21
1299.214573
 31
0.0
  0
LINE
  5
6B9
100
AcDbEntity
  8
001
100
AcDbLine
 10
675.071797
 20
1323.214573
 30
0.0
 11
688.928203
 21
1323.214573
 31
0.0
  0
CIRCLE
  5
6BA
100
AcDbEntity
  8
001
100
AcDbCircle
 10
682.0
 20
1311.214573
 30
0.0
 40
11.5
  0
CIRCLE
  5
6BB
100
AcDbEntity
  8
001
100
AcDbCircle
 10
682.0
 20
1311.214573
 30
0.0
 40
15.0
  0
LINE
  5
6BC
100
AcDbEntity
  8
001
100
AcDbLine
 10
695.856406
 20
1311.214573
 30
0.0
 11
688.928203
 21
1323.214573
 31
0.0
  0
LINE
  5
6BD
100
AcDbEntity
  8
001
100
AcDbLine
 10
668.143594
 20
1311.214573
 30
0.0
 11
675.071797
 21
1299.214573
 31
0.0
  0
LINE
  5
6BE
100
AcDbEntity
  8
001
100
AcDbLine
 10
688.928203
 20
1299.214573
 30
0.0
 11
695.856406
 21
1311.214573
 31
0.0
  0
LINE
  5
6BF
100
AcDbEntity
  8
001
100
AcDbLine
 10
675.071797
 20
1323.214573
 30
0.0
 11
668.143594
 21
1311.214573
 31
0.0
  0
CIRCLE
  5
6C0
100
AcDbEntity
  8
001
100
AcDbCircle
 10
682.0
 20
1311.214573
 30
0.0
 40
8.0
  0
CIRCLE
  5
6C1
100
AcDbEntity
  8
001
100
AcDbCircle
 10
682.0
 20
1311.214573
 30
0.0
 40
6.92
  0
ARC
  5
6C2
100
AcDbEntity
  8
001
  6
CENTER
100
AcDbCircle
 10
623.969836
 20
1333.539678
 30
0.0
 40
55.839158
100
AcDbArc
 50
48.767979
 51
72.073977
  0
ARC
  5
6C3
100
AcDbEntity
  8
001
  6
CENTER
100
AcDbCircle
 10
597.5
 20
1251.714573
 30
0.0
 40
141.839158
100
AcDbArc
 50
72.073977
 51
80.088151
  0
LINE
  5
6C4
100
AcDbEntity
  8
001
  6
CENTER
100
AcDbLine
 10
635.448211
 20
1366.168756
 30
0.0
 11
649.551789
 21
1406.26039
 31
0.0
  0
LINE
  5
6C5
100
AcDbEntity
  8
001
100
AcDbLine
 10
635.571797
 20
1374.214573
 30
0.0
 11
649.428203
 21
1374.214573
 31
0.0
  0
LINE
  5
6C6
100
AcDbEntity
  8
001
100
AcDbLine
 10
635.571797
 20
1398.214573
 30
0.0
 11
649.428203
 21
1398.214573
 31
0.0
  0
CIRCLE
  5
6C7
100
AcDbEntity
  8
001
100
AcDbCircle
 10
642.5
 20
1386.214573
 30
0.0
 40
11.5
  0
CIRCLE
  5
6C8
100
AcDbEntity
  8
001
100
AcDbCircle
 10
642.5
 20
1386.214573
 30
0.0
 40
15.0
  0
LINE
  5
6C9
100
AcDbEntity
  8
001
100
AcDbLine
 10
656.356406
 20
1386.214573
 30
0.0
 11
649.428203
 21
1398.214573
 31
0.0
  0
LINE
  5
6CA
100
AcDbEntity
  8
001
100
AcDbLine
 10
628.643594
 20
1386.214573
 30
0.0
 11
635.571797
 21
1374.214573
 31
0.0
  0
LINE
  5
6CB
100
AcDbEntity
  8
001
100
AcDbLine
 10
649.428203
 20
1374.214573
 30
0.0
 11
656.356406
 21
1386.214573
 31
0.0
  0
LINE
  5
6CC
100
AcDbEntity
  8
001
100
AcDbLine
 10
635.571797
 20
1398.214573
 30
0.0
 11
628.643594
 21
1386.214573
 31
0.0
  0
CIRCLE
  5
6CD
100
AcDbEntity
  8
001
100
AcDbCircle
 10
642.5
 20
1386.214573
 30
0.0
 40
8.0
  0
CIRCLE
  5
6CE
100
AcDbEntity
  8
001
100
AcDbCircle
 10
642.5
 20
1386.214573
 30
0.0
 40
6.92
  0
ARC
  5
6CF
100
AcDbEntity
  8
001
  6
CENTER
100
AcDbCircle
 10
1076.5
 20
1265.714573
 30
0.0
 40
565.333972
100
AcDbArc
 50
173.229947
 51
177.537349
  0
LINE
  5
6D0
100
AcDbEntity
  8
001
  6
CENTER
100
AcDbLine
 10
534.181064
 20
1309.504301
 30
0.0
 11
491.818936
 21
1312.924845
 31
0.0
  0
LINE
  5
6D1
100
AcDbEntity
  8
001
100
AcDbLine
 10
519.928203
 20
1299.214573
 30
0.0
 11
506.071797
 21
1299.214573
 31
0.0
  0
LINE
  5
6D2
100
AcDbEntity
  8
001
100
AcDbLine
 10
519.928203
 20
1323.214573
 30
0.0
 11
506.071797
 21
1323.214573
 31
0.0
  0
CIRCLE
  5
6D3
100
AcDbEntity
  8
001
100
AcDbCircle
 10
513.0
 20
1311.214573
 30
0.0
 40
11.5
  0
CIRCLE
  5
6D4
100
AcDbEntity
  8
001
100
AcDbCircle
 10
513.0
 20
1311.214573
 30
0.0
 40
15.0
  0
LINE
  5
6D5
100
AcDbEntity
  8
001
100
AcDbLine
 10
499.143594
 20
1311.214573
 30
0.0
 11
506.071797
 21
1323.214573
 31
0.0
  0
LINE
  5
6D6
100
AcDbEntity
  8
001
100
AcDbLine
 10
526.856406
 20
1311.214573
 30
0.0
 11
519.928203
 21
1299.214573
 31
0.0
  0
LINE
  5
6D7
100
AcDbEntity
  8
001
100
AcDbLine
 10
506.071797
 20
1299.214573
 30
0.0
 11
499.143594
 21
1311.214573
 31
0.0
  0
LINE
  5
6D8
100
AcDbEntity
  8
001
100
AcDbLine
 10
519.928203
 20
1323.214573
 30
0.0
 11
526.856406
 21
1311.214573
 31
0.0
  0
CIRCLE
  5
6D9
100
AcDbEntity
  8
001
100
AcDbCircle
 10
513.0
 20
1311.214573
 30
0.0
 40
8.0
  0
CIRCLE
  5
6DA
100
AcDbEntity
  8
001
100
AcDbCircle
 10
513.0
 20
1311.214573
 30
0.0
 40
6.92
  0
ARC
  5
6DB
100
AcDbEntity
  8
001
  6
CENTER
100
AcDbCircle
 10
571.030164
 20
1333.539678
 30
0.0
 40
55.839158
100
AcDbArc
 50
107.926023
 51
131.232021
  0
ARC
  5
6DC
100
AcDbEntity
  8
001
  6
CENTER
100
AcDbCircle
 10
597.5
 20
1251.714573
 30
0.0
 40
141.839158
100
AcDbArc
 50
99.911849
 51
107.926023
  0
LINE
  5
6DD
100
AcDbEntity
  8
001
  6
CENTER
100
AcDbLine
 10
559.551789
 20
1366.168756
 30
0.0
 11
545.448211
 21
1406.26039
 31
0.0
  0
LINE
  5
6DE
100
AcDbEntity
  8
001
100
AcDbLine
 10
559.428203
 20
1374.214573
 30
0.0
 11
545.571797
 21
1374.214573
 31
0.0
  0
LINE
  5
6DF
100
AcDbEntity
  8
001
100
AcDbLine
 10
559.428203
 20
1398.214573
 30
0.0
 11
545.571797
 21
1398.214573
 31
0.0
  0
CIRCLE
  5
6E0
100
AcDbEntity
  8
001
100
AcDbCircle
 10
552.5
 20
1386.214573
 30
0.0
 40
11.5
  0
CIRCLE
  5
6E1
100
AcDbEntity
  8
001
100
AcDbCircle
 10
552.5
 20
1386.214573
 30
0.0
 40
15.0
  0
LINE
  5
6E2
100
AcDbEntity
  8
001
100
AcDbLine
 10
538.643594
 20
1386.214573
 30
0.0
 11
545.571797
 21
1398.214573
 31
0.0
  0
LINE
  5
6E3
100
AcDbEntity
  8
001
100
AcDbLine
 10
566.356406
 20
1386.214573
 30
0.0
 11
559.428203
 21
1374.214573
 31
0.0
  0
LINE
  5
6E4
100
AcDbEntity
  8
001
100
AcDbLine
 10
545.571797
 20
1374.214573
 30
0.0
 11
538.643594
 21
1386.214573
 31
0.0
  0
LINE
  5
6E5
100
AcDbEntity
  8
001
100
AcDbLine
 10
559.428203
 20
1398.214573
 30
0.0
 11
566.356406
 21
1386.214573
 31
0.0
  0
CIRCLE
  5
6E6
100
AcDbEntity
  8
001
100
AcDbCircle
 10
552.5
 20
1386.214573
 30
0.0
 40
8.0
  0
CIRCLE
  5
6E7
100
AcDbEntity
  8
001
100
AcDbCircle
 10
552.5
 20
1386.214573
 30
0.0
 40
6.92
  0
LINE
  5
6E8
100
AcDbEntity
  8
001
100
AcDbLine
 10
498.0
 20
561.3
 30
0.0
 11
528.0
 21
561.3
 31
0.0
  0
LINE
  5
6E9
100
AcDbEntity
  8
001
100
AcDbLine
 10
1202.0
 20
561.3
 30
0.0
 11
1232.0
 21
561.3
 31
0.0
  0
LINE
  5
6EA
100
AcDbEntity
  8
001
100
AcDbLine
 10
498.0
 20
600.7
 30
0.0
 11
528.0
 21
600.7
 31
0.0
  0
LINE
  5
6EB
100
AcDbEntity
  8
001
100
AcDbLine
 10
1202.0
 20
600.7
 30
0.0
 11
1232.0
 21
600.7
 31
0.0
  0
LINE
  5
6EC
100
AcDbEntity
  8
001
100
AcDbLine
 10
528.0
 20
561.3
 30
0.0
 11
528.0
 21
564.5
 31
0.0
  0
LINE
  5
6ED
100
AcDbEntity
  8
001
100
AcDbLine
 10
498.0
 20
561.3
 30
0.0
 11
498.0
 21
564.5
 31
0.0
  0
LINE
  5
6EE
100
AcDbEntity
  8
001
100
AcDbLine
 10
1232.0
 20
561.3
 30
0.0
 11
1232.0
 21
564.5
 31
0.0
  0
LINE
  5
6EF
100
AcDbEntity
  8
001
100
AcDbLine
 10
1202.0
 20
561.3
 30
0.0
 11
1202.0
 21
564.5
 31
0.0
  0
LINE
  5
6F0
100
AcDbEntity
  8
001
100
AcDbLine
 10
528.0
 20
597.5
 30
0.0
 11
528.0
 21
600.7
 31
0.0
  0
LINE
  5
6F1
100
AcDbEntity
  8
001
100
AcDbLine
 10
498.0
 20
597.5
 30
0.0
 11
498.0
 21
600.7
 31
0.0
  0
LINE
  5
6F2
100
AcDbEntity
  8
001
100
AcDbLine
 10
1232.0
 20
597.5
 30
0.0
 11
1232.0
 21
600.7
 31
0.0
  0
LINE
  5
6F3
100
AcDbEntity
  8
001
100
AcDbLine
 10
1202.0
 20
597.5
 30
0.0
 11
1202.0
 21
600.7
 31
0.0
  0
ARC
  5
6F4
100
AcDbEntity
  8
001
100
AcDbCircle
 10
542.107706
 20
557.722668
 30
0.0
 40
6.134002
100
AcDbArc
 50
244.384083
 51
304.384093
  0
ARC
  5
6F5
100
AcDbEntity
  8
001
100
AcDbCircle
 10
552.50001
 20
574.516934
 30
0.0
 40
22.928265
100
AcDbArc
 50
252.412107
 51
287.587884
  0
ARC
  5
6F6
100
AcDbEntity
  8
001
100
AcDbCircle
 10
562.892302
 20
557.722668
 30
0.0
 40
6.134002
100
AcDbArc
 50
235.615848
 51
295.615852
  0
LINE
  5
6F7
100
AcDbEntity
  8
001
100
AcDbLine
 10
541.000002
 20
551.3
 30
0.0
 11
538.643602
 21
552.660458
 31
0.0
  0
LINE
  5
6F8
100
AcDbEntity
  8
001
100
AcDbLine
 10
563.999998
 20
551.3
 30
0.0
 11
566.356398
 21
552.660458
 31
0.0
  0
LINE
  5
6F9
100
AcDbEntity
  8
001
100
AcDbLine
 10
541.000002
 20
551.3
 30
0.0
 11
563.999998
 21
551.3
 31
0.0
  0
LINE
  5
6FA
100
AcDbEntity
  8
001
100
AcDbLine
 10
538.643602
 20
561.3
 30
0.0
 11
538.643602
 21
552.660458
 31
0.0
  0
LINE
  5
6FB
100
AcDbEntity
  8
001
100
AcDbLine
 10
545.57181
 20
561.3
 30
0.0
 11
545.57181
 21
552.660458
 31
0.0
  0
LINE
  5
6FC
100
AcDbEntity
  8
001
100
AcDbLine
 10
559.428205
 20
561.3
 30
0.0
 11
559.428205
 21
552.660458
 31
0.0
  0
LINE
  5
6FD
100
AcDbEntity
  8
001
100
AcDbLine
 10
566.356398
 20
561.3
 30
0.0
 11
566.356398
 21
552.660458
 31
0.0
  0
LINE
  5
6FE
100
AcDbEntity
  8
001
100
AcDbLine
 10
537.5
 20
561.3
 30
0.0
 11
567.5
 21
561.3
 31
0.0
  0
LINE
  5
6FF
100
AcDbEntity
  8
001
100
AcDbLine
 10
567.5
 20
561.3
 30
0.0
 11
567.5
 21
564.5
 31
0.0
  0
LINE
  5
700
100
AcDbEntity
  8
001
100
AcDbLine
 10
537.5
 20
561.3
 30
0.0
 11
537.5
 21
564.5
 31
0.0
  0
ARC
  5
701
100
AcDbEntity
  8
001
100
AcDbCircle
 10
632.107706
 20
557.722668
 30
0.0
 40
6.134002
100
AcDbArc
 50
244.384083
 51
304.384093
  0
ARC
  5
702
100
AcDbEntity
  8
001
100
AcDbCircle
 10
642.50001
 20
574.516934
 30
0.0
 40
22.928265
100
AcDbArc
 50
252.412107
 51
287.587884
  0
ARC
  5
703
100
AcDbEntity
  8
001
100
AcDbCircle
 10
652.892302
 20
557.722668
 30
0.0
 40
6.134002
100
AcDbArc
 50
235.615848
 51
295.615852
  0
LINE
  5
704
100
AcDbEntity
  8
001
100
AcDbLine
 10
631.000002
 20
551.3
 30
0.0
 11
628.643602
 21
552.660458
 31
0.0
  0
LINE
  5
705
100
AcDbEntity
  8
001
100
AcDbLine
 10
653.999998
 20
551.3
 30
0.0
 11
656.356398
 21
552.660458
 31
0.0
  0
LINE
  5
706
100
AcDbEntity
  8
001
100
AcDbLine
 10
631.000002
 20
551.3
 30
0.0
 11
653.999998
 21
551.3
 31
0.0
  0
LINE
  5
707
100
AcDbEntity
  8
001
100
AcDbLine
 10
628.643602
 20
561.3
 30
0.0
 11
628.643602
 21
552.660458
 31
0.0
  0
LINE
  5
708
100
AcDbEntity
  8
001
100
AcDbLine
 10
635.57181
 20
561.3
 30
0.0
 11
635.57181
 21
552.660458
 31
0.0
  0
LINE
  5
709
100
AcDbEntity
  8
001
100
AcDbLine
 10
649.428205
 20
561.3
 30
0.0
 11
649.428205
 21
552.660458
 31
0.0
  0
LINE
  5
70A
100
AcDbEntity
  8
001
100
AcDbLine
 10
656.356398
 20
561.3
 30
0.0
 11
656.356398
 21
552.660458
 31
0.0
  0
LINE
  5
70B
100
AcDbEntity
  8
001
100
AcDbLine
 10
627.5
 20
561.3
 30
0.0
 11
657.5
 21
561.3
 31
0.0
  0
LINE
  5
70C
100
AcDbEntity
  8
001
100
AcDbLine
 10
657.5
 20
561.3
 30
0.0
 11
657.5
 21
564.5
 31
0.0
  0
LINE
  5
70D
100
AcDbEntity
  8
001
100
AcDbLine
 10
627.5
 20
561.3
 30
0.0
 11
627.5
 21
564.5
 31
0.0
  0
ARC
  5
70E
100
AcDbEntity
  8
001
100
AcDbCircle
 10
671.607706
 20
557.722668
 30
0.0
 40
6.134002
100
AcDbArc
 50
244.384083
 51
304.384093
  0
ARC
  5
70F
100
AcDbEntity
  8
001
100
AcDbCircle
 10
682.00001
 20
574.516934
 30
0.0
 40
22.928265
100
AcDbArc
 50
252.412107
 51
287.587884
  0
ARC
  5
710
100
AcDbEntity
  8
001
100
AcDbCircle
 10
692.392302
 20
557.722668
 30
0.0
 40
6.134002
100
AcDbArc
 50
235.615848
 51
295.615852
  0
LINE
  5
711
100
AcDbEntity
  8
001
100
AcDbLine
 10
670.500002
 20
551.3
 30
0.0
 11
668.143602
 21
552.660458
 31
0.0
  0
LINE
  5
712
100
AcDbEntity
  8
001
100
AcDbLine
 10
693.499998
 20
551.3
 30
0.0
 11
695.856398
 21
552.660458
 31
0.0
  0
LINE
  5
713
100
AcDbEntity
  8
001
100
AcDbLine
 10
670.500002
 20
551.3
 30
0.0
 11
693.499998
 21
551.3
 31
0.0
  0
LINE
  5
714
100
AcDbEntity
  8
001
100
AcDbLine
 10
668.143602
 20
561.3
 30
0.0
 11
668.143602
 21
552.660458
 31
0.0
  0
LINE
  5
715
100
AcDbEntity
  8
001
100
AcDbLine
 10
675.07181
 20
561.3
 30
0.0
 11
675.07181
 21
552.660458
 31
0.0
  0
LINE
  5
716
100
AcDbEntity
  8
001
100
AcDbLine
 10
688.928205
 20
561.3
 30
0.0
 11
688.928205
 21
552.660458
 31
0.0
  0
LINE
  5
717
100
AcDbEntity
  8
001
100
AcDbLine
 10
695.856398
 20
561.3
 30
0.0
 11
695.856398
 21
552.660458
 31
0.0
  0
LINE
  5
718
100
AcDbEntity
  8
001
100
AcDbLine
 10
667.0
 20
561.3
 30
0.0
 11
697.0
 21
561.3
 31
0.0
  0
LINE
  5
719
100
AcDbEntity
  8
001
100
AcDbLine
 10
697.0
 20
561.3
 30
0.0
 11
697.0
 21
564.5
 31
0.0
  0
LINE
  5
71A
100
AcDbEntity
  8
001
100
AcDbLine
 10
667.0
 20
561.3
 30
0.0
 11
667.0
 21
564.5
 31
0.0
  0
ARC
  5
71B
100
AcDbEntity
  8
001
100
AcDbCircle
 10
542.107697
 20
607.277316
 30
0.0
 40
6.134002
100
AcDbArc
 50
55.615848
 51
115.615852
  0
ARC
  5
71C
100
AcDbEntity
  8
001
100
AcDbCircle
 10
552.5
 20
590.483051
 30
0.0
 40
22.928265
100
AcDbArc
 50
72.412089
 51
107.587875
  0
ARC
  5
71D
100
AcDbEntity
  8
001
100
AcDbCircle
 10
562.892303
 20
607.277316
 30
0.0
 40
6.134002
100
AcDbArc
 50
64.384148
 51
124.384152
  0
LINE
  5
71E
100
AcDbEntity
  8
001
100
AcDbLine
 10
541.0
 20
613.7
 30
0.0
 11
538.6436
 21
612.339526
 31
0.0
  0
LINE
  5
71F
100
AcDbEntity
  8
001
100
AcDbLine
 10
564.0
 20
613.7
 30
0.0
 11
566.3564
 21
612.339526
 31
0.0
  0
LINE
  5
720
100
AcDbEntity
  8
001
100
AcDbLine
 10
541.0
 20
613.7
 30
0.0
 11
564.0
 21
613.7
 31
0.0
  0
LINE
  5
721
100
AcDbEntity
  8
001
100
AcDbLine
 10
538.6436
 20
600.7
 30
0.0
 11
538.6436
 21
612.339526
 31
0.0
  0
LINE
  5
722
100
AcDbEntity
  8
001
100
AcDbLine
 10
545.571808
 20
600.7
 30
0.0
 11
545.571808
 21
612.339526
 31
0.0
  0
LINE
  5
723
100
AcDbEntity
  8
001
100
AcDbLine
 10
559.428207
 20
600.7
 30
0.0
 11
559.428207
 21
612.339526
 31
0.0
  0
LINE
  5
724
100
AcDbEntity
  8
001
100
AcDbLine
 10
566.3564
 20
600.7
 30
0.0
 11
566.3564
 21
612.339526
 31
0.0
  0
LINE
  5
725
100
AcDbEntity
  8
001
100
AcDbLine
 10
537.5
 20
600.7
 30
0.0
 11
567.5
 21
600.7
 31
0.0
  0
LINE
  5
726
100
AcDbEntity
  8
001
100
AcDbLine
 10
567.5
 20
597.5
 30
0.0
 11
567.5
 21
600.7
 31
0.0
  0
LINE
  5
727
100
AcDbEntity
  8
001
100
AcDbLine
 10
537.5
 20
597.5
 30
0.0
 11
537.5
 21
600.7
 31
0.0
  0
ARC
  5
728
100
AcDbEntity
  8
001
100
AcDbCircle
 10
632.107697
 20
607.277316
 30
0.0
 40
6.134002
100
AcDbArc
 50
55.615848
 51
115.615852
  0
ARC
  5
729
100
AcDbEntity
  8
001
100
AcDbCircle
 10
642.5
 20
590.483051
 30
0.0
 40
22.928265
100
AcDbArc
 50
72.412089
 51
107.587875
  0
ARC
  5
72A
100
AcDbEntity
  8
001
100
AcDbCircle
 10
652.892303
 20
607.277316
 30
0.0
 40
6.134002
100
AcDbArc
 50
64.384148
 51
124.384152
  0
LINE
  5
72B
100
AcDbEntity
  8
001
100
AcDbLine
 10
631.0
 20
613.7
 30
0.0
 11
628.6436
 21
612.339526
 31
0.0
  0
LINE
  5
72C
100
AcDbEntity
  8
001
100
AcDbLine
 10
654.0
 20
613.7
 30
0.0
 11
656.3564
 21
612.339526
 31
0.0
  0
LINE
  5
72D
100
AcDbEntity
  8
001
100
AcDbLine
 10
631.0
 20
613.7
 30
0.0
 11
654.0
 21
613.7
 31
0.0
  0
LINE
  5
72E
100
AcDbEntity
  8
001
100
AcDbLine
 10
628.6436
 20
600.7
 30
0.0
 11
628.6436
 21
612.339526
 31
0.0
  0
LINE
  5
72F
100
AcDbEntity
  8
001
100
AcDbLine
 10
635.571808
 20
600.7
 30
0.0
 11
635.571808
 21
612.339526
 31
0.0
  0
LINE
  5
730
100
AcDbEntity
  8
001
100
AcDbLine
 10
649.428207
 20
600.7
 30
0.0
 11
649.428207
 21
612.339526
 31
0.0
  0
LINE
  5
731
100
AcDbEntity
  8
001
100
AcDbLine
 10
656.3564
 20
600.7
 30
0.0
 11
656.3564
 21
612.339526
 31
0.0
  0
LINE
  5
732
100
AcDbEntity
  8
001
100
AcDbLine
 10
627.5
 20
600.7
 30
0.0
 11
657.5
 21
600.7
 31
0.0
  0
LINE
  5
733
100
AcDbEntity
  8
001
100
AcDbLine
 10
657.5
 20
597.5
 30
0.0
 11
657.5
 21
600.7
 31
0.0
  0
LINE
  5
734
100
AcDbEntity
  8
001
100
AcDbLine
 10
627.5
 20
597.5
 30
0.0
 11
627.5
 21
600.7
 31
0.0
  0
ARC
  5
735
100
AcDbEntity
  8
001
100
AcDbCircle
 10
671.607697
 20
607.277316
 30
0.0
 40
6.134002
100
AcDbArc
 50
55.615848
 51
115.615852
  0
ARC
  5
736
100
AcDbEntity
  8
001
100
AcDbCircle
 10
682.0
 20
590.483051
 30
0.0
 40
22.928265
100
AcDbArc
 50
72.412089
 51
107.587875
  0
ARC
  5
737
100
AcDbEntity
  8
001
100
AcDbCircle
 10
692.392303
 20
607.277316
 30
0.0
 40
6.134002
100
AcDbArc
 50
64.384148
 51
124.384152
  0
LINE
  5
738
100
AcDbEntity
  8
001
100
AcDbLine
 10
670.5
 20
613.7
 30
0.0
 11
668.1436
 21
612.339526
 31
0.0
  0
LINE
  5
739
100
AcDbEntity
  8
001
100
AcDbLine
 10
693.5
 20
613.7
 30
0.0
 11
695.8564
 21
612.339526
 31
0.0
  0
LINE
  5
73A
100
AcDbEntity
  8
001
100
AcDbLine
 10
670.5
 20
613.7
 30
0.0
 11
693.5
 21
613.7
 31
0.0
  0
LINE
  5
73B
100
AcDbEntity
  8
001
100
AcDbLine
 10
668.1436
 20
600.7
 30
0.0
 11
668.1436
 21
612.339526
 31
0.0
  0
LINE
  5
73C
100
AcDbEntity
  8
001
100
AcDbLine
 10
675.071808
 20
600.7
 30
0.0
 11
675.071808
 21
612.339526
 31
0.0
  0
LINE
  5
73D
100
AcDbEntity
  8
001
100
AcDbLine
 10
688.928207
 20
600.7
 30
0.0
 11
688.928207
 21
612.339526
 31
0.0
  0
LINE
  5
73E
100
AcDbEntity
  8
001
100
AcDbLine
 10
695.8564
 20
600.7
 30
0.0
 11
695.8564
 21
612.339526
 31
0.0
  0
LINE
  5
73F
100
AcDbEntity
  8
001
100
AcDbLine
 10
667.0
 20
600.7
 30
0.0
 11
697.0
 21
600.7
 31
0.0
  0
LINE
  5
740
100
AcDbEntity
  8
001
100
AcDbLine
 10
697.0
 20
597.5
 30
0.0
 11
697.0
 21
600.7
 31
0.0
  0
LINE
  5
741
100
AcDbEntity
  8
001
100
AcDbLine
 10
667.0
 20
597.5
 30
0.0
 11
667.0
 21
600.7
 31
0.0
  0
LINE
  5
742
100
AcDbEntity
  8
001
100
AcDbLine
 10
505.0
 20
619.3
 30
0.0
 11
521.0
 21
619.3
 31
0.0
  0
ARC
  5
743
100
AcDbEntity
  8
001
100
AcDbCircle
 10
513.0
 20
604.3
 30
0.0
 40
17.0
100
AcDbArc
 50
61.927513
 51
118.072487
  0
LINE
  5
744
100
AcDbEntity
  8
001
100
AcDbLine
 10
505.0
 20
613.7
 30
0.0
 11
505.0
 21
619.3
 31
0.0
  0
LINE
  5
745
100
AcDbEntity
  8
001
100
AcDbLine
 10
521.0
 20
613.7
 30
0.0
 11
521.0
 21
619.3
 31
0.0
  0
LINE
  5
746
100
AcDbEntity
  8
001
100
AcDbLine
 10
519.92
 20
613.7
 30
0.0
 11
519.92
 21
619.827833
 31
0.0
  0
LINE
  5
747
100
AcDbEntity
  8
001
100
AcDbLine
 10
506.08
 20
613.7
 30
0.0
 11
506.08
 21
619.827833
 31
0.0
  0
LINE
  5
748
100
AcDbEntity
  8
001
  6
CENTER
100
AcDbLine
 10
552.5
 20
545.05
 30
0.0
 11
552.5
 21
627.55
 31
0.0
  0
LINE
  5
749
100
AcDbEntity
  8
001
100
AcDbLine
 10
544.5
 20
619.3
 30
0.0
 11
560.5
 21
619.3
 31
0.0
  0
ARC
  5
74A
100
AcDbEntity
  8
001
100
AcDbCircle
 10
552.5
 20
604.3
 30
0.0
 40
17.0
100
AcDbArc
 50
61.927513
 51
118.072487
  0
LINE
  5
74B
100
AcDbEntity
  8
001
100
AcDbLine
 10
544.5
 20
613.7
 30
0.0
 11
544.5
 21
619.3
 31
0.0
  0
LINE
  5
74C
100
AcDbEntity
  8
001
100
AcDbLine
 10
560.5
 20
613.7
 30
0.0
 11
560.5
 21
619.3
 31
0.0
  0
LINE
  5
74D
100
AcDbEntity
  8
001
100
AcDbLine
 10
559.42
 20
613.7
 30
0.0
 11
559.42
 21
619.827833
 31
0.0
  0
LINE
  5
74E
100
AcDbEntity
  8
001
100
AcDbLine
 10
545.58
 20
613.7
 30
0.0
 11
545.58
 21
619.827833
 31
0.0
  0
LINE
  5
74F
100
AcDbEntity
  8
001
  6
CENTER
100
AcDbLine
 10
642.5
 20
545.05
 30
0.0
 11
642.5
 21
627.55
 31
0.0
  0
LINE
  5
750
100
AcDbEntity
  8
001
100
AcDbLine
 10
634.5
 20
619.3
 30
0.0
 11
650.5
 21
619.3
 31
0.0
  0
ARC
  5
751
100
AcDbEntity
  8
001
100
AcDbCircle
 10
642.5
 20
604.3
 30
0.0
 40
17.0
100
AcDbArc
 50
61.927513
 51
118.072487
  0
LINE
  5
752
100
AcDbEntity
  8
001
100
AcDbLine
 10
634.5
 20
613.7
 30
0.0
 11
634.5
 21
619.3
 31
0.0
  0
LINE
  5
753
100
AcDbEntity
  8
001
100
AcDbLine
 10
650.5
 20
613.7
 30
0.0
 11
650.5
 21
619.3
 31
0.0
  0
LINE
  5
754
100
AcDbEntity
  8
001
100
AcDbLine
 10
649.42
 20
613.7
 30
0.0
 11
649.42
 21
619.827833
 31
0.0
  0
LINE
  5
755
100
AcDbEntity
  8
001
100
AcDbLine
 10
635.58
 20
613.7
 30
0.0
 11
635.58
 21
619.827833
 31
0.0
  0
LINE
  5
756
100
AcDbEntity
  8
001
  6
CENTER
100
AcDbLine
 10
682.0
 20
545.05
 30
0.0
 11
682.0
 21
627.55
 31
0.0
  0
LINE
  5
757
100
AcDbEntity
  8
001
100
AcDbLine
 10
674.0
 20
619.3
 30
0.0
 11
690.0
 21
619.3
 31
0.0
  0
ARC
  5
758
100
AcDbEntity
  8
001
100
AcDbCircle
 10
682.0
 20
604.3
 30
0.0
 40
17.0
100
AcDbArc
 50
61.927513
 51
118.072487
  0
LINE
  5
759
100
AcDbEntity
  8
001
100
AcDbLine
 10
674.0
 20
613.7
 30
0.0
 11
674.0
 21
619.3
 31
0.0
  0
LINE
  5
75A
100
AcDbEntity
  8
001
100
AcDbLine
 10
690.0
 20
613.7
 30
0.0
 11
690.0
 21
619.3
 31
0.0
  0
LINE
  5
75B
100
AcDbEntity
  8
001
100
AcDbLine
 10
688.92
 20
613.7
 30
0.0
 11
688.92
 21
619.827833
 31
0.0
  0
LINE
  5
75C
100
AcDbEntity
  8
001
100
AcDbLine
 10
675.08
 20
613.7
 30
0.0
 11
675.08
 21
619.827833
 31
0.0
  0
ARC
  5
75D
100
AcDbEntity
  8
001
100
AcDbCircle
 10
1286.0
 20
568.918851
 30
0.0
 40
17.330189
100
AcDbArc
 50
249.743913
 51
290.256087
  0
ARC
  5
75E
100
AcDbEntity
  8
001
100
AcDbCircle
 10
1298.0
 20
568.918851
 30
0.0
 40
17.330189
100
AcDbArc
 50
249.743913
 51
290.256087
  0
LINE
  5
75F
100
AcDbEntity
  8
001
100
AcDbLine
 10
1280.0
 20
551.588666
 30
0.0
 11
1280.5
 21
551.3
 31
0.0
  0
LINE
  5
760
100
AcDbEntity
  8
001
100
AcDbLine
 10
1304.0
 20
551.588666
 30
0.0
 11
1303.5
 21
551.3
 31
0.0
  0
LINE
  5
761
100
AcDbEntity
  8
001
100
AcDbLine
 10
1280.5
 20
551.3
 30
0.0
 11
1303.500015
 21
551.3
 31
0.0
  0
LINE
  5
762
100
AcDbEntity
  8
001
100
AcDbLine
 10
1304.0
 20
561.3
 30
0.0
 11
1304.0
 21
551.588666
 31
0.0
  0
LINE
  5
763
100
AcDbEntity
  8
001
100
AcDbLine
 10
1292.0
 20
561.3
 30
0.0
 11
1292.0
 21
552.660458
 31
0.0
  0
LINE
  5
764
100
AcDbEntity
  8
001
100
AcDbLine
 10
1280.0
 20
561.3
 30
0.0
 11
1280.0
 21
551.588666
 31
0.0
  0
LINE
  5
765
100
AcDbEntity
  8
001
100
AcDbLine
 10
1277.0
 20
561.3
 30
0.0
 11
1307.0
 21
561.3
 31
0.0
  0
LINE
  5
766
100
AcDbEntity
  8
001
100
AcDbLine
 10
1307.0
 20
561.3
 30
0.0
 11
1307.0
 21
564.5
 31
0.0
  0
LINE
  5
767
100
AcDbEntity
  8
001
100
AcDbLine
 10
1277.0
 20
561.3
 30
0.0
 11
1277.0
 21
564.5
 31
0.0
  0
ARC
  5
768
100
AcDbEntity
  8
001
100
AcDbCircle
 10
1377.0
 20
568.918851
 30
0.0
 40
17.330189
100
AcDbArc
 50
249.743913
 51
290.256087
  0
ARC
  5
769
100
AcDbEntity
  8
001
100
AcDbCircle
 10
1389.0
 20
568.918851
 30
0.0
 40
17.330189
100
AcDbArc
 50
249.743913
 51
290.256087
  0
LINE
  5
76A
100
AcDbEntity
  8
001
100
AcDbLine
 10
1371.0
 20
551.588666
 30
0.0
 11
1371.5
 21
551.3
 31
0.0
  0
LINE
  5
76B
100
AcDbEntity
  8
001
100
AcDbLine
 10
1395.0
 20
551.588666
 30
0.0
 11
1394.5
 21
551.3
 31
0.0
  0
LINE
  5
76C
100
AcDbEntity
  8
001
100
AcDbLine
 10
1371.5
 20
551.3
 30
0.0
 11
1394.500015
 21
551.3
 31
0.0
  0
LINE
  5
76D
100
AcDbEntity
  8
001
100
AcDbLine
 10
1395.0
 20
561.3
 30
0.0
 11
1395.0
 21
551.588666
 31
0.0
  0
LINE
  5
76E
100
AcDbEntity
  8
001
100
AcDbLine
 10
1383.0
 20
561.3
 30
0.0
 11
1383.0
 21
552.660458
 31
0.0
  0
LINE
  5
76F
100
AcDbEntity
  8
001
100
AcDbLine
 10
1371.0
 20
561.3
 30
0.0
 11
1371.0
 21
551.588666
 31
0.0
  0
LINE
  5
770
100
AcDbEntity
  8
001
100
AcDbLine
 10
1368.0
 20
561.3
 30
0.0
 11
1398.0
 21
561.3
 31
0.0
  0
LINE
  5
771
100
AcDbEntity
  8
001
100
AcDbLine
 10
1398.0
 20
561.3
 30
0.0
 11
1398.0
 21
564.5
 31
0.0
  0
LINE
  5
772
100
AcDbEntity
  8
001
100
AcDbLine
 10
1368.0
 20
561.3
 30
0.0
 11
1368.0
 21
564.5
 31
0.0
  0
ARC
  5
773
100
AcDbEntity
  8
001
100
AcDbCircle
 10
1452.0
 20
568.918851
 30
0.0
 40
17.330189
100
AcDbArc
 50
249.743913
 51
290.256087
  0
ARC
  5
774
100
AcDbEntity
  8
001
100
AcDbCircle
 10
1464.0
 20
568.918851
 30
0.0
 40
17.330189
100
AcDbArc
 50
249.743913
 51
290.256087
  0
LINE
  5
775
100
AcDbEntity
  8
001
100
AcDbLine
 10
1446.0
 20
551.588666
 30
0.0
 11
1446.5
 21
551.3
 31
0.0
  0
LINE
  5
776
100
AcDbEntity
  8
001
100
AcDbLine
 10
1470.0
 20
551.588666
 30
0.0
 11
1469.5
 21
551.3
 31
0.0
  0
LINE
  5
777
100
AcDbEntity
  8
001
100
AcDbLine
 10
1446.5
 20
551.3
 30
0.0
 11
1469.500015
 21
551.3
 31
0.0
  0
LINE
  5
778
100
AcDbEntity
  8
001
100
AcDbLine
 10
1470.0
 20
561.3
 30
0.0
 11
1470.0
 21
551.588666
 31
0.0
  0
LINE
  5
779
100
AcDbEntity
  8
001
100
AcDbLine
 10
1458.0
 20
561.3
 30
0.0
 11
1458.0
 21
552.660458
 31
0.0
  0
LINE
  5
77A
100
AcDbEntity
  8
001
100
AcDbLine
 10
1446.0
 20
561.3
 30
0.0
 11
1446.0
 21
551.588666
 31
0.0
  0
LINE
  5
77B
100
AcDbEntity
  8
001
100
AcDbLine
 10
1443.0
 20
561.3
 30
0.0
 11
1473.0
 21
561.3
 31
0.0
  0
LINE
  5
77C
100
AcDbEntity
  8
001
100
AcDbLine
 10
1473.0
 20
561.3
 30
0.0
 11
1473.0
 21
564.5
 31
0.0
  0
LINE
  5
77D
100
AcDbEntity
  8
001
100
AcDbLine
 10
1443.0
 20
561.3
 30
0.0
 11
1443.0
 21
564.5
 31
0.0
  0
ARC
  5
77E
100
AcDbEntity
  8
001
100
AcDbCircle
 10
1286.0
 20
596.081134
 30
0.0
 40
17.330189
100
AcDbArc
 50
69.743913
 51
110.256087
  0
ARC
  5
77F
100
AcDbEntity
  8
001
100
AcDbCircle
 10
1298.0
 20
596.081134
 30
0.0
 40
17.330189
100
AcDbArc
 50
69.743913
 51
110.256087
  0
LINE
  5
780
100
AcDbEntity
  8
001
100
AcDbLine
 10
1280.0
 20
613.411334
 30
0.0
 11
1280.5
 21
613.7
 31
0.0
  0
LINE
  5
781
100
AcDbEntity
  8
001
100
AcDbLine
 10
1304.0
 20
613.411334
 30
0.0
 11
1303.5
 21
613.7
 31
0.0
  0
LINE
  5
782
100
AcDbEntity
  8
001
100
AcDbLine
 10
1280.5
 20
613.7
 30
0.0
 11
1303.5
 21
613.7
 31
0.0
  0
LINE
  5
783
100
AcDbEntity
  8
001
100
AcDbLine
 10
1304.0
 20
600.7
 30
0.0
 11
1304.0
 21
613.411334
 31
0.0
  0
LINE
  5
784
100
AcDbEntity
  8
001
100
AcDbLine
 10
1292.0
 20
600.7
 30
0.0
 11
1292.0
 21
612.339526
 31
0.0
  0
LINE
  5
785
100
AcDbEntity
  8
001
100
AcDbLine
 10
1280.0
 20
600.7
 30
0.0
 11
1280.0
 21
613.411334
 31
0.0
  0
LINE
  5
786
100
AcDbEntity
  8
001
100
AcDbLine
 10
1277.0
 20
600.7
 30
0.0
 11
1307.0
 21
600.7
 31
0.0
  0
LINE
  5
787
100
AcDbEntity
  8
001
100
AcDbLine
 10
1307.0
 20
597.5
 30
0.0
 11
1307.0
 21
600.7
 31
0.0
  0
LINE
  5
788
100
AcDbEntity
  8
001
100
AcDbLine
 10
1277.0
 20
597.5
 30
0.0
 11
1277.0
 21
600.7
 31
0.0
  0
ARC
  5
789
100
AcDbEntity
  8
001
100
AcDbCircle
 10
1377.0
 20
596.081134
 30
0.0
 40
17.330189
100
AcDbArc
 50
69.743913
 51
110.256087
  0
ARC
  5
78A
100
AcDbEntity
  8
001
100
AcDbCircle
 10
1389.0
 20
596.081134
 30
0.0
 40
17.330189
100
AcDbArc
 50
69.743913
 51
110.256087
  0
LINE
  5
78B
100
AcDbEntity
  8
001
100
AcDbLine
 10
1371.0
 20
613.411334
 30
0.0
 11
1371.5
 21
613.7
 31
0.0
  0
LINE
  5
78C
100
AcDbEntity
  8
001
100
AcDbLine
 10
1395.0
 20
613.411334
 30
0.0
 11
1394.5
 21
613.7
 31
0.0
  0
LINE
  5
78D
100
AcDbEntity
  8
001
100
AcDbLine
 10
1371.5
 20
613.7
 30
0.0
 11
1394.5
 21
613.7
 31
0.0
  0
LINE
  5
78E
100
AcDbEntity
  8
001
100
AcDbLine
 10
1395.0
 20
600.7
 30
0.0
 11
1395.0
 21
613.411334
 31
0.0
  0
LINE
  5
78F
100
AcDbEntity
  8
001
100
AcDbLine
 10
1383.0
 20
600.7
 30
0.0
 11
1383.0
 21
612.339526
 31
0.0
  0
LINE
  5
790
100
AcDbEntity
  8
001
100
AcDbLine
 10
1371.0
 20
600.7
 30
0.0
 11
1371.0
 21
613.411334
 31
0.0
  0
LINE
  5
791
100
AcDbEntity
  8
001
100
AcDbLine
 10
1368.0
 20
600.7
 30
0.0
 11
1398.0
 21
600.7
 31
0.0
  0
LINE
  5
792
100
AcDbEntity
  8
001
100
AcDbLine
 10
1398.0
 20
597.5
 30
0.0
 11
1398.0
 21
600.7
 31
0.0
  0
LINE
  5
793
100
AcDbEntity
  8
001
100
AcDbLine
 10
1368.0
 20
597.5
 30
0.0
 11
1368.0
 21
600.7
 31
0.0
  0
ARC
  5
794
100
AcDbEntity
  8
001
100
AcDbCircle
 10
1452.0
 20
596.081134
 30
0.0
 40
17.330189
100
AcDbArc
 50
69.743913
 51
110.256087
  0
ARC
  5
795
100
AcDbEntity
  8
001
100
AcDbCircle
 10
1464.0
 20
596.081134
 30
0.0
 40
17.330189
100
AcDbArc
 50
69.743913
 51
110.256087
  0
LINE
  5
796
100
AcDbEntity
  8
001
100
AcDbLine
 10
1446.0
 20
613.411334
 30
0.0
 11
1446.5
 21
613.7
 31
0.0
  0
LINE
  5
797
100
AcDbEntity
  8
001
100
AcDbLine
 10
1470.0
 20
613.411334
 30
0.0
 11
1469.5
 21
613.7
 31
0.0
  0
LINE
  5
798
100
AcDbEntity
  8
001
100
AcDbLine
 10
1446.5
 20
613.7
 30
0.0
 11
1469.5
 21
613.7
 31
0.0
  0
LINE
  5
799
100
AcDbEntity
  8
001
100
AcDbLine
 10
1470.0
 20
600.7
 30
0.0
 11
1470.0
 21
613.411334
 31
0.0
  0
LINE
  5
79A
100
AcDbEntity
  8
001
100
AcDbLine
 10
1458.0
 20
600.7
 30
0.0
 11
1458.0
 21
612.339526
 31
0.0
  0
LINE
  5
79B
100
AcDbEntity
  8
001
100
AcDbLine
 10
1446.0
 20
600.7
 30
0.0
 11
1446.0
 21
613.411334
 31
0.0
  0
LINE
  5
79C
100
AcDbEntity
  8
001
100
AcDbLine
 10
1443.0
 20
600.7
 30
0.0
 11
1473.0
 21
600.7
 31
0.0
  0
LINE
  5
79D
100
AcDbEntity
  8
001
100
AcDbLine
 10
1473.0
 20
597.5
 30
0.0
 11
1473.0
 21
600.7
 31
0.0
  0
LINE
  5
79E
100
AcDbEntity
  8
001
100
AcDbLine
 10
1443.0
 20
597.5
 30
0.0
 11
1443.0
 21
600.7
 31
0.0
  0
LINE
  5
79F
100
AcDbEntity
  8
001
  6
CENTER
100
AcDbLine
 10
1217.0
 20
545.05
 30
0.0
 11
1217.0
 21
627.55
 31
0.0
  0
LINE
  5
7A0
100
AcDbEntity
  8
001
100
AcDbLine
 10
1209.0
 20
619.3
 30
0.0
 11
1225.0
 21
619.3
 31
0.0
  0
ARC
  5
7A1
100
AcDbEntity
  8
001
100
AcDbCircle
 10
1217.0
 20
604.3
 30
0.0
 40
17.0
100
AcDbArc
 50
61.927513
 51
118.072487
  0
LINE
  5
7A2
100
AcDbEntity
  8
001
100
AcDbLine
 10
1209.0
 20
613.7
 30
0.0
 11
1209.0
 21
619.3
 31
0.0
  0
LINE
  5
7A3
100
AcDbEntity
  8
001
100
AcDbLine
 10
1225.0
 20
613.7
 30
0.0
 11
1225.0
 21
619.3
 31
0.0
  0
LINE
  5
7A4
100
AcDbEntity
  8
001
100
AcDbLine
 10
1223.92
 20
613.7
 30
0.0
 11
1223.92
 21
619.827833
 31
0.0
  0
LINE
  5
7A5
100
AcDbEntity
  8
001
100
AcDbLine
 10
1210.08
 20
613.7
 30
0.0
 11
1210.08
 21
619.827833
 31
0.0
  0
LINE
  5
7A6
100
AcDbEntity
  8
001
  6
CENTER
100
AcDbLine
 10
1292.0
 20
545.05
 30
0.0
 11
1292.0
 21
627.55
 31
0.0
  0
LINE
  5
7A7
100
AcDbEntity
  8
001
100
AcDbLine
 10
1284.0
 20
619.3
 30
0.0
 11
1300.0
 21
619.3
 31
0.0
  0
ARC
  5
7A8
100
AcDbEntity
  8
001
100
AcDbCircle
 10
1292.0
 20
604.3
 30
0.0
 40
17.0
100
AcDbArc
 50
61.927513
 51
118.072487
  0
LINE
  5
7A9
100
AcDbEntity
  8
001
100
AcDbLine
 10
1284.0
 20
613.7
 30
0.0
 11
1284.0
 21
619.3
 31
0.0
  0
LINE
  5
7AA
100
AcDbEntity
  8
001
100
AcDbLine
 10
1300.0
 20
613.7
 30
0.0
 11
1300.0
 21
619.3
 31
0.0
  0
LINE
  5
7AB
100
AcDbEntity
  8
001
100
AcDbLine
 10
1298.92
 20
613.7
 30
0.0
 11
1298.92
 21
619.827833
 31
0.0
  0
LINE
  5
7AC
100
AcDbEntity
  8
001
100
AcDbLine
 10
1285.08
 20
613.7
 30
0.0
 11
1285.08
 21
619.827833
 31
0.0
  0
LINE
  5
7AD
100
AcDbEntity
  8
001
  6
CENTER
100
AcDbLine
 10
1383.0
 20
545.05
 30
0.0
 11
1383.0
 21
627.55
 31
0.0
  0
LINE
  5
7AE
100
AcDbEntity
  8
001
100
AcDbLine
 10
1375.0
 20
619.3
 30
0.0
 11
1391.0
 21
619.3
 31
0.0
  0
ARC
  5
7AF
100
AcDbEntity
  8
001
100
AcDbCircle
 10
1383.0
 20
604.3
 30
0.0
 40
17.0
100
AcDbArc
 50
61.927513
 51
118.072487
  0
LINE
  5
7B0
100
AcDbEntity
  8
001
100
AcDbLine
 10
1375.0
 20
613.7
 30
0.0
 11
1375.0
 21
619.3
 31
0.0
  0
LINE
  5
7B1
100
AcDbEntity
  8
001
100
AcDbLine
 10
1391.0
 20
613.7
 30
0.0
 11
1391.0
 21
619.3
 31
0.0
  0
LINE
  5
7B2
100
AcDbEntity
  8
001
100
AcDbLine
 10
1389.92
 20
613.7
 30
0.0
 11
1389.92
 21
619.827833
 31
0.0
  0
LINE
  5
7B3
100
AcDbEntity
  8
001
100
AcDbLine
 10
1376.08
 20
613.7
 30
0.0
 11
1376.08
 21
619.827833
 31
0.0
  0
LINE
  5
7B4
100
AcDbEntity
  8
001
  6
CENTER
100
AcDbLine
 10
1458.0
 20
545.05
 30
0.0
 11
1458.0
 21
627.55
 31
0.0
  0
LINE
  5
7B5
100
AcDbEntity
  8
001
100
AcDbLine
 10
1450.0
 20
619.3
 30
0.0
 11
1466.0
 21
619.3
 31
0.0
  0
ARC
  5
7B6
100
AcDbEntity
  8
001
100
AcDbCircle
 10
1458.0
 20
604.3
 30
0.0
 40
17.0
100
AcDbArc
 50
61.927513
 51
118.072487
  0
LINE
  5
7B7
100
AcDbEntity
  8
001
100
AcDbLine
 10
1450.0
 20
613.7
 30
0.0
 11
1450.0
 21
619.3
 31
0.0
  0
LINE
  5
7B8
100
AcDbEntity
  8
001
100
AcDbLine
 10
1466.0
 20
613.7
 30
0.0
 11
1466.0
 21
619.3
 31
0.0
  0
LINE
  5
7B9
100
AcDbEntity
  8
001
100
AcDbLine
 10
1464.92
 20
613.7
 30
0.0
 11
1464.92
 21
619.827833
 31
0.0
  0
LINE
  5
7BA
100
AcDbEntity
  8
001
100
AcDbLine
 10
1451.08
 20
613.7
 30
0.0
 11
1451.08
 21
619.827833
 31
0.0
  0
ARC
  5
80F
100
AcDbEntity
  8
001
100
AcDbCircle
 10
1313.5
 20
770.5
 30
0.0
 40
1.0
100
AcDbArc
 50
90.0
 51
180.0
  0
ARC
  5
810
100
AcDbEntity
  8
001
100
AcDbCircle
 10
1361.5
 20
770.5
 30
0.0
 40
1.0
100
AcDbArc
 50
0.0
 51
90.0
  0
ARC
  5
812
100
AcDbEntity
  8
001
100
AcDbCircle
 10
573.5
 20
770.5
 30
0.0
 40
1.0
100
AcDbArc
 50
90.0
 51
180.0
  0
ARC
  5
813
100
AcDbEntity
  8
001
100
AcDbCircle
 10
621.5
 20
770.5
 30
0.0
 40
1.0
100
AcDbArc
 50
0.0
 51
90.0
  0
LINE
  5
814
100
AcDbEntity
  8
001
100
AcDbLine
 10
597.5
 20
822.5
 30
0.0
 11
613.293988
 21
822.5
 31
0.0
  0
INSERT
  5
815
100
AcDbEntity
  8
0
  6
CONTINUOUS
100
AcDbBlockReference
  2
A$C4D0D3218
 10
567.5
 20
765.856109
 30
0.0
  0
INSERT
  5
816
100
AcDbEntity
  8
0
  6
CONTINUOUS
100
AcDbBlockReference
  2
A$C4D0D3218
 10
1367.5
 20
765.856109
 30
0.0
 41
-1.0
  0
ENDSEC
  0
SECTION
  2
OBJECTS
  0
DICTIONARY
  5
C
100
AcDbDictionary
  3
ACAD_GROUP
350
D
  3
ACAD_MLINESTYLE
350
1B
  0
DICTIONARY
  5
D
102
{ACAD_REACTORS
330
C
102
}
100
AcDbDictionary
  0
DICTIONARY
  5
1B
102
{ACAD_REACTORS
330
C
102
}
100
AcDbDictionary
  3
STANDARD
350
1C
  0
MLINESTYLE
  5
1C
102
{ACAD_REACTORS
330
1B
102
}
100
AcDbMlineStyle
  2
STANDARD
 70
     0
  3

 62
   256
 51
90.0
 52
90.0
 71
     2
 49
0.5
 62
   256
  6
BYLAYER
 49
-0.5
 62
   256
  6
BYLAYER
  0
ENDSEC
  0
EOF
