  0
SECTION
  2
HEADER
  9
$ACADVER
  1
AC1014
  9
$ACADMAINTVER
 70
     0
  9
$DWGCODEPAGE
  3
ANSI_932
  9
$INSBASE
 10
0.0
 20
0.0
 30
0.0
  9
$EXTMIN
 10
120.0
 20
30.0
 30
0.0
  9
$EXTMAX
 10
1215.0
 20
828.436826
 30
0.0
  9
$LIMMIN
 10
119.999
 20
29.999
  9
$LIMMAX
 10
1215.001
 20
754.001
  9
$ORTHOMODE
 70
     1
  9
$REGENMODE
 70
     1
  9
$FILLMODE
 70
     1
  9
$QTEXTMODE
 70
     0
  9
$MIRRTEXT
 70
     1
  9
$DRAGMODE
 70
     2
  9
$LTSCALE
 40
18.25
  9
$OSMODE
 70
     0
  9
$ATTMODE
 70
     1
  9
$TEXTSIZE
 40
3.2
  9
$TRACEWID
 40
0.05
  9
$TEXTSTYLE
  7
STANDARD
  9
$CLAYER
  8
0
  9
$CELTYPE
  6
CONTINUOUS
  9
$CECOLOR
 62
   256
  9
$CELTSCALE
 40
1.0
  9
$DELOBJ
 70
     1
  9
$DISPSILH
 70
     0
  9
$DIMSCALE
 40
1.0
  9
$DIMASZ
 40
0.18
  9
$DIMEXO
 40
0.0625
  9
$DIMDLI
 40
0.38
  9
$DIMRND
 40
0.0
  9
$DIMDLE
 40
0.0
  9
$DIMEXE
 40
0.18
  9
$DIMTP
 40
0.0
  9
$DIMTM
 40
0.0
  9
$DIMTXT
 40
0.18
  9
$DIMCEN
 40
0.09
  9
$DIMTSZ
 40
0.0
  9
$DIMTOL
 70
     0
  9
$DIMLIM
 70
     0
  9
$DIMTIH
 70
     1
  9
$DIMTOH
 70
     1
  9
$DIMSE1
 70
     0
  9
$DIMSE2
 70
     0
  9
$DIMTAD
 70
     0
  9
$DIMZIN
 70
     0
  9
$DIMBLK
  1

  9
$DIMASO
 70
     1
  9
$DIMSHO
 70
     1
  9
$DIMPOST
  1

  9
$DIMAPOST
  1

  9
$DIMALT
 70
     0
  9
$DIMALTD
 70
     2
  9
$DIMALTF
 40
25.4
  9
$DIMLFAC
 40
1.0
  9
$DIMTOFL
 70
     0
  9
$DIMTVP
 40
0.0
  9
$DIMTIX
 70
     0
  9
$DIMSOXD
 70
     0
  9
$DIMSAH
 70
     0
  9
$DIMBLK1
  1

  9
$DIMBLK2
  1

  9
$DIMSTYLE
  2
STANDARD
  9
$DIMCLRD
 70
     0
  9
$DIMCLRE
 70
     0
  9
$DIMCLRT
 70
     0
  9
$DIMTFAC
 40
1.0
  9
$DIMGAP
 40
0.09
  9
$DIMJUST
 70
     0
  9
$DIMSD1
 70
     0
  9
$DIMSD2
 70
     0
  9
$DIMTOLJ
 70
     1
  9
$DIMTZIN
 70
     0
  9
$DIMALTZ
 70
     0
  9
$DIMALTTZ
 70
     0
  9
$DIMFIT
 70
     3
  9
$DIMUPT
 70
     0
  9
$DIMUNIT
 70
     2
  9
$DIMDEC
 70
     4
  9
$DIMTDEC
 70
     4
  9
$DIMALTU
 70
     2
  9
$DIMALTTD
 70
     2
  9
$DIMTXSTY
  7
STANDARD
  9
$DIMAUNIT
 70
     0
  9
$LUNITS
 70
     2
  9
$LUPREC
 70
     4
  9
$SKETCHINC
 40
0.1
  9
$FILLETRAD
 40
1.0
  9
$AUNITS
 70
     0
  9
$AUPREC
 70
     0
  9
$MENU
  1
acad
  9
$ELEVATION
 40
0.0
  9
$PELEVATION
 40
0.0
  9
$THICKNESS
 40
0.0
  9
$LIMCHECK
 70
     0
  9
$BLIPMODE
 70
     0
  9
$CHAMFERA
 40
0.0
  9
$CHAMFERB
 40
0.0
  9
$CHAMFERC
 40
0.0
  9
$CHAMFERD
 40
0.0
  9
$SKPOLY
 70
     0
  9
$TDCREATE
 40
0.0000000000
  9
$TDUPDATE
 40
0.0000000000
  9
$TDINDWG
 40
0.0000000000
  9
$TDUSRTIMER
 40
0.0000000000
  9
$USRTIMER
 70
     1
  9
$ANGBASE
 50
0.0
  9
$ANGDIR
 70
     0
  9
$PDMODE
 70
     0
  9
$PDSIZE
 40
0.0
  9
$PLINEWID
 40
0.0
  9
$COORDS
 70
     1
  9
$SPLFRAME
 70
     0
  9
$SPLINETYPE
 70
     6
  9
$SPLINESEGS
 70
     8
  9
$ATTDIA
 70
     0
  9
$ATTREQ
 70
     1
  9
$HANDLING
 70
     1
  9
$HANDSEED
  5
767
  9
$SURFTAB1
 70
     6
  9
$SURFTAB2
 70
     6
  9
$SURFTYPE
 70
     6
  9
$SURFU
 70
     6
  9
$SURFV
 70
     6
  9
$UCSNAME
  2

  9
$UCSORG
 10
0.0
 20
0.0
 30
0.0
  9
$UCSXDIR
 10
1.0
 20
0.0
 30
0.0
  9
$UCSYDIR
 10
0.0
 20
1.0
 30
0.0
  9
$PUCSNAME
  2

  9
$PUCSORG
 10
0.0
 20
0.0
 30
0.0
  9
$PUCSXDIR
 10
1.0
 20
0.0
 30
0.0
  9
$PUCSYDIR
 10
0.0
 20
1.0
 30
0.0
  9
$USERI1
 70
     0
  9
$USERI2
 70
     0
  9
$USERI3
 70
     0
  9
$USERI4
 70
     0
  9
$USERI5
 70
     0
  9
$USERR1
 40
0.0
  9
$USERR2
 40
0.0
  9
$USERR3
 40
0.0
  9
$USERR4
 40
0.0
  9
$USERR5
 40
0.0
  9
$WORLDVIEW
 70
     1
  9
$SHADEDGE
 70
     3
  9
$SHADEDIF
 70
    70
  9
$TILEMODE
 70
     1
  9
$MAXACTVP
 70
    48
  9
$PINSBASE
 10
0.0
 20
0.0
 30
0.0
  9
$PLIMCHECK
 70
     0
  9
$PEXTMIN
 10
1.000000E+20
 20
1.000000E+20
 30
1.000000E+20
  9
$PEXTMAX
 10
-1.000000E+20
 20
-1.000000E+20
 30
-1.000000E+20
  9
$PLIMMIN
 10
0.0
 20
0.0
  9
$PLIMMAX
 10
12.0
 20
9.0
  9
$UNITMODE
 70
     0
  9
$VISRETAIN
 70
     1
  9
$PLINEGEN
 70
     0
  9
$PSLTSCALE
 70
     1
  9
$TREEDEPTH
 70
  3020
  9
$PICKSTYLE
 70
     1
  9
$CMLSTYLE
  2
STANDARD
  9
$CMLJUST
 70
     0
  9
$CMLSCALE
 40
1.0
  9
$PROXYGRAPHICS
 70
     1
  9
$MEASUREMENT
 70
     0
  0
ENDSEC
  0
SECTION
  2
CLASSES
  0
CLASS
  1
LWPOLYLINE
  2
AcDbPolyline
  3
"AutoCAD"
 90
        0
280
     0
281
     1
  0
ENDSEC
  0
SECTION
  2
TABLES
  0
TABLE
  2
VPORT
  5
8
100
AcDbSymbolTable
 70
     2
  0
VPORT
  5
766
100
AcDbSymbolTableRecord
100
AcDbViewportTableRecord
  2
*ACTIVE
 70
     0
 10
0.0
 20
0.0
 11
1.0
 21
1.0
 12
692.925312
 22
422.74658
 13
0.0
 23
0.0
 14
1.0
 24
1.0
 15
0.0
 25
0.0
 16
0.0
 26
0.0
 36
1.0
 17
0.0
 27
0.0
 37
0.0
 40
904.699352
 41
1.724907
 42
50.0
 43
0.0
 44
0.0
 50
0.0
 51
0.0
 71
     0
 72
   100
 73
     1
 74
     1
 75
     0
 76
     0
 77
     0
 78
     0
  0
ENDTAB
  0
TABLE
  2
LTYPE
  5
5
100
AcDbSymbolTable
 70
     6
  0
LTYPE
  5
12
100
AcDbSymbolTableRecord
100
AcDbLinetypeTableRecord
  2
BYBLOCK
 70
     0
  3

 72
    65
 73
     0
 40
0.0
  0
LTYPE
  5
13
100
AcDbSymbolTableRecord
100
AcDbLinetypeTableRecord
  2
BYLAYER
 70
     0
  3

 72
    65
 73
     0
 40
0.0
  0
LTYPE
  5
14
100
AcDbSymbolTableRecord
100
AcDbLinetypeTableRecord
  2
CONTINUOUS
 70
     0
  3
Solid-Line
 72
    65
 73
     0
 40
0.0
  0
LTYPE
  5
1F
100
AcDbSymbolTableRecord
100
AcDbLinetypeTableRecord
  2
DASHED
 70
     0
  3
DASHED
 72
    65
 73
     2
 40
0.75
 49
0.5
 74
     0
 49
-0.25
 74
     0
  0
LTYPE
  5
20
100
AcDbSymbolTableRecord
100
AcDbLinetypeTableRecord
  2
HIDDEN
 70
     0
  3
HIDDEN
 72
    65
 73
     2
 40
0.375
 49
0.25
 74
     0
 49
-0.125
 74
     0
  0
LTYPE
  5
21
100
AcDbSymbolTableRecord
100
AcDbLinetypeTableRecord
  2
CENTER
 70
     0
  3
CENTER
 72
    65
 73
     4
 40
2.0
 49
1.25
 74
     0
 49
-0.25
 74
     0
 49
0.25
 74
     0
 49
-0.25
 74
     0
  0
LTYPE
  5
22
100
AcDbSymbolTableRecord
100
AcDbLinetypeTableRecord
  2
PHANTOM
 70
     0
  3
PHANTOM
 72
    65
 73
     6
 40
2.5
 49
1.25
 74
     0
 49
-0.25
 74
     0
 49
0.25
 74
     0
 49
-0.25
 74
     0
 49
0.25
 74
     0
 49
-0.25
 74
     0
  0
LTYPE
  5
754
100
AcDbSymbolTableRecord
100
AcDbLinetypeTableRecord
  2
CENTER2
 70
     0
  3
___ _ ___ _ ___ _ ___ _ ___ _ ___ _ ___ _ ___ _
 72
    65
 73
     4
 40
1.125
 49
0.75
 74
     0
 49
-0.125
 74
     0
 49
0.125
 74
     0
 49
-0.125
 74
     0
  0
ENDTAB
  0
TABLE
  2
LAYER
  5
2
100
AcDbSymbolTable
 70
     5
  0
LAYER
  5
E
100
AcDbSymbolTableRecord
100
AcDbLayerTableRecord
  2
0
 70
     0
 62
     7
  6
CONTINUOUS
  0
LAYER
  5
23
100
AcDbSymbolTableRecord
100
AcDbLayerTableRecord
  2
001
 70
     0
 62
     7
  6
CONTINUOUS
  0
LAYER
  5
755
100
AcDbSymbolTableRecord
100
AcDbLayerTableRecord
  2
BODY
 70
     0
 62
     7
  6
CONTINUOUS
  0
LAYER
  5
756
100
AcDbSymbolTableRecord
100
AcDbLayerTableRecord
  2
SHAFT
 70
     0
 62
     6
  6
CONTINUOUS
  0
LAYER
  5
757
100
AcDbSymbolTableRecord
100
AcDbLayerTableRecord
  2
CENTER
 70
     0
 62
   144
  6
CENTER2
  0
ENDTAB
  0
TABLE
  2
STYLE
  5
3
100
AcDbSymbolTable
 70
     2
  0
STYLE
  5
F
100
AcDbSymbolTableRecord
100
AcDbTextStyleTableRecord
  2
STANDARD
 70
     0
 40
0.0
 41
1.0
 50
0.0
 71
     0
 42
0.2
  3
TXT
  4
BIGFONT
  0
STYLE
  5
24
100
AcDbSymbolTableRecord
100
AcDbTextStyleTableRecord
  2
TATEGAKI
 70
     4
 40
1.0
 41
1.0
 50
0.0
 71
     0
 42
0.2
  3
TXT
  4
BIGFONT
  0
ENDTAB
  0
TABLE
  2
VIEW
  5
6
100
AcDbSymbolTable
 70
     0
  0
ENDTAB
  0
TABLE
  2
UCS
  5
7
100
AcDbSymbolTable
 70
     0
  0
ENDTAB
  0
TABLE
  2
APPID
  5
9
100
AcDbSymbolTable
 70
     1
  0
APPID
  5
10
100
AcDbSymbolTableRecord
100
AcDbRegAppTableRecord
  2
ACAD
 70
     0
  0
ENDTAB
  0
TABLE
  2
DIMSTYLE
  5
A
100
AcDbSymbolTable
 70
     1
  0
DIMSTYLE
105
70A
100
AcDbSymbolTableRecord
100
AcDbDimStyleTableRecord
  2
STANDARD
 70
     0
  3

  4

  5

  6

  7

 40
1.0
 41
0.18
 42
0.0625
 43
0.38
 44
0.18
 45
0.0
 46
0.0
 47
0.0
 48
0.0
140
0.18
141
0.09
142
0.0
143
25.4
144
1.0
145
0.0
146
1.0
147
0.09
 71
     0
 72
     0
 73
     1
 74
     1
 75
     0
 76
     0
 77
     0
 78
     0
170
     0
171
     2
172
     0
173
     0
174
     0
175
     0
176
     0
177
     0
178
     0
270
     2
271
     4
272
     4
273
     2
274
     2
340
F
275
     0
280
     0
281
     0
282
     0
283
     1
284
     0
285
     0
286
     0
287
     3
288
     0
  0
ENDTAB
  0
TABLE
  2
BLOCK_RECORD
  5
1
100
AcDbSymbolTable
 70
     2
  0
BLOCK_RECORD
  5
18
100
AcDbSymbolTableRecord
100
AcDbBlockTableRecord
  2
*MODEL_SPACE
  0
BLOCK_RECORD
  5
15
100
AcDbSymbolTableRecord
100
AcDbBlockTableRecord
  2
*PAPER_SPACE
  0
BLOCK_RECORD
  5
70B
100
AcDbSymbolTableRecord
100
AcDbBlockTableRecord
  2
A$C4D0D3218
  0
BLOCK_RECORD
  5
758
100
AcDbSymbolTableRecord
100
AcDbBlockTableRecord
  2
A$C3D2E53C4
  0
ENDTAB
  0
ENDSEC
  0
SECTION
  2
BLOCKS
  0
BLOCK
  5
19
100
AcDbEntity
  8
0
100
AcDbBlockBegin
  2
*MODEL_SPACE
 70
     0
 10
0.0
 20
0.0
 30
0.0
  3
*MODEL_SPACE
  1

  0
ENDBLK
  5
1A
100
AcDbEntity
  8
0
100
AcDbBlockEnd
  0
BLOCK
  5
16
100
AcDbEntity
 67
     1
  8
0
100
AcDbBlockBegin
  2
*PAPER_SPACE
 70
     0
 10
0.0
 20
0.0
 30
0.0
  3
*PAPER_SPACE
  1

  0
ENDBLK
  5
17
100
AcDbEntity
 67
     1
  8
0
100
AcDbBlockEnd
  0
BLOCK
  5
752
100
AcDbEntity
  8
0
100
AcDbBlockBegin
  2
A$C4D0D3218
 70
     0
 10
0.0
 20
0.0
 30
0.0
  3
A$C4D0D3218
  1

  0
LINE
  5
70C
100
AcDbEntity
  8
BODY
100
AcDbLine
 10
47.298566
 20
58.50411
 30
0.0
 11
30.0
 21
33.988262
 31
0.0
  0
LINE
  5
70D
100
AcDbEntity
  8
BODY
100
AcDbLine
 10
47.830578
 20
57.227929
 30
0.0
 11
48.758497
 21
35.164071
 31
0.0
  0
LINE
  5
70E
100
AcDbEntity
  8
BODY
100
AcDbLine
 10
60.0
 20
62.643891
 30
0.0
 11
60.0
 21
35.143891
 31
0.0
  0
LINE
  5
70F
100
AcDbEntity
  8
BODY
100
AcDbLine
 10
0.0
 20
8.643891
 30
0.0
 11
0.0
 21
62.643891
 31
0.0
  0
LINE
  5
710
100
AcDbEntity
  8
CENTER
100
AcDbLine
 10
30.0
 20
0.0
 30
0.0
 11
30.0
 21
136.35376
 31
0.0
  0
LINE
  5
711
100
AcDbEntity
  8
BODY
100
AcDbLine
 10
57.0
 20
5.643891
 30
0.0
 11
3.0
 21
5.643891
 31
0.0
  0
ARC
  5
712
100
AcDbEntity
  8
BODY
100
AcDbCircle
 10
3.0
 20
8.643891
 30
0.0
 40
3.0
100
AcDbArc
 50
180.0
 51
270.0
  0
ARC
  5
713
100
AcDbEntity
  8
BODY
100
AcDbCircle
 10
51.917656
 20
7.643891
 30
0.0
 40
2.0
100
AcDbArc
 50
182.408216
 51
270.0
  0
LINE
  5
714
100
AcDbEntity
  8
BODY
100
AcDbLine
 10
30.0
 20
33.988262
 30
0.0
 11
50.0
 21
5.643891
 31
0.0
  0
LINE
  5
715
100
AcDbEntity
  8
CENTER
100
AcDbLine
 10
45.826748
 20
30.643891
 30
0.0
 11
72.990715
 21
30.643891
 31
0.0
  0
LINE
  5
716
100
AcDbEntity
  8
BODY
100
AcDbLine
 10
69.138318
 20
35.643891
 30
0.0
 11
48.738318
 21
35.643891
 31
0.0
  0
LINE
  5
717
100
AcDbEntity
  8
BODY
100
AcDbLine
 10
63.238318
 20
35.143891
 30
0.0
 11
48.738318
 21
35.143891
 31
0.0
  0
LINE
  5
718
100
AcDbEntity
  8
BODY
100
AcDbLine
 10
49.158879
 20
25.643891
 30
0.0
 11
69.138318
 21
25.643891
 31
0.0
  0
LINE
  5
719
100
AcDbEntity
  8
BODY
100
AcDbLine
 10
49.155391
 20
25.726818
 30
0.0
 11
49.919423
 21
7.559853
 31
0.0
  0
LINE
  5
71A
100
AcDbEntity
  8
BODY
100
AcDbLine
 10
48.738318
 20
26.143891
 30
0.0
 11
63.238318
 21
26.143891
 31
0.0
  0
LWPOLYLINE
  5
71B
100
AcDbEntity
  8
BODY
100
AcDbPolyline
 90
        4
 70
     0
 43
0.0
 10
30.0
 20
39.881496
 10
22.0
 20
35.262693
 10
22.0
 20
26.025089
 10
30.0
 20
21.406287
  0
ARC
  5
71C
100
AcDbEntity
  8
BODY
100
AcDbCircle
 10
30.0
 20
30.643891
 30
0.0
 40
8.0
100
AcDbArc
 50
90.0
 51
270.0
  0
LINE
  5
71D
100
AcDbEntity
  8
CENTER
100
AcDbLine
 10
20.361507
 20
30.643891
 30
0.0
 11
31.763323
 21
30.643891
 31
0.0
  0
LINE
  5
71E
100
AcDbEntity
  8
BODY
100
AcDbLine
 10
49.238318
 20
35.643891
 30
0.0
 11
49.238318
 21
25.643891
 31
0.0
  0
LINE
  5
71F
100
AcDbEntity
  8
BODY
100
AcDbLine
 10
48.738318
 20
35.143891
 30
0.0
 11
48.738318
 21
26.143891
 31
0.0
  0
LINE
  5
720
100
AcDbEntity
  8
BODY
100
AcDbLine
 10
48.738318
 20
26.143891
 30
0.0
 11
49.238318
 21
25.643891
 31
0.0
  0
LINE
  5
721
100
AcDbEntity
  8
BODY
100
AcDbLine
 10
48.738318
 20
35.143891
 30
0.0
 11
49.238318
 21
35.643891
 31
0.0
  0
LINE
  5
722
100
AcDbEntity
  8
BODY
100
AcDbLine
 10
60.0
 20
26.143891
 30
0.0
 11
60.0
 21
8.643891
 31
0.0
  0
ARC
  5
723
100
AcDbEntity
  8
BODY
100
AcDbCircle
 10
57.0
 20
8.643891
 30
0.0
 40
3.0
100
AcDbArc
 50
270.0
 51
0.0
  0
LINE
  5
724
100
AcDbEntity
  8
BODY
100
AcDbLine
 10
69.138318
 20
21.406287
 30
0.0
 11
63.738318
 21
21.406287
 31
0.0
  0
LINE
  5
725
100
AcDbEntity
  8
BODY
100
AcDbLine
 10
69.138318
 20
39.881496
 30
0.0
 11
63.738318
 21
39.881496
 31
0.0
  0
LINE
  5
726
100
AcDbEntity
  8
BODY
100
AcDbLine
 10
63.238318
 20
35.143891
 30
0.0
 11
63.238318
 21
26.143891
 31
0.0
  0
LINE
  5
727
100
AcDbEntity
  8
BODY
100
AcDbLine
 10
63.738318
 20
39.881496
 30
0.0
 11
63.738318
 21
21.406287
 31
0.0
  0
LINE
  5
728
100
AcDbEntity
  8
BODY
100
AcDbLine
 10
63.238318
 20
26.143891
 30
0.0
 11
63.738318
 21
25.643891
 31
0.0
  0
LINE
  5
729
100
AcDbEntity
  8
BODY
100
AcDbLine
 10
63.238318
 20
35.143891
 30
0.0
 11
63.738318
 21
35.643891
 31
0.0
  0
ARC
  5
72A
100
AcDbEntity
  8
BODY
100
AcDbCircle
 10
57.138318
 20
30.643891
 30
0.0
 40
13.0
100
AcDbArc
 50
337.380135
 51
22.619865
  0
LINE
  5
72B
100
AcDbEntity
  8
BODY
100
AcDbLine
 10
70.138318
 20
37.781496
 30
0.0
 11
70.138318
 21
23.506287
 31
0.0
  0
ARC
  5
72C
100
AcDbEntity
  8
BODY
100
AcDbCircle
 10
67.393834
 20
23.525089
 30
0.0
 40
2.744549
100
AcDbArc
 50
309.465831
 51
50.534169
  0
ARC
  5
72D
100
AcDbEntity
  8
BODY
100
AcDbCircle
 10
67.393834
 20
37.762693
 30
0.0
 40
2.744549
100
AcDbArc
 50
309.465831
 51
50.534169
  0
LINE
  5
72E
100
AcDbEntity
  8
BODY
100
AcDbLine
 10
15.25
 20
65.643891
 30
0.0
 11
30.0
 21
65.643891
 31
0.0
  0
LINE
  5
72F
100
AcDbEntity
  8
SHAFT
100
AcDbLine
 10
30.0
 20
123.315647
 30
0.0
 11
13.25
 21
115.643891
 31
0.0
  0
LINE
  5
730
100
AcDbEntity
  8
SHAFT
100
AcDbLine
 10
14.0
 20
130.643891
 30
0.0
 11
30.0
 21
123.315647
 31
0.0
  0
LINE
  5
731
100
AcDbEntity
  8
BODY
100
AcDbLine
 10
30.0
 20
115.643891
 30
0.0
 11
13.25
 21
115.643891
 31
0.0
  0
LINE
  5
732
100
AcDbEntity
  8
SHAFT
100
AcDbLine
 10
14.0
 20
130.643891
 30
0.0
 11
46.0
 21
130.643891
 31
0.0
  0
LINE
  5
733
100
AcDbEntity
  8
SHAFT
100
AcDbLine
 10
13.25
 20
115.643891
 30
0.0
 11
30.0
 21
115.643891
 31
0.0
  0
LINE
  5
734
100
AcDbEntity
  8
BODY
100
AcDbLine
 10
30.0
 20
90.643891
 30
0.0
 11
13.723903
 21
66.351209
 31
0.0
  0
LINE
  5
735
100
AcDbEntity
  8
BODY
100
AcDbLine
 10
13.25
 20
115.643891
 30
0.0
 11
30.0
 21
90.643891
 31
0.0
  0
LINE
  5
736
100
AcDbEntity
  8
BODY
100
AcDbLine
 10
13.25
 20
115.643891
 30
0.0
 11
13.25
 21
67.643891
 31
0.0
  0
LINE
  5
737
100
AcDbEntity
  8
BODY
100
AcDbLine
 10
13.25
 20
115.643891
 30
0.0
 11
11.085954
 21
67.553982
 31
0.0
  0
ARC
  5
738
100
AcDbEntity
  8
BODY
100
AcDbCircle
 10
15.25
 20
67.643891
 30
0.0
 40
2.0
100
AcDbArc
 50
180.0
 51
270.0
  0
ARC
  5
739
100
AcDbEntity
  8
BODY
100
AcDbCircle
 10
9.087976
 20
67.643891
 30
0.0
 40
2.0
100
AcDbArc
 50
270.0
 51
357.423428
  0
ARC
  5
73A
100
AcDbEntity
  8
BODY
100
AcDbCircle
 10
3.0
 20
62.643891
 30
0.0
 40
3.0
100
AcDbArc
 50
90.0
 51
180.0
  0
LINE
  5
73B
100
AcDbEntity
  8
BODY
100
AcDbLine
 10
3.0
 20
65.643891
 30
0.0
 11
9.087976
 21
65.643891
 31
0.0
  0
LINE
  5
73C
100
AcDbEntity
  8
SHAFT
100
AcDbLine
 10
14.0
 20
130.643891
 30
0.0
 11
13.25
 21
115.643891
 31
0.0
  0
LINE
  5
73D
100
AcDbEntity
  8
BODY
100
AcDbLine
 10
46.75
 20
115.643891
 30
0.0
 11
48.914046
 21
67.553982
 31
0.0
  0
ARC
  5
73E
100
AcDbEntity
  8
BODY
100
AcDbCircle
 10
50.912024
 20
67.643891
 30
0.0
 40
2.0
100
AcDbArc
 50
182.576572
 51
270.0
  0
LINE
  5
73F
100
AcDbEntity
  8
BODY
100
AcDbLine
 10
30.0
 20
59.143891
 30
0.0
 11
45.832345
 21
59.143891
 31
0.0
  0
ARC
  5
740
100
AcDbEntity
  8
BODY
100
AcDbCircle
 10
45.832345
 20
57.143891
 30
0.0
 40
2.0
100
AcDbArc
 50
2.408216
 51
90.0
  0
ARC
  5
741
100
AcDbEntity
  8
BODY
100
AcDbCircle
 10
57.0
 20
62.643891
 30
0.0
 40
3.0
100
AcDbArc
 50
0.0
 51
90.0
  0
LINE
  5
742
100
AcDbEntity
  8
BODY
100
AcDbLine
 10
50.912024
 20
65.643891
 30
0.0
 11
57.0
 21
65.643891
 31
0.0
  0
LINE
  5
743
100
AcDbEntity
  8
BODY
100
AcDbLine
 10
32.0
 20
126.893891
 30
0.0
 11
32.0
 21
106.343891
 31
0.0
  0
LINE
  5
744
100
AcDbEntity
  8
BODY
100
AcDbLine
 10
32.5
 20
127.393891
 30
0.0
 11
32.5
 21
106.643891
 31
0.0
  0
LINE
  5
745
100
AcDbEntity
  8
BODY
100
AcDbLine
 10
32.5
 20
106.643891
 30
0.0
 11
30.0
 21
105.143891
 31
0.0
  0
LINE
  5
746
100
AcDbEntity
  8
BODY
100
AcDbLine
 10
32.5
 20
106.643891
 30
0.0
 11
30.0
 21
106.643891
 31
0.0
  0
LINE
  5
747
100
AcDbEntity
  8
BODY
100
AcDbLine
 10
32.5
 20
111.143891
 30
0.0
 11
32.0
 21
110.643891
 31
0.0
  0
LINE
  5
748
100
AcDbEntity
  8
BODY
100
AcDbLine
 10
30.0
 20
111.143891
 30
0.0
 11
32.5
 21
111.143891
 31
0.0
  0
LINE
  5
749
100
AcDbEntity
  8
BODY
100
AcDbLine
 10
30.0
 20
110.643891
 30
0.0
 11
32.5
 21
110.643891
 31
0.0
  0
LINE
  5
74A
100
AcDbEntity
  8
SHAFT
100
AcDbLine
 10
32.0
 20
115.643891
 30
0.0
 11
46.75
 21
115.643891
 31
0.0
  0
LINE
  5
74B
100
AcDbEntity
  8
BODY
100
AcDbLine
 10
35.75
 20
130.643891
 30
0.0
 11
32.0
 21
126.893891
 31
0.0
  0
LINE
  5
74C
100
AcDbEntity
  8
SHAFT
100
AcDbLine
 10
32.75
 20
127.643891
 30
0.0
 11
35.75
 21
130.643891
 31
0.0
  0
LINE
  5
74D
100
AcDbEntity
  8
BODY
100
AcDbLine
 10
46.75
 20
115.643891
 30
0.0
 11
32.0
 21
115.643891
 31
0.0
  0
LINE
  5
74E
100
AcDbEntity
  8
SHAFT
100
AcDbLine
 10
32.75
 20
127.643891
 30
0.0
 11
32.75
 21
115.643891
 31
0.0
  0
LINE
  5
74F
100
AcDbEntity
  8
BODY
100
AcDbLine
 10
32.0
 20
126.893891
 30
0.0
 11
30.0
 21
126.893891
 31
0.0
  0
LINE
  5
750
100
AcDbEntity
  8
BODY
100
AcDbLine
 10
32.5
 20
127.393891
 30
0.0
 11
30.0
 21
127.393891
 31
0.0
  0
LINE
  5
751
100
AcDbEntity
  8
SHAFT
100
AcDbLine
 10
46.0
 20
130.643891
 30
0.0
 11
46.75
 21
115.643891
 31
0.0
  0
ENDBLK
  5
753
100
AcDbEntity
  8
0
100
AcDbBlockEnd
  0
BLOCK
  5
75B
100
AcDbEntity
  8
0
100
AcDbBlockBegin
  2
A$C3D2E53C4
 70
     0
 10
0.0
 20
0.0
 30
0.0
  3
A$C3D2E53C4
  1

  0
INSERT
  5
759
100
AcDbEntity
  8
0
  6
CONTINUOUS
100
AcDbBlockReference
  2
A$C4D0D3218
 10
-0.000001
 20
0.000001
 30
0.0
  0
INSERT
  5
75A
100
AcDbEntity
  8
0
  6
CONTINUOUS
100
AcDbBlockReference
  2
A$C4D0D3218
 10
558.499999
 20
0.000001
 30
0.0
 41
-1.0
  0
ENDBLK
  5
75C
100
AcDbEntity
  8
0
100
AcDbBlockEnd
  0
ENDSEC
  0
SECTION
  2
ENTITIES
  0
LINE
  5
26
100
AcDbEntity
  8
001
100
AcDbLine
 10
733.0
 20
214.0
 30
0.0
 11
733.0
 21
220.0
 31
0.0
  0
LINE
  5
27
100
AcDbEntity
  8
001
100
AcDbLine
 10
814.5
 20
257.629423
 30
0.0
 11
814.5
 21
279.481997
 31
0.0
  0
LINE
  5
28
100
AcDbEntity
  8
001
100
AcDbLine
 10
783.0
 20
154.0
 30
0.0
 11
783.0
 21
170.811978
 31
0.0
  0
ARC
  5
29
100
AcDbEntity
  8
001
100
AcDbCircle
 10
785.0
 20
154.0
 30
0.0
 40
2.0
100
AcDbArc
 50
180.0
 51
270.0
  0
ARC
  5
2A
100
AcDbEntity
  8
001
100
AcDbCircle
 10
818.0
 20
217.0
 30
0.0
 40
44.5
100
AcDbArc
 50
96.792822
 51
203.207178
  0
LINE
  5
2B
100
AcDbEntity
  8
001
100
AcDbLine
 10
795.0
 20
275.866374
 30
0.0
 11
795.0
 21
256.20778
 31
0.0
  0
ARC
  5
2C
100
AcDbEntity
  8
001
100
AcDbCircle
 10
793.0
 20
256.20778
 30
0.0
 40
2.0
100
AcDbArc
 50
302.522748
 51
0.0
  0
ARC
  5
2D
100
AcDbEntity
  8
001
100
AcDbCircle
 10
797.0
 20
275.866374
 30
0.0
 40
2.0
100
AcDbArc
 50
109.633359
 51
180.0
  0
ARC
  5
2E
100
AcDbEntity
  8
001
100
AcDbCircle
 10
816.5
 20
279.481997
 30
0.0
 40
2.0
100
AcDbArc
 50
91.375231
 51
180.0
  0
ARC
  5
2F
100
AcDbEntity
  8
001
100
AcDbCircle
 10
812.5
 20
263.173586
 30
0.0
 40
2.0
100
AcDbArc
 50
276.792822
 51
0.0
  0
ARC
  5
30
100
AcDbEntity
  8
001
100
AcDbCircle
 10
812.5
 20
257.629423
 30
0.0
 40
2.0
100
AcDbArc
 50
277.70926
 51
0.0
  0
ARC
  5
31
100
AcDbEntity
  8
001
100
AcDbCircle
 10
764.639003
 20
184.459963
 30
0.0
 40
2.0
100
AcDbArc
 50
211.375231
 51
300.0
  0
LINE
  5
32
100
AcDbEntity
  8
001
100
AcDbLine
 10
784.563888
 20
193.6542
 30
0.0
 11
765.639003
 21
182.727912
 31
0.0
  0
ARC
  5
33
100
AcDbEntity
  8
001
100
AcDbCircle
 10
763.139003
 20
187.058039
 30
0.0
 40
2.0
100
AcDbArc
 50
120.0
 51
208.624769
  0
LINE
  5
34
100
AcDbEntity
  8
001
100
AcDbLine
 10
781.063888
 20
199.716377
 30
0.0
 11
762.139003
 21
188.79009
 31
0.0
  0
ARC
  5
35
100
AcDbEntity
  8
001
100
AcDbCircle
 10
818.0
 20
217.0
 30
0.0
 40
64.5
100
AcDbArc
 50
190.852571
 51
229.147429
  0
LINE
  5
36
100
AcDbEntity
  8
001
100
AcDbLine
 10
778.117818
 20
167.99325
 30
0.0
 11
795.022818
 21
177.753356
 31
0.0
  0
LINE
  5
37
100
AcDbEntity
  8
001
100
AcDbLine
 10
755.617818
 20
206.964393
 30
0.0
 11
772.522818
 21
216.724499
 31
0.0
  0
ARC
  5
38
100
AcDbEntity
  8
001
100
AcDbCircle
 10
771.522818
 20
218.45655
 30
0.0
 40
2.0
100
AcDbArc
 50
300.0
 51
358.204994
  0
ARC
  5
39
100
AcDbEntity
  8
001
100
AcDbCircle
 10
756.617818
 20
205.232342
 30
0.0
 40
2.0
100
AcDbArc
 50
120.0
 51
190.852571
  0
ARC
  5
3A
100
AcDbEntity
  8
001
100
AcDbCircle
 10
796.022818
 20
176.021305
 30
0.0
 40
2.0
100
AcDbArc
 50
61.795006
 51
120.0
  0
ARC
  5
3B
100
AcDbEntity
  8
001
100
AcDbCircle
 10
777.117818
 20
169.7253
 30
0.0
 40
2.0
100
AcDbArc
 50
229.147429
 51
300.0
  0
ARC
  5
3C
100
AcDbEntity
  8
001
100
AcDbCircle
 10
775.262502
 20
198.676347
 30
0.0
 40
2.0
100
AcDbArc
 50
300.0
 51
23.207178
  0
ARC
  5
3D
100
AcDbEntity
  8
001
100
AcDbCircle
 10
780.762502
 20
189.150068
 30
0.0
 40
2.0
100
AcDbArc
 50
36.792822
 51
120.0
  0
ARC
  5
3E
100
AcDbEntity
  8
001
100
AcDbCircle
 10
780.063888
 20
201.448428
 30
0.0
 40
2.0
100
AcDbArc
 50
300.0
 51
22.29074
  0
ARC
  5
3F
100
AcDbEntity
  8
001
100
AcDbCircle
 10
785.563888
 20
191.922149
 30
0.0
 40
2.0
100
AcDbArc
 50
37.70926
 51
120.0
  0
LINE
  5
40
100
AcDbEntity
  8
001
  6
CENTER
100
AcDbLine
 10
758.0
 20
207.25
 30
0.0
 11
758.0
 21
226.75
 31
0.0
  0
LINE
  5
41
100
AcDbEntity
  8
001
100
AcDbLine
 10
773.90635
 20
223.0
 30
0.0
 11
736.0
 21
223.0
 31
0.0
  0
LINE
  5
42
100
AcDbEntity
  8
001
100
AcDbLine
 10
736.0
 20
211.0
 30
0.0
 11
762.607695
 21
211.0
 31
0.0
  0
ARC
  5
43
100
AcDbEntity
  8
001
100
AcDbCircle
 10
736.0
 20
220.0
 30
0.0
 40
3.0
100
AcDbArc
 50
90.0
 51
180.0
  0
ARC
  5
44
100
AcDbEntity
  8
001
100
AcDbCircle
 10
736.0
 20
214.0
 30
0.0
 40
3.0
100
AcDbArc
 50
180.0
 51
270.0
  0
LINE
  5
45
100
AcDbEntity
  8
001
100
AcDbLine
 10
768.0
 20
228.129942
 30
0.0
 11
768.0
 21
283.0
 31
0.0
  0
ARC
  5
46
100
AcDbEntity
  8
001
100
AcDbCircle
 10
780.0
 20
228.129942
 30
0.0
 40
12.0
100
AcDbArc
 50
180.0
 51
205.308704
  0
LINE
  5
47
100
AcDbEntity
  8
001
100
AcDbLine
 10
765.433333
 20
290.7
 30
0.0
 11
768.0
 21
283.0
 31
0.0
  0
LINE
  5
48
100
AcDbEntity
  8
001
100
AcDbLine
 10
763.263306
 20
399.162033
 30
0.0
 11
761.918884
 21
366.0
 31
0.0
  0
POLYLINE
  5
49
100
AcDbEntity
  8
001
100
AcDb2dPolyline
 66
     1
 10
0.0
 20
0.0
 30
0.0
  0
VERTEX
  5
4A
100
AcDbEntity
  8
001
100
AcDbVertex
100
AcDb2dVertex
 10
805.5
 20
346.302429
 30
0.0
  0
VERTEX
  5
4B
100
AcDbEntity
  8
001
100
AcDbVertex
100
AcDb2dVertex
 10
805.555328
 20
346.856415
 30
0.0
  0
VERTEX
  5
4C
100
AcDbEntity
  8
001
100
AcDbVertex
100
AcDb2dVertex
 10
805.610626
 20
347.409088
 30
0.0
  0
VERTEX
  5
4D
100
AcDbEntity
  8
001
100
AcDbVertex
100
AcDb2dVertex
 10
805.665955
 20
347.959122
 30
0.0
  0
VERTEX
  5
4E
100
AcDbEntity
  8
001
100
AcDbVertex
100
AcDb2dVertex
 10
805.721283
 20
348.505188
 30
0.0
  0
VERTEX
  5
4F
100
AcDbEntity
  8
001
100
AcDbVertex
100
AcDb2dVertex
 10
805.776642
 20
349.046021
 30
0.0
  0
VERTEX
  5
50
100
AcDbEntity
  8
001
100
AcDbVertex
100
AcDb2dVertex
 10
805.832031
 20
349.580246
 30
0.0
  0
VERTEX
  5
51
100
AcDbEntity
  8
001
100
AcDbVertex
100
AcDb2dVertex
 10
805.887482
 20
350.106552
 30
0.0
  0
VERTEX
  5
52
100
AcDbEntity
  8
001
100
AcDbVertex
100
AcDb2dVertex
 10
805.942963
 20
350.623627
 30
0.0
  0
VERTEX
  5
53
100
AcDbEntity
  8
001
100
AcDbVertex
100
AcDb2dVertex
 10
805.998474
 20
351.130219
 30
0.0
  0
VERTEX
  5
54
100
AcDbEntity
  8
001
100
AcDbVertex
100
AcDb2dVertex
 10
806.054077
 20
351.624893
 30
0.0
  0
VERTEX
  5
55
100
AcDbEntity
  8
001
100
AcDbVertex
100
AcDb2dVertex
 10
806.109711
 20
352.106415
 30
0.0
  0
VERTEX
  5
56
100
AcDbEntity
  8
001
100
AcDbVertex
100
AcDb2dVertex
 10
806.165405
 20
352.573471
 30
0.0
  0
VERTEX
  5
57
100
AcDbEntity
  8
001
100
AcDbVertex
100
AcDb2dVertex
 10
806.221191
 20
353.024689
 30
0.0
  0
VERTEX
  5
58
100
AcDbEntity
  8
001
100
AcDbVertex
100
AcDb2dVertex
 10
806.277039
 20
353.458801
 30
0.0
  0
VERTEX
  5
59
100
AcDbEntity
  8
001
100
AcDbVertex
100
AcDb2dVertex
 10
806.332977
 20
353.874451
 30
0.0
  0
VERTEX
  5
5A
100
AcDbEntity
  8
001
100
AcDbVertex
100
AcDb2dVertex
 10
806.389038
 20
354.27034
 30
0.0
  0
VERTEX
  5
5B
100
AcDbEntity
  8
001
100
AcDbVertex
100
AcDb2dVertex
 10
806.44516
 20
354.645126
 30
0.0
  0
VERTEX
  5
5C
100
AcDbEntity
  8
001
100
AcDbVertex
100
AcDb2dVertex
 10
806.501404
 20
354.997559
 30
0.0
  0
VERTEX
  5
5D
100
AcDbEntity
  8
001
100
AcDbVertex
100
AcDb2dVertex
 10
806.55777
 20
355.326248
 30
0.0
  0
VERTEX
  5
5E
100
AcDbEntity
  8
001
100
AcDbVertex
100
AcDb2dVertex
 10
806.614227
 20
355.629898
 30
0.0
  0
VERTEX
  5
5F
100
AcDbEntity
  8
001
100
AcDbVertex
100
AcDb2dVertex
 10
806.670807
 20
355.907242
 30
0.0
  0
VERTEX
  5
60
100
AcDbEntity
  8
001
100
AcDbVertex
100
AcDb2dVertex
 10
806.727539
 20
356.15686
 30
0.0
  0
VERTEX
  5
61
100
AcDbEntity
  8
001
100
AcDbVertex
100
AcDb2dVertex
 10
806.784393
 20
356.377563
 30
0.0
  0
VERTEX
  5
62
100
AcDbEntity
  8
001
100
AcDbVertex
100
AcDb2dVertex
 10
806.84137
 20
356.567932
 30
0.0
  0
VERTEX
  5
63
100
AcDbEntity
  8
001
100
AcDbVertex
100
AcDb2dVertex
 10
806.898499
 20
356.726669
 30
0.0
  0
VERTEX
  5
64
100
AcDbEntity
  8
001
100
AcDbVertex
100
AcDb2dVertex
 10
806.955811
 20
356.852463
 30
0.0
  0
VERTEX
  5
65
100
AcDbEntity
  8
001
100
AcDbVertex
100
AcDb2dVertex
 10
807.013245
 20
356.944031
 30
0.0
  0
VERTEX
  5
66
100
AcDbEntity
  8
001
100
AcDbVertex
100
AcDb2dVertex
 10
807.070862
 20
357.000015
 30
0.0
  0
VERTEX
  5
67
100
AcDbEntity
  8
001
100
AcDbVertex
100
AcDb2dVertex
 10
807.128662
 20
357.019104
 30
0.0
  0
VERTEX
  5
68
100
AcDbEntity
  8
001
100
AcDbVertex
100
AcDb2dVertex
 10
807.186615
 20
357.0
 30
0.0
  0
VERTEX
  5
69
100
AcDbEntity
  8
001
100
AcDbVertex
100
AcDb2dVertex
 10
807.244751
 20
356.941788
 30
0.0
  0
VERTEX
  5
6A
100
AcDbEntity
  8
001
100
AcDbVertex
100
AcDb2dVertex
 10
807.30307
 20
356.845383
 30
0.0
  0
VERTEX
  5
6B
100
AcDbEntity
  8
001
100
AcDbVertex
100
AcDb2dVertex
 10
807.361572
 20
356.712097
 30
0.0
  0
VERTEX
  5
6C
100
AcDbEntity
  8
001
100
AcDbVertex
100
AcDb2dVertex
 10
807.420227
 20
356.543228
 30
0.0
  0
VERTEX
  5
6D
100
AcDbEntity
  8
001
100
AcDbVertex
100
AcDb2dVertex
 10
807.479034
 20
356.340118
 30
0.0
  0
VERTEX
  5
6E
100
AcDbEntity
  8
001
100
AcDbVertex
100
AcDb2dVertex
 10
807.538025
 20
356.104065
 30
0.0
  0
VERTEX
  5
6F
100
AcDbEntity
  8
001
100
AcDbVertex
100
AcDb2dVertex
 10
807.597137
 20
355.83638
 30
0.0
  0
VERTEX
  5
70
100
AcDbEntity
  8
001
100
AcDbVertex
100
AcDb2dVertex
 10
807.656403
 20
355.538376
 30
0.0
  0
VERTEX
  5
71
100
AcDbEntity
  8
001
100
AcDbVertex
100
AcDb2dVertex
 10
807.71579
 20
355.211441
 30
0.0
  0
VERTEX
  5
72
100
AcDbEntity
  8
001
100
AcDbVertex
100
AcDb2dVertex
 10
807.775299
 20
354.856781
 30
0.0
  0
VERTEX
  5
73
100
AcDbEntity
  8
001
100
AcDbVertex
100
AcDb2dVertex
 10
807.834961
 20
354.475815
 30
0.0
  0
VERTEX
  5
74
100
AcDbEntity
  8
001
100
AcDbVertex
100
AcDb2dVertex
 10
807.894714
 20
354.069824
 30
0.0
  0
VERTEX
  5
75
100
AcDbEntity
  8
001
100
AcDbVertex
100
AcDb2dVertex
 10
807.954559
 20
353.640076
 30
0.0
  0
VERTEX
  5
76
100
AcDbEntity
  8
001
100
AcDbVertex
100
AcDb2dVertex
 10
808.014526
 20
353.187973
 30
0.0
  0
VERTEX
  5
77
100
AcDbEntity
  8
001
100
AcDbVertex
100
AcDb2dVertex
 10
808.074615
 20
352.714783
 30
0.0
  0
VERTEX
  5
78
100
AcDbEntity
  8
001
100
AcDbVertex
100
AcDb2dVertex
 10
808.134766
 20
352.221817
 30
0.0
  0
VERTEX
  5
79
100
AcDbEntity
  8
001
100
AcDbVertex
100
AcDb2dVertex
 10
808.195038
 20
351.710388
 30
0.0
  0
VERTEX
  5
7A
100
AcDbEntity
  8
001
100
AcDbVertex
100
AcDb2dVertex
 10
808.255341
 20
351.18187
 30
0.0
  0
VERTEX
  5
7B
100
AcDbEntity
  8
001
100
AcDbVertex
100
AcDb2dVertex
 10
808.315765
 20
350.637497
 30
0.0
  0
VERTEX
  5
7C
100
AcDbEntity
  8
001
100
AcDbVertex
100
AcDb2dVertex
 10
808.376221
 20
350.078659
 30
0.0
  0
VERTEX
  5
7D
100
AcDbEntity
  8
001
100
AcDbVertex
100
AcDb2dVertex
 10
808.436737
 20
349.506683
 30
0.0
  0
VERTEX
  5
7E
100
AcDbEntity
  8
001
100
AcDbVertex
100
AcDb2dVertex
 10
808.497345
 20
348.922775
 30
0.0
  0
VERTEX
  5
7F
100
AcDbEntity
  8
001
100
AcDbVertex
100
AcDb2dVertex
 10
808.557953
 20
348.328384
 30
0.0
  0
VERTEX
  5
80
100
AcDbEntity
  8
001
100
AcDbVertex
100
AcDb2dVertex
 10
808.618622
 20
347.724777
 30
0.0
  0
VERTEX
  5
81
100
AcDbEntity
  8
001
100
AcDbVertex
100
AcDb2dVertex
 10
808.679352
 20
347.113235
 30
0.0
  0
VERTEX
  5
82
100
AcDbEntity
  8
001
100
AcDbVertex
100
AcDb2dVertex
 10
808.740082
 20
346.495102
 30
0.0
  0
VERTEX
  5
83
100
AcDbEntity
  8
001
100
AcDbVertex
100
AcDb2dVertex
 10
808.800842
 20
345.871719
 30
0.0
  0
VERTEX
  5
84
100
AcDbEntity
  8
001
100
AcDbVertex
100
AcDb2dVertex
 10
808.861633
 20
345.244362
 30
0.0
  0
VERTEX
  5
85
100
AcDbEntity
  8
001
100
AcDbVertex
100
AcDb2dVertex
 10
808.922455
 20
344.614388
 30
0.0
  0
VERTEX
  5
86
100
AcDbEntity
  8
001
100
AcDbVertex
100
AcDb2dVertex
 10
808.983246
 20
343.983093
 30
0.0
  0
SEQEND
  5
87
100
AcDbEntity
  8
001
  0
LINE
  5
88
100
AcDbEntity
  8
001
100
AcDbLine
 10
805.5
 20
346.302429
 30
0.0
 11
805.5
 21
365.0
 31
0.0
  0
ARC
  5
89
100
AcDbEntity
  8
001
100
AcDbCircle
 10
803.846313
 20
360.159454
 30
0.0
 40
5.0
100
AcDbArc
 50
0.484171
 51
58.953779
  0
LINE
  5
8A
100
AcDbEntity
  8
001
100
AcDbLine
 10
808.846161
 20
360.201706
 30
0.0
 11
808.983246
 21
343.983093
 31
0.0
  0
ARC
  5
8B
100
AcDbEntity
  8
001
100
AcDbCircle
 10
810.983185
 20
344.0
 30
0.0
 40
2.0
100
AcDbArc
 50
180.484346
 51
270.0
  0
LINE
  5
8C
100
AcDbEntity
  8
001
100
AcDbLine
 10
806.424957
 20
364.443207
 30
0.0
 11
805.5
 21
365.0
 31
0.0
  0
LINE
  5
8D
100
AcDbEntity
  8
001
100
AcDbLine
 10
791.080597
 20
394.088226
 30
0.0
 11
790.021423
 21
367.961609
 31
0.0
  0
ARC
  5
8E
100
AcDbEntity
  8
001
100
AcDbCircle
 10
767.26001
 20
399.0
 30
0.0
 40
4.0
100
AcDbArc
 50
90.0
 51
177.678404
  0
LINE
  5
8F
100
AcDbEntity
  8
001
100
AcDbLine
 10
791.0
 20
403.0
 30
0.0
 11
767.26001
 21
403.0
 31
0.0
  0
ARC
  5
90
100
AcDbEntity
  8
001
100
AcDbCircle
 10
777.5
 20
399.0
 30
0.0
 40
4.0
100
AcDbArc
 50
0.0
 51
90.0
  0
ARC
  5
91
100
AcDbEntity
  8
001
100
AcDbCircle
 10
783.5
 20
399.0
 30
0.0
 40
2.0
100
AcDbArc
 50
180.0
 51
270.0
  0
ARC
  5
92
100
AcDbEntity
  8
001
100
AcDbCircle
 10
791.0
 20
399.0
 30
0.0
 40
4.0
100
AcDbArc
 50
0.0
 51
90.0
  0
ARC
  5
93
100
AcDbEntity
  8
001
100
AcDbCircle
 10
797.0
 20
399.0
 30
0.0
 40
2.0
100
AcDbArc
 50
180.0
 51
270.0
  0
LINE
  5
94
100
AcDbEntity
  8
001
100
AcDbLine
 10
807.0
 20
397.0
 30
0.0
 11
807.0
 21
406.6
 31
0.0
  0
ARC
  5
95
100
AcDbEntity
  8
001
100
AcDbCircle
 10
412.0
 20
761.636197
 30
0.0
 40
15.0
100
AcDbArc
 50
180.000117
 51
209.674526
  0
ARC
  5
96
100
AcDbEntity
  8
001
100
AcDbCircle
 10
412.0
 20
761.636136
 30
0.0
 40
17.0
100
AcDbArc
 50
179.999897
 51
209.674294
  0
ARC
  5
97
100
AcDbEntity
  8
001
100
AcDbCircle
 10
412.0
 20
701.237485
 30
0.0
 40
15.0
100
AcDbArc
 50
150.325474
 51
180.0
  0
ARC
  5
98
100
AcDbEntity
  8
001
100
AcDbCircle
 10
359.0
 20
731.436826
 30
0.0
 40
46.0
100
AcDbArc
 50
330.325585
 51
29.674448
  0
ARC
  5
99
100
AcDbEntity
  8
001
100
AcDbCircle
 10
412.0
 20
701.237546
 30
0.0
 40
17.0
100
AcDbArc
 50
150.325706
 51
180.000206
  0
ARC
  5
9A
100
AcDbEntity
  8
001
100
AcDbCircle
 10
359.0
 20
731.436826
 30
0.0
 40
44.0
100
AcDbArc
 50
330.32557
 51
29.674465
  0
LINE
  5
9B
100
AcDbEntity
  8
001
100
AcDbLine
 10
397.0
 20
701.237485
 30
0.0
 11
397.0
 21
692.552396
 31
0.0
  0
ARC
  5
9C
100
AcDbEntity
  8
001
100
AcDbCircle
 10
392.0
 20
692.552396
 30
0.0
 40
5.0
100
AcDbArc
 50
310.320225
 51
0.0
  0
LINE
  5
9D
100
AcDbEntity
  8
001
100
AcDbLine
 10
395.0
 20
701.237485
 30
0.0
 11
395.0
 21
691.898862
 31
0.0
  0
ARC
  5
9E
100
AcDbEntity
  8
001
100
AcDbCircle
 10
392.0
 20
691.898892
 30
0.0
 40
3.0
100
AcDbArc
 50
309.849227
 51
359.999417
  0
LINE
  5
9F
100
AcDbEntity
  8
001
100
AcDbLine
 10
397.0
 20
770.321286
 30
0.0
 11
397.0
 21
761.636167
 31
0.0
  0
ARC
  5
A0
100
AcDbEntity
  8
001
100
AcDbCircle
 10
392.0
 20
770.321286
 30
0.0
 40
5.0
100
AcDbArc
 50
0.0
 51
49.679775
  0
LINE
  5
A1
100
AcDbEntity
  8
001
100
AcDbLine
 10
395.0
 20
770.97479
 30
0.0
 11
395.0
 21
761.636167
 31
0.0
  0
ARC
  5
A2
100
AcDbEntity
  8
001
100
AcDbCircle
 10
392.0
 20
770.97479
 30
0.0
 40
3.0
100
AcDbArc
 50
0.0
 51
50.150773
  0
ARC
  5
A3
100
AcDbEntity
  8
001
100
AcDbCircle
 10
306.0
 20
761.636197
 30
0.0
 40
15.0
100
AcDbArc
 50
330.325474
 51
359.999883
  0
ARC
  5
A4
100
AcDbEntity
  8
001
100
AcDbCircle
 10
306.0
 20
761.636136
 30
0.0
 40
17.0
100
AcDbArc
 50
330.325706
 51
0.000103
  0
ARC
  5
A5
100
AcDbEntity
  8
001
100
AcDbCircle
 10
359.0
 20
731.436826
 30
0.0
 40
46.0
100
AcDbArc
 50
150.325552
 51
209.674415
  0
ARC
  5
A6
100
AcDbEntity
  8
001
100
AcDbCircle
 10
359.0
 20
731.436826
 30
0.0
 40
44.0
100
AcDbArc
 50
150.325535
 51
209.67443
  0
LINE
  5
A7
100
AcDbEntity
  8
001
100
AcDbLine
 10
321.0
 20
770.321286
 30
0.0
 11
321.0
 21
761.636167
 31
0.0
  0
LINE
  5
A8
100
AcDbEntity
  8
001
100
AcDbLine
 10
323.0
 20
770.97479
 30
0.0
 11
323.0
 21
761.636167
 31
0.0
  0
ARC
  5
A9
100
AcDbEntity
  8
001
100
AcDbCircle
 10
326.0
 20
770.321286
 30
0.0
 40
5.0
100
AcDbArc
 50
130.320225
 51
180.0
  0
ARC
  5
AA
100
AcDbEntity
  8
001
100
AcDbCircle
 10
326.0
 20
770.97482
 30
0.0
 40
3.0
100
AcDbArc
 50
129.850495
 51
180.000583
  0
ARC
  5
AB
100
AcDbEntity
  8
001
100
AcDbCircle
 10
306.0
 20
701.237485
 30
0.0
 40
15.0
100
AcDbArc
 50
0.0
 51
29.674526
  0
ARC
  5
AC
100
AcDbEntity
  8
001
100
AcDbCircle
 10
306.0
 20
701.237546
 30
0.0
 40
17.0
100
AcDbArc
 50
359.999794
 51
29.674294
  0
LINE
  5
AD
100
AcDbEntity
  8
001
100
AcDbLine
 10
321.0
 20
701.237485
 30
0.0
 11
321.0
 21
692.552396
 31
0.0
  0
ARC
  5
AE
100
AcDbEntity
  8
001
100
AcDbCircle
 10
326.0
 20
692.552396
 30
0.0
 40
5.0
100
AcDbArc
 50
180.0
 51
229.679775
  0
LINE
  5
AF
100
AcDbEntity
  8
001
100
AcDbLine
 10
323.0
 20
701.237485
 30
0.0
 11
323.0
 21
691.898862
 31
0.0
  0
ARC
  5
B0
100
AcDbEntity
  8
001
100
AcDbCircle
 10
326.0
 20
691.898862
 30
0.0
 40
3.0
100
AcDbArc
 50
180.0
 51
230.149505
  0
ARC
  5
B1
100
AcDbEntity
  8
001
100
AcDbCircle
 10
359.0
 20
731.436826
 30
0.0
 40
56.0
100
AcDbArc
 50
49.679795
 51
130.320205
  0
ARC
  5
B2
100
AcDbEntity
  8
001
100
AcDbCircle
 10
358.999939
 20
731.436856
 30
0.0
 40
54.5
100
AcDbArc
 50
50.150204
 51
129.849747
  0
ARC
  5
B3
100
AcDbEntity
  8
001
100
AcDbCircle
 10
359.0
 20
731.436856
 30
0.0
 40
56.0
100
AcDbArc
 50
229.679795
 51
310.320205
  0
ARC
  5
B4
100
AcDbEntity
  8
001
100
AcDbCircle
 10
358.999939
 20
731.436826
 30
0.0
 40
54.5
100
AcDbArc
 50
230.150253
 51
309.849796
  0
CIRCLE
  5
B5
100
AcDbEntity
  8
001
100
AcDbCircle
 10
359.0
 20
731.436826
 30
0.0
 40
40.0
  0
LINE
  5
B6
100
AcDbEntity
  8
001
100
AcDbLine
 10
395.0
 20
770.97479
 30
0.0
 11
385.4599
 21
761.43472
 31
0.0
  0
LINE
  5
B7
100
AcDbEntity
  8
001
100
AcDbLine
 10
323.0
 20
770.97479
 30
0.0
 11
332.540101
 21
761.43472
 31
0.0
  0
LINE
  5
B8
100
AcDbEntity
  8
001
100
AcDbLine
 10
323.0
 20
691.898862
 30
0.0
 11
332.540101
 21
701.438962
 31
0.0
  0
LINE
  5
B9
100
AcDbEntity
  8
001
100
AcDbLine
 10
395.0
 20
691.898862
 30
0.0
 11
385.4599
 21
701.438962
 31
0.0
  0
LINE
  5
BA
100
AcDbEntity
  8
001
100
AcDbLine
 10
314.517579
 20
743.154996
 30
0.0
 11
292.72882
 21
740.173398
 31
0.0
  0
ARC
  5
BB
100
AcDbEntity
  8
001
100
AcDbCircle
 10
293.0
 20
738.191861
 30
0.0
 40
2.0
100
AcDbArc
 50
97.792689
 51
180.0
  0
ARC
  5
BC
100
AcDbEntity
  8
001
100
AcDbCircle
 10
293.0
 20
724.68179
 30
0.0
 40
2.0
100
AcDbArc
 50
180.0
 51
262.207311
  0
LINE
  5
BD
100
AcDbEntity
  8
001
100
AcDbLine
 10
314.517579
 20
719.718656
 30
0.0
 11
292.72882
 21
722.700253
 31
0.0
  0
LINE
  5
BE
100
AcDbEntity
  8
001
100
AcDbLine
 10
291.0
 20
738.191861
 30
0.0
 11
291.0
 21
724.68179
 31
0.0
  0
LINE
  5
BF
100
AcDbEntity
  8
001
100
AcDbLine
 10
292.0
 20
738.191861
 30
0.0
 11
292.0
 21
724.68179
 31
0.0
  0
ARC
  5
C0
100
AcDbEntity
  8
001
100
AcDbCircle
 10
425.0
 20
724.68179
 30
0.0
 40
2.0
100
AcDbArc
 50
277.792689
 51
0.0
  0
LINE
  5
C1
100
AcDbEntity
  8
001
100
AcDbLine
 10
403.482422
 20
719.718656
 30
0.0
 11
425.27118
 21
722.700253
 31
0.0
  0
LINE
  5
C2
100
AcDbEntity
  8
001
100
AcDbLine
 10
427.0
 20
738.191861
 30
0.0
 11
427.0
 21
724.68179
 31
0.0
  0
LINE
  5
C3
100
AcDbEntity
  8
001
100
AcDbLine
 10
426.0
 20
738.191861
 30
0.0
 11
426.0
 21
724.68179
 31
0.0
  0
LINE
  5
C4
100
AcDbEntity
  8
001
100
AcDbLine
 10
403.482422
 20
743.154996
 30
0.0
 11
425.27118
 21
740.173398
 31
0.0
  0
ARC
  5
C5
100
AcDbEntity
  8
001
100
AcDbCircle
 10
425.0
 20
738.191861
 30
0.0
 40
2.0
100
AcDbArc
 50
0.0
 51
82.207311
  0
LINE
  5
C6
100
AcDbEntity
  8
001
100
AcDbLine
 10
334.598022
 20
717.641446
 30
0.0
 11
330.71576
 21
703.152554
 31
0.0
  0
LINE
  5
C7
100
AcDbEntity
  8
001
100
AcDbLine
 10
334.598022
 20
717.641446
 30
0.0
 11
328.56305
 21
714.157132
 31
0.0
  0
ARC
  5
C8
100
AcDbEntity
  8
001
100
AcDbCircle
 10
359.000062
 20
731.436826
 30
0.0
 40
35.0
100
AcDbArc
 50
105.000078
 51
209.584435
  0
ARC
  5
C9
100
AcDbEntity
  8
001
100
AcDbCircle
 10
359.000062
 20
698.936856
 30
0.0
 40
4.5
100
AcDbArc
 50
180.0
 51
0.0
  0
ARC
  5
CA
100
AcDbEntity
  8
001
100
AcDbCircle
 10
359.000062
 20
704.936856
 30
0.0
 40
4.5
100
AcDbArc
 50
0.0
 51
180.0
  0
LINE
  5
CB
100
AcDbEntity
  8
001
100
AcDbLine
 10
354.500062
 20
698.936856
 30
0.0
 11
354.500062
 21
704.936856
 31
0.0
  0
LINE
  5
CC
100
AcDbEntity
  8
001
100
AcDbLine
 10
363.500062
 20
698.936856
 30
0.0
 11
363.500062
 21
704.936856
 31
0.0
  0
ARC
  5
CD
100
AcDbEntity
  8
001
100
AcDbCircle
 10
359.000062
 20
704.936856
 30
0.0
 40
2.5
100
AcDbArc
 50
0.0
 51
180.0
  0
LINE
  5
CE
100
AcDbEntity
  8
001
100
AcDbLine
 10
356.500062
 20
704.936856
 30
0.0
 11
356.500062
 21
698.936856
 31
0.0
  0
ARC
  5
CF
100
AcDbEntity
  8
001
100
AcDbCircle
 10
359.000062
 20
698.936856
 30
0.0
 40
2.5
100
AcDbArc
 50
180.0
 51
0.0
  0
LINE
  5
D0
100
AcDbEntity
  8
001
100
AcDbLine
 10
361.500062
 20
698.936856
 30
0.0
 11
361.500062
 21
704.936856
 31
0.0
  0
ARC
  5
D1
100
AcDbEntity
  8
001
100
AcDbCircle
 10
355.000062
 20
725.436856
 30
0.0
 40
3.0
100
AcDbArc
 50
180.0
 51
270.0
  0
LINE
  5
D2
100
AcDbEntity
  8
001
100
AcDbLine
 10
355.000062
 20
722.436856
 30
0.0
 11
363.000062
 21
722.436856
 31
0.0
  0
ARC
  5
D3
100
AcDbEntity
  8
001
100
AcDbCircle
 10
363.000062
 20
725.436856
 30
0.0
 40
3.0
100
AcDbArc
 50
270.0
 51
0.0
  0
LINE
  5
D4
100
AcDbEntity
  8
001
100
AcDbLine
 10
366.000062
 20
726.936856
 30
0.0
 11
366.000062
 21
725.436856
 31
0.0
  0
ARC
  5
D5
100
AcDbEntity
  8
001
100
AcDbCircle
 10
363.000062
 20
726.936856
 30
0.0
 40
3.0
100
AcDbArc
 50
0.0
 51
90.0
  0
ARC
  5
D6
100
AcDbEntity
  8
001
100
AcDbCircle
 10
355.000062
 20
735.936856
 30
0.0
 40
3.0
100
AcDbArc
 50
180.0
 51
270.0
  0
LINE
  5
D7
100
AcDbEntity
  8
001
100
AcDbLine
 10
352.000062
 20
737.436856
 30
0.0
 11
352.000062
 21
735.936856
 31
0.0
  0
ARC
  5
D8
100
AcDbEntity
  8
001
100
AcDbCircle
 10
355.000062
 20
737.436856
 30
0.0
 40
3.0
100
AcDbArc
 50
90.0
 51
180.0
  0
LINE
  5
D9
100
AcDbEntity
  8
001
100
AcDbLine
 10
355.000062
 20
740.436856
 30
0.0
 11
363.000062
 21
740.436856
 31
0.0
  0
ARC
  5
DA
100
AcDbEntity
  8
001
100
AcDbCircle
 10
363.000062
 20
737.436856
 30
0.0
 40
3.0
100
AcDbArc
 50
0.0
 51
90.0
  0
ARC
  5
DB
100
AcDbEntity
  8
001
100
AcDbCircle
 10
363.000062
 20
737.436856
 30
0.0
 40
6.0
100
AcDbArc
 50
0.0
 51
90.0
  0
LINE
  5
DC
100
AcDbEntity
  8
001
100
AcDbLine
 10
355.000062
 20
743.436856
 30
0.0
 11
363.000062
 21
743.436856
 31
0.0
  0
ARC
  5
DD
100
AcDbEntity
  8
001
100
AcDbCircle
 10
355.000062
 20
737.436856
 30
0.0
 40
6.0
100
AcDbArc
 50
90.0
 51
180.0
  0
LINE
  5
DE
100
AcDbEntity
  8
001
100
AcDbLine
 10
349.000062
 20
737.436856
 30
0.0
 11
349.000062
 21
735.936856
 31
0.0
  0
ARC
  5
DF
100
AcDbEntity
  8
001
100
AcDbCircle
 10
355.000062
 20
735.936856
 30
0.0
 40
6.0
100
AcDbArc
 50
180.0
 51
270.0
  0
LINE
  5
E0
100
AcDbEntity
  8
001
100
AcDbLine
 10
355.000062
 20
729.936856
 30
0.0
 11
363.000062
 21
729.936856
 31
0.0
  0
LINE
  5
E1
100
AcDbEntity
  8
001
100
AcDbLine
 10
355.000062
 20
732.936856
 30
0.0
 11
363.000062
 21
732.936856
 31
0.0
  0
ARC
  5
E2
100
AcDbEntity
  8
001
100
AcDbCircle
 10
363.000062
 20
726.936856
 30
0.0
 40
6.0
100
AcDbArc
 50
0.0
 51
90.0
  0
LINE
  5
E3
100
AcDbEntity
  8
001
100
AcDbLine
 10
369.000062
 20
726.936856
 30
0.0
 11
369.000062
 21
725.436856
 31
0.0
  0
ARC
  5
E4
100
AcDbEntity
  8
001
100
AcDbCircle
 10
363.000062
 20
725.436856
 30
0.0
 40
6.0
100
AcDbArc
 50
270.0
 51
0.0
  0
LINE
  5
E5
100
AcDbEntity
  8
001
100
AcDbLine
 10
355.000062
 20
719.436856
 30
0.0
 11
363.000062
 21
719.436856
 31
0.0
  0
ARC
  5
E6
100
AcDbEntity
  8
001
100
AcDbCircle
 10
355.000062
 20
725.436856
 30
0.0
 40
6.0
100
AcDbArc
 50
180.0
 51
270.0
  0
LINE
  5
E7
100
AcDbEntity
  8
001
100
AcDbLine
 10
349.000062
 20
725.436856
 30
0.0
 11
352.000062
 21
725.436856
 31
0.0
  0
LINE
  5
E8
100
AcDbEntity
  8
001
100
AcDbLine
 10
366.000062
 20
737.436856
 30
0.0
 11
369.000062
 21
737.436856
 31
0.0
  0
ARC
  5
E9
100
AcDbEntity
  8
001
100
AcDbCircle
 10
359.0
 20
731.436856
 30
0.0
 40
35.0
100
AcDbArc
 50
315.000071
 51
59.58438
  0
LINE
  5
EA
100
AcDbEntity
  8
001
100
AcDbLine
 10
383.748779
 20
706.688138
 30
0.0
 11
387.284301
 21
703.152554
 31
0.0
  0
LINE
  5
EB
100
AcDbEntity
  8
001
100
AcDbLine
 10
373.235108
 20
755.584989
 30
0.0
 11
369.352784
 21
770.07388
 31
0.0
  0
LINE
  5
EC
100
AcDbEntity
  8
001
100
AcDbLine
 10
373.235108
 20
755.584989
 30
0.0
 11
376.719421
 21
761.620023
 31
0.0
  0
LINE
  5
ED
100
AcDbEntity
  8
001
100
AcDbLine
 10
349.941346
 20
765.244229
 30
0.0
 11
348.647277
 21
770.07388
 31
0.0
  0
LINE
  5
EE
100
AcDbEntity
  8
001
100
AcDbLine
 10
345.0
 20
714.686826
 30
0.0
 11
373.0
 21
714.686826
 31
0.0
  0
LINE
  5
EF
100
AcDbEntity
  8
001
100
AcDbLine
 10
345.0
 20
748.186826
 30
0.0
 11
373.0
 21
748.186826
 31
0.0
  0
LINE
  5
F0
100
AcDbEntity
  8
001
100
AcDbLine
 10
342.25
 20
717.436826
 30
0.0
 11
342.25
 21
745.436826
 31
0.0
  0
LINE
  5
F1
100
AcDbEntity
  8
001
100
AcDbLine
 10
375.75
 20
745.436826
 30
0.0
 11
375.75
 21
717.436826
 31
0.0
  0
LINE
  5
F2
100
AcDbEntity
  8
001
100
AcDbLine
 10
373.0
 20
712.436826
 30
0.0
 11
345.0
 21
712.436826
 31
0.0
  0
LINE
  5
F3
100
AcDbEntity
  8
001
100
AcDbLine
 10
345.0
 20
750.436826
 30
0.0
 11
373.0
 21
750.436826
 31
0.0
  0
LINE
  5
F4
100
AcDbEntity
  8
001
100
AcDbLine
 10
340.0
 20
745.436826
 30
0.0
 11
340.0
 21
717.436826
 31
0.0
  0
LINE
  5
F5
100
AcDbEntity
  8
001
100
AcDbLine
 10
378.0
 20
745.436826
 30
0.0
 11
378.0
 21
717.436826
 31
0.0
  0
LINE
  5
F6
100
AcDbEntity
  8
001
100
AcDbLine
 10
340.0
 20
717.436826
 30
0.0
 11
345.0
 21
712.436826
 31
0.0
  0
LINE
  5
F7
100
AcDbEntity
  8
001
100
AcDbLine
 10
373.0
 20
712.436826
 30
0.0
 11
378.0
 21
717.436826
 31
0.0
  0
LINE
  5
F8
100
AcDbEntity
  8
001
100
AcDbLine
 10
378.0
 20
745.436826
 30
0.0
 11
373.0
 21
750.436826
 31
0.0
  0
LINE
  5
F9
100
AcDbEntity
  8
001
100
AcDbLine
 10
345.0
 20
750.436826
 30
0.0
 11
340.0
 21
745.436826
 31
0.0
  0
LINE
  5
FA
100
AcDbEntity
  8
001
100
AcDbLine
 10
373.0
 20
714.686826
 30
0.0
 11
375.75
 21
717.436826
 31
0.0
  0
LINE
  5
FB
100
AcDbEntity
  8
001
100
AcDbLine
 10
375.75
 20
745.436826
 30
0.0
 11
373.0
 21
748.186826
 31
0.0
  0
LINE
  5
FC
100
AcDbEntity
  8
001
100
AcDbLine
 10
345.0
 20
748.186826
 30
0.0
 11
342.25
 21
745.436826
 31
0.0
  0
LINE
  5
FD
100
AcDbEntity
  8
001
100
AcDbLine
 10
342.25
 20
717.436826
 30
0.0
 11
345.0
 21
714.686826
 31
0.0
  0
LINE
  5
FE
100
AcDbEntity
  8
001
100
AcDbLine
 10
342.25
 20
717.436826
 30
0.0
 11
340.0
 21
717.436826
 31
0.0
  0
LINE
  5
FF
100
AcDbEntity
  8
001
100
AcDbLine
 10
345.0
 20
714.686826
 30
0.0
 11
345.0
 21
712.436826
 31
0.0
  0
LINE
  5
100
100
AcDbEntity
  8
001
100
AcDbLine
 10
373.0
 20
714.686826
 30
0.0
 11
373.0
 21
712.436826
 31
0.0
  0
LINE
  5
101
100
AcDbEntity
  8
001
100
AcDbLine
 10
375.75
 20
717.436826
 30
0.0
 11
378.0
 21
717.436826
 31
0.0
  0
LINE
  5
102
100
AcDbEntity
  8
001
100
AcDbLine
 10
375.75
 20
745.436826
 30
0.0
 11
378.0
 21
745.436826
 31
0.0
  0
LINE
  5
103
100
AcDbEntity
  8
001
100
AcDbLine
 10
373.0
 20
748.186826
 30
0.0
 11
373.0
 21
750.436826
 31
0.0
  0
LINE
  5
104
100
AcDbEntity
  8
001
100
AcDbLine
 10
345.0
 20
748.186826
 30
0.0
 11
345.0
 21
750.436826
 31
0.0
  0
LINE
  5
105
100
AcDbEntity
  8
001
100
AcDbLine
 10
342.25
 20
745.436826
 30
0.0
 11
340.0
 21
745.436826
 31
0.0
  0
LINE
  5
106
100
AcDbEntity
  8
001
100
AcDbLine
 10
798.955
 20
446.0
 30
0.0
 11
801.207023
 21
496.044955
 31
0.0
  0
LINE
  5
107
100
AcDbEntity
  8
001
100
AcDbLine
 10
804.0
 20
449.0
 30
0.0
 11
804.0
 21
497.0
 31
0.0
  0
ARC
  5
109
100
AcDbEntity
  8
001
100
AcDbCircle
 10
802.206012
 20
496.0
 30
0.0
 40
1.0
100
AcDbArc
 50
90.0
 51
177.423428
  0
ARC
  5
10B
100
AcDbEntity
  8
001
100
AcDbCircle
 10
806.0
 20
449.0
 30
0.0
 40
2.0
100
AcDbArc
 50
180.0
 51
270.0
  0
LINE
  5
10F
100
AcDbEntity
  8
001
100
AcDbLine
 10
793.0
 20
412.0
 30
0.0
 11
793.0
 21
445.0
 31
0.0
  0
ARC
  5
111
100
AcDbEntity
  8
001
100
AcDbCircle
 10
795.0
 20
412.0
 30
0.0
 40
2.0
100
AcDbArc
 50
180.0
 51
270.0
  0
LINE
  5
112
100
AcDbEntity
  8
001
  6
CENTER
100
AcDbLine
 10
818.0
 20
424.0
 30
0.0
 11
789.25
 21
424.0
 31
0.0
  0
LINE
  5
11C
100
AcDbEntity
  8
001
100
AcDbLine
 10
843.0
 20
412.0
 30
0.0
 11
843.0
 21
445.0
 31
0.0
  0
ARC
  5
11E
100
AcDbEntity
  8
001
100
AcDbCircle
 10
841.0
 20
412.0
 30
0.0
 40
2.0
100
AcDbArc
 50
270.0
 51
0.0
  0
LINE
  5
120
100
AcDbEntity
  8
001
100
AcDbLine
 10
818.0
 20
447.0
 30
0.0
 11
806.0
 21
447.0
 31
0.0
  0
LINE
  5
121
100
AcDbEntity
  8
001
100
AcDbLine
 10
842.0
 20
446.0
 30
0.0
 11
794.0
 21
446.0
 31
0.0
  0
LINE
  5
123
100
AcDbEntity
  8
001
100
AcDbLine
 10
841.0
 20
410.0
 30
0.0
 11
795.0
 21
410.0
 31
0.0
  0
LINE
  5
124
100
AcDbEntity
  8
001
100
AcDbLine
 10
804.0
 20
497.0
 30
0.0
 11
818.0
 21
472.0
 31
0.0
  0
LINE
  5
125
100
AcDbEntity
  8
001
100
AcDbLine
 10
818.0
 20
472.0
 30
0.0
 11
804.427758
 21
447.763854
 31
0.0
  0
LINE
  5
126
100
AcDbEntity
  8
001
100
AcDbLine
 10
903.0
 20
214.0
 30
0.0
 11
903.0
 21
220.0
 31
0.0
  0
LINE
  5
127
100
AcDbEntity
  8
001
100
AcDbLine
 10
821.5
 20
257.629423
 30
0.0
 11
821.5
 21
279.481997
 31
0.0
  0
LINE
  5
128
100
AcDbEntity
  8
001
100
AcDbLine
 10
853.0
 20
154.0
 30
0.0
 11
853.0
 21
170.811978
 31
0.0
  0
ARC
  5
129
100
AcDbEntity
  8
001
100
AcDbCircle
 10
851.0
 20
154.0
 30
0.0
 40
2.0
100
AcDbArc
 50
270.0
 51
0.0
  0
LINE
  5
12A
100
AcDbEntity
  8
001
100
AcDbLine
 10
841.0
 20
275.866374
 30
0.0
 11
841.0
 21
256.20778
 31
0.0
  0
ARC
  5
12B
100
AcDbEntity
  8
001
100
AcDbCircle
 10
843.0
 20
256.20778
 30
0.0
 40
2.0
100
AcDbArc
 50
180.0
 51
237.477252
  0
ARC
  5
12C
100
AcDbEntity
  8
001
100
AcDbCircle
 10
839.0
 20
275.866374
 30
0.0
 40
2.0
100
AcDbArc
 50
0.0
 51
70.366641
  0
ARC
  5
12D
100
AcDbEntity
  8
001
100
AcDbCircle
 10
819.5
 20
279.481997
 30
0.0
 40
2.0
100
AcDbArc
 50
0.0
 51
88.624769
  0
ARC
  5
12E
100
AcDbEntity
  8
001
100
AcDbCircle
 10
823.5
 20
263.173586
 30
0.0
 40
2.0
100
AcDbArc
 50
180.0
 51
263.207178
  0
ARC
  5
12F
100
AcDbEntity
  8
001
100
AcDbCircle
 10
823.5
 20
257.629423
 30
0.0
 40
2.0
100
AcDbArc
 50
180.0
 51
262.29074
  0
ARC
  5
130
100
AcDbEntity
  8
001
100
AcDbCircle
 10
871.360997
 20
184.459963
 30
0.0
 40
2.0
100
AcDbArc
 50
240.0
 51
328.624769
  0
LINE
  5
131
100
AcDbEntity
  8
001
100
AcDbLine
 10
851.436112
 20
193.6542
 30
0.0
 11
870.360997
 21
182.727912
 31
0.0
  0
ARC
  5
132
100
AcDbEntity
  8
001
100
AcDbCircle
 10
872.860997
 20
187.058039
 30
0.0
 40
2.0
100
AcDbArc
 50
331.375231
 51
60.0
  0
LINE
  5
133
100
AcDbEntity
  8
001
100
AcDbLine
 10
854.936112
 20
199.716377
 30
0.0
 11
873.860997
 21
188.79009
 31
0.0
  0
ARC
  5
134
100
AcDbEntity
  8
001
100
AcDbCircle
 10
818.0
 20
217.0
 30
0.0
 40
64.5
100
AcDbArc
 50
310.852571
 51
349.147429
  0
LINE
  5
135
100
AcDbEntity
  8
001
100
AcDbLine
 10
857.882182
 20
167.99325
 30
0.0
 11
840.977182
 21
177.753356
 31
0.0
  0
LINE
  5
136
100
AcDbEntity
  8
001
100
AcDbLine
 10
880.382182
 20
206.964393
 30
0.0
 11
863.477182
 21
216.724499
 31
0.0
  0
ARC
  5
137
100
AcDbEntity
  8
001
100
AcDbCircle
 10
864.477182
 20
218.45655
 30
0.0
 40
2.0
100
AcDbArc
 50
181.795006
 51
240.0
  0
ARC
  5
138
100
AcDbEntity
  8
001
100
AcDbCircle
 10
879.382182
 20
205.232342
 30
0.0
 40
2.0
100
AcDbArc
 50
349.147429
 51
60.0
  0
ARC
  5
139
100
AcDbEntity
  8
001
100
AcDbCircle
 10
839.977182
 20
176.021305
 30
0.0
 40
2.0
100
AcDbArc
 50
60.0
 51
118.204994
  0
ARC
  5
13A
100
AcDbEntity
  8
001
100
AcDbCircle
 10
858.882182
 20
169.7253
 30
0.0
 40
2.0
100
AcDbArc
 50
240.0
 51
310.852571
  0
ARC
  5
13B
100
AcDbEntity
  8
001
100
AcDbCircle
 10
860.737498
 20
198.676347
 30
0.0
 40
2.0
100
AcDbArc
 50
156.792822
 51
240.0
  0
ARC
  5
13C
100
AcDbEntity
  8
001
100
AcDbCircle
 10
855.237498
 20
189.150068
 30
0.0
 40
2.0
100
AcDbArc
 50
60.0
 51
143.207178
  0
ARC
  5
13D
100
AcDbEntity
  8
001
100
AcDbCircle
 10
855.936112
 20
201.448428
 30
0.0
 40
2.0
100
AcDbArc
 50
157.70926
 51
240.0
  0
ARC
  5
13E
100
AcDbEntity
  8
001
100
AcDbCircle
 10
850.436112
 20
191.922149
 30
0.0
 40
2.0
100
AcDbArc
 50
60.0
 51
142.29074
  0
LINE
  5
13F
100
AcDbEntity
  8
001
  6
CENTER
100
AcDbLine
 10
878.0
 20
207.25
 30
0.0
 11
878.0
 21
226.75
 31
0.0
  0
LINE
  5
140
100
AcDbEntity
  8
001
100
AcDbLine
 10
862.09365
 20
223.0
 30
0.0
 11
900.0
 21
223.0
 31
0.0
  0
LINE
  5
141
100
AcDbEntity
  8
001
100
AcDbLine
 10
900.0
 20
211.0
 30
0.0
 11
873.392305
 21
211.0
 31
0.0
  0
ARC
  5
142
100
AcDbEntity
  8
001
100
AcDbCircle
 10
900.0
 20
220.0
 30
0.0
 40
3.0
100
AcDbArc
 50
0.0
 51
90.0
  0
ARC
  5
143
100
AcDbEntity
  8
001
100
AcDbCircle
 10
900.0
 20
214.0
 30
0.0
 40
3.0
100
AcDbArc
 50
270.0
 51
0.0
  0
LINE
  5
144
100
AcDbEntity
  8
001
100
AcDbLine
 10
868.0
 20
228.129942
 30
0.0
 11
868.0
 21
283.0
 31
0.0
  0
ARC
  5
145
100
AcDbEntity
  8
001
100
AcDbCircle
 10
856.0
 20
228.129942
 30
0.0
 40
12.0
100
AcDbArc
 50
334.691296
 51
0.0
  0
LINE
  5
146
100
AcDbEntity
  8
001
100
AcDbLine
 10
870.566667
 20
290.7
 30
0.0
 11
868.0
 21
283.0
 31
0.0
  0
LINE
  5
147
100
AcDbEntity
  8
001
100
AcDbLine
 10
872.736694
 20
399.162033
 30
0.0
 11
874.081116
 21
366.0
 31
0.0
  0
POLYLINE
  5
148
100
AcDbEntity
  8
001
100
AcDb2dPolyline
 66
     1
 10
0.0
 20
0.0
 30
0.0
  0
VERTEX
  5
149
100
AcDbEntity
  8
001
100
AcDbVertex
100
AcDb2dVertex
 10
830.5
 20
346.302429
 30
0.0
  0
VERTEX
  5
14A
100
AcDbEntity
  8
001
100
AcDbVertex
100
AcDb2dVertex
 10
830.444672
 20
346.856415
 30
0.0
  0
VERTEX
  5
14B
100
AcDbEntity
  8
001
100
AcDbVertex
100
AcDb2dVertex
 10
830.389374
 20
347.409088
 30
0.0
  0
VERTEX
  5
14C
100
AcDbEntity
  8
001
100
AcDbVertex
100
AcDb2dVertex
 10
830.334045
 20
347.959122
 30
0.0
  0
VERTEX
  5
14D
100
AcDbEntity
  8
001
100
AcDbVertex
100
AcDb2dVertex
 10
830.278717
 20
348.505188
 30
0.0
  0
VERTEX
  5
14E
100
AcDbEntity
  8
001
100
AcDbVertex
100
AcDb2dVertex
 10
830.223358
 20
349.046021
 30
0.0
  0
VERTEX
  5
14F
100
AcDbEntity
  8
001
100
AcDbVertex
100
AcDb2dVertex
 10
830.167969
 20
349.580246
 30
0.0
  0
VERTEX
  5
150
100
AcDbEntity
  8
001
100
AcDbVertex
100
AcDb2dVertex
 10
830.112518
 20
350.106552
 30
0.0
  0
VERTEX
  5
151
100
AcDbEntity
  8
001
100
AcDbVertex
100
AcDb2dVertex
 10
830.057037
 20
350.623627
 30
0.0
  0
VERTEX
  5
152
100
AcDbEntity
  8
001
100
AcDbVertex
100
AcDb2dVertex
 10
830.001526
 20
351.130219
 30
0.0
  0
VERTEX
  5
153
100
AcDbEntity
  8
001
100
AcDbVertex
100
AcDb2dVertex
 10
829.945923
 20
351.624893
 30
0.0
  0
VERTEX
  5
154
100
AcDbEntity
  8
001
100
AcDbVertex
100
AcDb2dVertex
 10
829.890289
 20
352.106415
 30
0.0
  0
VERTEX
  5
155
100
AcDbEntity
  8
001
100
AcDbVertex
100
AcDb2dVertex
 10
829.834595
 20
352.573471
 30
0.0
  0
VERTEX
  5
156
100
AcDbEntity
  8
001
100
AcDbVertex
100
AcDb2dVertex
 10
829.778809
 20
353.024689
 30
0.0
  0
VERTEX
  5
157
100
AcDbEntity
  8
001
100
AcDbVertex
100
AcDb2dVertex
 10
829.722961
 20
353.458801
 30
0.0
  0
VERTEX
  5
158
100
AcDbEntity
  8
001
100
AcDbVertex
100
AcDb2dVertex
 10
829.667023
 20
353.874451
 30
0.0
  0
VERTEX
  5
159
100
AcDbEntity
  8
001
100
AcDbVertex
100
AcDb2dVertex
 10
829.610962
 20
354.27034
 30
0.0
  0
VERTEX
  5
15A
100
AcDbEntity
  8
001
100
AcDbVertex
100
AcDb2dVertex
 10
829.55484
 20
354.645126
 30
0.0
  0
VERTEX
  5
15B
100
AcDbEntity
  8
001
100
AcDbVertex
100
AcDb2dVertex
 10
829.498596
 20
354.997559
 30
0.0
  0
VERTEX
  5
15C
100
AcDbEntity
  8
001
100
AcDbVertex
100
AcDb2dVertex
 10
829.44223
 20
355.326248
 30
0.0
  0
VERTEX
  5
15D
100
AcDbEntity
  8
001
100
AcDbVertex
100
AcDb2dVertex
 10
829.385773
 20
355.629898
 30
0.0
  0
VERTEX
  5
15E
100
AcDbEntity
  8
001
100
AcDbVertex
100
AcDb2dVertex
 10
829.329193
 20
355.907242
 30
0.0
  0
VERTEX
  5
15F
100
AcDbEntity
  8
001
100
AcDbVertex
100
AcDb2dVertex
 10
829.272461
 20
356.15686
 30
0.0
  0
VERTEX
  5
160
100
AcDbEntity
  8
001
100
AcDbVertex
100
AcDb2dVertex
 10
829.215607
 20
356.377563
 30
0.0
  0
VERTEX
  5
161
100
AcDbEntity
  8
001
100
AcDbVertex
100
AcDb2dVertex
 10
829.15863
 20
356.567932
 30
0.0
  0
VERTEX
  5
162
100
AcDbEntity
  8
001
100
AcDbVertex
100
AcDb2dVertex
 10
829.101501
 20
356.726669
 30
0.0
  0
VERTEX
  5
163
100
AcDbEntity
  8
001
100
AcDbVertex
100
AcDb2dVertex
 10
829.044189
 20
356.852463
 30
0.0
  0
VERTEX
  5
164
100
AcDbEntity
  8
001
100
AcDbVertex
100
AcDb2dVertex
 10
828.986755
 20
356.944031
 30
0.0
  0
VERTEX
  5
165
100
AcDbEntity
  8
001
100
AcDbVertex
100
AcDb2dVertex
 10
828.929138
 20
357.000015
 30
0.0
  0
VERTEX
  5
166
100
AcDbEntity
  8
001
100
AcDbVertex
100
AcDb2dVertex
 10
828.871338
 20
357.019104
 30
0.0
  0
VERTEX
  5
167
100
AcDbEntity
  8
001
100
AcDbVertex
100
AcDb2dVertex
 10
828.813385
 20
357.0
 30
0.0
  0
VERTEX
  5
168
100
AcDbEntity
  8
001
100
AcDbVertex
100
AcDb2dVertex
 10
828.755249
 20
356.941788
 30
0.0
  0
VERTEX
  5
169
100
AcDbEntity
  8
001
100
AcDbVertex
100
AcDb2dVertex
 10
828.69693
 20
356.845383
 30
0.0
  0
VERTEX
  5
16A
100
AcDbEntity
  8
001
100
AcDbVertex
100
AcDb2dVertex
 10
828.638428
 20
356.712097
 30
0.0
  0
VERTEX
  5
16B
100
AcDbEntity
  8
001
100
AcDbVertex
100
AcDb2dVertex
 10
828.579773
 20
356.543228
 30
0.0
  0
VERTEX
  5
16C
100
AcDbEntity
  8
001
100
AcDbVertex
100
AcDb2dVertex
 10
828.520966
 20
356.340118
 30
0.0
  0
VERTEX
  5
16D
100
AcDbEntity
  8
001
100
AcDbVertex
100
AcDb2dVertex
 10
828.461975
 20
356.104065
 30
0.0
  0
VERTEX
  5
16E
100
AcDbEntity
  8
001
100
AcDbVertex
100
AcDb2dVertex
 10
828.402863
 20
355.83638
 30
0.0
  0
VERTEX
  5
16F
100
AcDbEntity
  8
001
100
AcDbVertex
100
AcDb2dVertex
 10
828.343597
 20
355.538376
 30
0.0
  0
VERTEX
  5
170
100
AcDbEntity
  8
001
100
AcDbVertex
100
AcDb2dVertex
 10
828.28421
 20
355.211441
 30
0.0
  0
VERTEX
  5
171
100
AcDbEntity
  8
001
100
AcDbVertex
100
AcDb2dVertex
 10
828.224701
 20
354.856781
 30
0.0
  0
VERTEX
  5
172
100
AcDbEntity
  8
001
100
AcDbVertex
100
AcDb2dVertex
 10
828.165039
 20
354.475815
 30
0.0
  0
VERTEX
  5
173
100
AcDbEntity
  8
001
100
AcDbVertex
100
AcDb2dVertex
 10
828.105286
 20
354.069824
 30
0.0
  0
VERTEX
  5
174
100
AcDbEntity
  8
001
100
AcDbVertex
100
AcDb2dVertex
 10
828.045441
 20
353.640076
 30
0.0
  0
VERTEX
  5
175
100
AcDbEntity
  8
001
100
AcDbVertex
100
AcDb2dVertex
 10
827.985474
 20
353.187973
 30
0.0
  0
VERTEX
  5
176
100
AcDbEntity
  8
001
100
AcDbVertex
100
AcDb2dVertex
 10
827.925385
 20
352.714783
 30
0.0
  0
VERTEX
  5
177
100
AcDbEntity
  8
001
100
AcDbVertex
100
AcDb2dVertex
 10
827.865234
 20
352.221817
 30
0.0
  0
VERTEX
  5
178
100
AcDbEntity
  8
001
100
AcDbVertex
100
AcDb2dVertex
 10
827.804962
 20
351.710388
 30
0.0
  0
VERTEX
  5
179
100
AcDbEntity
  8
001
100
AcDbVertex
100
AcDb2dVertex
 10
827.744659
 20
351.18187
 30
0.0
  0
VERTEX
  5
17A
100
AcDbEntity
  8
001
100
AcDbVertex
100
AcDb2dVertex
 10
827.684235
 20
350.637497
 30
0.0
  0
VERTEX
  5
17B
100
AcDbEntity
  8
001
100
AcDbVertex
100
AcDb2dVertex
 10
827.623779
 20
350.078659
 30
0.0
  0
VERTEX
  5
17C
100
AcDbEntity
  8
001
100
AcDbVertex
100
AcDb2dVertex
 10
827.563263
 20
349.506683
 30
0.0
  0
VERTEX
  5
17D
100
AcDbEntity
  8
001
100
AcDbVertex
100
AcDb2dVertex
 10
827.502655
 20
348.922775
 30
0.0
  0
VERTEX
  5
17E
100
AcDbEntity
  8
001
100
AcDbVertex
100
AcDb2dVertex
 10
827.442047
 20
348.328384
 30
0.0
  0
VERTEX
  5
17F
100
AcDbEntity
  8
001
100
AcDbVertex
100
AcDb2dVertex
 10
827.381378
 20
347.724777
 30
0.0
  0
VERTEX
  5
180
100
AcDbEntity
  8
001
100
AcDbVertex
100
AcDb2dVertex
 10
827.320648
 20
347.113235
 30
0.0
  0
VERTEX
  5
181
100
AcDbEntity
  8
001
100
AcDbVertex
100
AcDb2dVertex
 10
827.259918
 20
346.495102
 30
0.0
  0
VERTEX
  5
182
100
AcDbEntity
  8
001
100
AcDbVertex
100
AcDb2dVertex
 10
827.199158
 20
345.871719
 30
0.0
  0
VERTEX
  5
183
100
AcDbEntity
  8
001
100
AcDbVertex
100
AcDb2dVertex
 10
827.138367
 20
345.244362
 30
0.0
  0
VERTEX
  5
184
100
AcDbEntity
  8
001
100
AcDbVertex
100
AcDb2dVertex
 10
827.077545
 20
344.614388
 30
0.0
  0
VERTEX
  5
185
100
AcDbEntity
  8
001
100
AcDbVertex
100
AcDb2dVertex
 10
827.016754
 20
343.983093
 30
0.0
  0
SEQEND
  5
186
100
AcDbEntity
  8
001
  0
LINE
  5
187
100
AcDbEntity
  8
001
100
AcDbLine
 10
830.5
 20
346.302429
 30
0.0
 11
830.5
 21
365.0
 31
0.0
  0
ARC
  5
188
100
AcDbEntity
  8
001
100
AcDbCircle
 10
832.153687
 20
360.159454
 30
0.0
 40
5.0
100
AcDbArc
 50
121.046221
 51
179.515829
  0
LINE
  5
189
100
AcDbEntity
  8
001
100
AcDbLine
 10
827.153839
 20
360.201706
 30
0.0
 11
827.016754
 21
343.983093
 31
0.0
  0
ARC
  5
18A
100
AcDbEntity
  8
001
100
AcDbCircle
 10
825.016815
 20
344.0
 30
0.0
 40
2.0
100
AcDbArc
 50
270.0
 51
359.515654
  0
LINE
  5
18B
100
AcDbEntity
  8
001
100
AcDbLine
 10
829.575043
 20
364.443207
 30
0.0
 11
830.5
 21
365.0
 31
0.0
  0
LINE
  5
18C
100
AcDbEntity
  8
001
100
AcDbLine
 10
844.919403
 20
394.088226
 30
0.0
 11
845.978577
 21
367.961609
 31
0.0
  0
ARC
  5
18D
100
AcDbEntity
  8
001
100
AcDbCircle
 10
868.73999
 20
399.0
 30
0.0
 40
4.0
100
AcDbArc
 50
2.321596
 51
90.0
  0
LINE
  5
18E
100
AcDbEntity
  8
001
100
AcDbLine
 10
845.0
 20
403.0
 30
0.0
 11
868.73999
 21
403.0
 31
0.0
  0
ARC
  5
18F
100
AcDbEntity
  8
001
100
AcDbCircle
 10
858.5
 20
399.0
 30
0.0
 40
4.0
100
AcDbArc
 50
90.0
 51
180.0
  0
ARC
  5
190
100
AcDbEntity
  8
001
100
AcDbCircle
 10
852.5
 20
399.0
 30
0.0
 40
2.0
100
AcDbArc
 50
270.0
 51
0.0
  0
ARC
  5
191
100
AcDbEntity
  8
001
100
AcDbCircle
 10
845.0
 20
399.0
 30
0.0
 40
4.0
100
AcDbArc
 50
90.0
 51
180.0
  0
ARC
  5
192
100
AcDbEntity
  8
001
100
AcDbCircle
 10
839.0
 20
399.0
 30
0.0
 40
2.0
100
AcDbArc
 50
270.0
 51
0.0
  0
LINE
  5
193
100
AcDbEntity
  8
001
100
AcDbLine
 10
829.0
 20
397.0
 30
0.0
 11
829.0
 21
406.6
 31
0.0
  0
LINE
  5
194
100
AcDbEntity
  8
001
100
AcDbLine
 10
783.5
 20
397.0
 30
0.0
 11
852.5
 21
397.0
 31
0.0
  0
LINE
  5
195
100
AcDbEntity
  8
001
100
AcDbLine
 10
761.918884
 20
366.0
 30
0.0
 11
874.081116
 21
366.0
 31
0.0
  0
LINE
  5
196
100
AcDbEntity
  8
001
100
AcDbLine
 10
830.5
 20
365.0
 30
0.0
 11
805.5
 21
365.0
 31
0.0
  0
LINE
  5
197
100
AcDbEntity
  8
001
100
AcDbLine
 10
808.82251
 20
363.0
 30
0.0
 11
827.17749
 21
363.0
 31
0.0
  0
LINE
  5
198
100
AcDbEntity
  8
001
100
AcDbLine
 10
810.983185
 20
342.0
 30
0.0
 11
825.016815
 21
342.0
 31
0.0
  0
LINE
  5
199
100
AcDbEntity
  8
001
100
AcDbLine
 10
738.0
 20
317.0
 30
0.0
 11
898.0
 21
317.0
 31
0.0
  0
LINE
  5
19A
100
AcDbEntity
  8
001
100
AcDbLine
 10
739.0
 20
301.0
 30
0.0
 11
897.0
 21
301.0
 31
0.0
  0
LINE
  5
19B
100
AcDbEntity
  8
001
100
AcDbLine
 10
768.0
 20
283.0
 30
0.0
 11
868.0
 21
283.0
 31
0.0
  0
ARC
  5
19C
100
AcDbEntity
  8
001
100
AcDbCircle
 10
818.0
 20
217.0
 30
0.0
 40
64.5
100
AcDbArc
 50
70.366641
 51
109.633359
  0
CIRCLE
  5
19D
100
AcDbEntity
  8
001
100
AcDbCircle
 10
818.0
 20
217.0
 30
0.0
 40
25.0
  0
CIRCLE
  5
19E
100
AcDbEntity
  8
001
100
AcDbCircle
 10
818.0
 20
217.0
 30
0.0
 40
31.0
  0
CIRCLE
  5
19F
100
AcDbEntity
  8
001
100
AcDbCircle
 10
818.0
 20
217.0
 30
0.0
 40
33.0
  0
CIRCLE
  5
1A0
100
AcDbEntity
  8
001
100
AcDbCircle
 10
818.0
 20
217.0
 30
0.0
 40
39.0
  0
ARC
  5
1A1
100
AcDbEntity
  8
001
100
AcDbCircle
 10
818.0
 20
217.0
 30
0.0
 40
44.5
100
AcDbArc
 50
216.792822
 51
323.207178
  0
LINE
  5
1A2
100
AcDbEntity
  8
001
100
AcDbLine
 10
851.0
 20
152.0
 30
0.0
 11
785.0
 21
152.0
 31
0.0
  0
LINE
  5
1A3
100
AcDbEntity
  8
001
100
AcDbLine
 10
318.750252
 20
397.0
 30
0.0
 11
322.612903
 21
397.0
 31
0.0
  0
LINE
  5
1A4
100
AcDbEntity
  8
001
100
AcDbLine
 10
317.993102
 20
340.3
 30
0.0
 11
319.790221
 21
366.0
 31
0.0
  0
LINE
  5
1A5
100
AcDbEntity
  8
001
100
AcDbLine
 10
298.193237
 20
343.860487
 30
0.0
 11
298.461552
 21
347.697571
 31
0.0
  0
ARC
  5
1A6
100
AcDbEntity
  8
001
100
AcDbCircle
 10
308.437193
 20
347.0
 30
0.0
 40
10.0
100
AcDbArc
 50
355.999965
 51
175.999966
  0
LINE
  5
1B0
100
AcDbEntity
  8
001
100
AcDbLine
 10
334.0
 20
412.0
 30
0.0
 11
334.0
 21
445.0
 31
0.0
  0
ARC
  5
1B2
100
AcDbEntity
  8
001
100
AcDbCircle
 10
336.0
 20
412.0
 30
0.0
 40
2.0
100
AcDbArc
 50
180.0
 51
270.0
  0
LINE
  5
1B3
100
AcDbEntity
  8
001
100
AcDbLine
 10
378.045
 20
446.0
 30
0.0
 11
375.792977
 21
496.044955
 31
0.0
  0
LINE
  5
1B4
100
AcDbEntity
  8
001
100
AcDbLine
 10
373.0
 20
449.0
 30
0.0
 11
373.0
 21
497.0
 31
0.0
  0
ARC
  5
1B6
100
AcDbEntity
  8
001
100
AcDbCircle
 10
374.793988
 20
496.0
 30
0.0
 40
1.0
100
AcDbArc
 50
2.576572
 51
90.0
  0
ARC
  5
1B8
100
AcDbEntity
  8
001
100
AcDbCircle
 10
371.0
 20
449.0
 30
0.0
 40
2.0
100
AcDbArc
 50
270.0
 51
0.0
  0
LINE
  5
1BC
100
AcDbEntity
  8
001
100
AcDbLine
 10
384.0
 20
412.0
 30
0.0
 11
384.0
 21
445.0
 31
0.0
  0
ARC
  5
1BE
100
AcDbEntity
  8
001
100
AcDbCircle
 10
382.0
 20
412.0
 30
0.0
 40
2.0
100
AcDbArc
 50
270.0
 51
0.0
  0
LINE
  5
1BF
100
AcDbEntity
  8
001
100
AcDbLine
 10
374.793988
 20
497.0
 30
0.0
 11
359.0
 21
497.0
 31
0.0
  0
LINE
  5
1C0
100
AcDbEntity
  8
001
100
AcDbLine
 10
371.0
 20
447.0
 30
0.0
 11
359.0
 21
447.0
 31
0.0
  0
LINE
  5
1C1
100
AcDbEntity
  8
001
100
AcDbLine
 10
383.0
 20
446.0
 30
0.0
 11
335.0
 21
446.0
 31
0.0
  0
LINE
  5
1C3
100
AcDbEntity
  8
001
100
AcDbLine
 10
382.0
 20
410.0
 30
0.0
 11
336.0
 21
410.0
 31
0.0
  0
LINE
  5
1C4
100
AcDbEntity
  8
001
100
AcDbLine
 10
359.0
 20
472.0
 30
0.0
 11
372.572242
 21
447.763854
 31
0.0
  0
LINE
  5
1C5
100
AcDbEntity
  8
001
100
AcDbLine
 10
373.0
 20
497.0
 30
0.0
 11
359.0
 21
472.0
 31
0.0
  0
LINE
  5
1C6
100
AcDbEntity
  8
001
  6
CENTER
100
AcDbLine
 10
367.75
 20
424.0
 30
0.0
 11
350.25
 21
424.0
 31
0.0
  0
CIRCLE
  5
1C7
100
AcDbEntity
  8
001
100
AcDbCircle
 10
359.0
 20
424.0
 30
0.0
 40
4.19
  0
LINE
  5
1C8
100
AcDbEntity
  8
001
100
AcDbLine
 10
356.5
 20
425.443376
 30
0.0
 11
356.5
 21
422.556624
 31
0.0
  0
LINE
  5
1C9
100
AcDbEntity
  8
001
100
AcDbLine
 10
359.0
 20
426.886751
 30
0.0
 11
356.5
 21
425.443376
 31
0.0
  0
LINE
  5
1CA
100
AcDbEntity
  8
001
100
AcDbLine
 10
361.5
 20
425.443376
 30
0.0
 11
359.0
 21
426.886751
 31
0.0
  0
LINE
  5
1CB
100
AcDbEntity
  8
001
100
AcDbLine
 10
361.5
 20
422.556624
 30
0.0
 11
361.5
 21
425.443376
 31
0.0
  0
LINE
  5
1CC
100
AcDbEntity
  8
001
100
AcDbLine
 10
359.0
 20
421.113249
 30
0.0
 11
361.5
 21
422.556624
 31
0.0
  0
LINE
  5
1CD
100
AcDbEntity
  8
001
100
AcDbLine
 10
359.0
 20
421.113249
 30
0.0
 11
356.5
 21
422.556624
 31
0.0
  0
CIRCLE
  5
1CE
100
AcDbEntity
  8
001
100
AcDbCircle
 10
359.0
 20
424.0
 30
0.0
 40
5.0
  0
LINE
  5
1CF
100
AcDbEntity
  8
001
100
AcDbLine
 10
316.433333
 20
290.7
 30
0.0
 11
319.0
 21
283.0
 31
0.0
  0
LINE
  5
1D0
100
AcDbEntity
  8
001
100
AcDbLine
 10
738.0
 20
328.0
 30
0.0
 11
898.0
 21
328.0
 31
0.0
  0
ARC
  5
1D1
100
AcDbEntity
  8
001
100
AcDbCircle
 10
753.863758
 20
338.0
 30
0.0
 40
10.0
100
AcDbArc
 50
270.0
 51
282.334825
  0
ARC
  5
1D2
100
AcDbEntity
  8
001
100
AcDbCircle
 10
882.136242
 20
338.0
 30
0.0
 40
10.0
100
AcDbArc
 50
257.665175
 51
270.0
  0
LINE
  5
1D3
100
AcDbEntity
  8
001
100
AcDbLine
 10
315.394801
 20
364.687919
 30
0.0
 11
296.423575
 21
363.319158
 31
0.0
  0
LINE
  5
1D4
100
AcDbEntity
  8
001
100
AcDbLine
 10
296.198109
 20
342.0
 30
0.0
 11
293.097504
 21
342.0
 31
0.0
  0
LINE
  5
1D5
100
AcDbEntity
  8
001
100
AcDbLine
 10
291.099768
 20
344.09513
 30
0.0
 11
291.789045
 21
358.569947
 31
0.0
  0
ARC
  5
1D6
100
AcDbEntity
  8
001
100
AcDbCircle
 10
296.783386
 20
358.332121
 30
0.0
 40
5.0
100
AcDbArc
 50
94.1267
 51
177.273689
  0
ARC
  5
1D7
100
AcDbEntity
  8
001
100
AcDbCircle
 10
293.097504
 20
344.0
 30
0.0
 40
2.0
100
AcDbArc
 50
177.273689
 51
270.0
  0
ARC
  5
1D8
100
AcDbEntity
  8
001
100
AcDbCircle
 10
296.198109
 20
344.0
 30
0.0
 40
2.0
100
AcDbArc
 50
270.0
 51
356.000008
  0
ARC
  5
1D9
100
AcDbEntity
  8
001
100
AcDbCircle
 10
315.03499
 20
369.674955
 30
0.0
 40
5.0
100
AcDbArc
 50
274.1267
 51
312.693537
  0
LINE
  5
1DA
100
AcDbEntity
  8
001
100
AcDbLine
 10
871.782442
 20
347.957059
 30
0.0
 11
871.152374
 21
366.0
 31
0.0
  0
LINE
  5
1DB
100
AcDbEntity
  8
001
100
AcDbLine
 10
764.217558
 20
347.957059
 30
0.0
 11
764.847626
 21
366.0
 31
0.0
  0
LINE
  5
1DC
100
AcDbEntity
  8
001
100
AcDbLine
 10
348.0
 20
403.0
 30
0.0
 11
348.0
 21
406.6
 31
0.0
  0
LINE
  5
1DD
100
AcDbEntity
  8
001
100
AcDbLine
 10
399.249748
 20
397.0
 30
0.0
 11
395.387097
 21
397.0
 31
0.0
  0
LINE
  5
1DE
100
AcDbEntity
  8
001
100
AcDbLine
 10
400.006898
 20
340.3
 30
0.0
 11
398.209779
 21
366.0
 31
0.0
  0
LINE
  5
1DF
100
AcDbEntity
  8
001
100
AcDbLine
 10
419.806763
 20
343.860487
 30
0.0
 11
419.538448
 21
347.697571
 31
0.0
  0
ARC
  5
1E0
100
AcDbEntity
  8
001
100
AcDbCircle
 10
409.562807
 20
347.0
 30
0.0
 40
10.0
100
AcDbArc
 50
4.000034
 51
184.000035
  0
LINE
  5
1E1
100
AcDbEntity
  8
001
100
AcDbLine
 10
459.0
 20
191.622316
 30
0.0
 11
459.0
 21
154.0
 31
0.0
  0
LINE
  5
1E2
100
AcDbEntity
  8
001
100
AcDbLine
 10
471.0
 20
191.622316
 30
0.0
 11
471.0
 21
154.0
 31
0.0
  0
LINE
  5
1E3
100
AcDbEntity
  8
001
100
AcDbLine
 10
407.735535
 20
248.0
 30
0.0
 11
406.284746
 21
248.0
 31
0.0
  0
LINE
  5
1E4
100
AcDbEntity
  8
001
100
AcDbLine
 10
399.0
 20
271.342899
 30
0.0
 11
399.0
 21
283.0
 31
0.0
  0
LINE
  5
1E5
100
AcDbEntity
  8
001
100
AcDbLine
 10
401.566667
 20
290.7
 30
0.0
 11
399.0
 21
283.0
 31
0.0
  0
ARC
  5
1E6
100
AcDbEntity
  8
001
100
AcDbCircle
 10
406.284746
 20
258.0
 30
0.0
 40
10.0
100
AcDbArc
 50
167.5
 51
270.0
  0
LINE
  5
1E7
100
AcDbEntity
  8
001
100
AcDbLine
 10
381.6
 20
192.856571
 30
0.0
 11
395.006708
 21
253.330324
 31
0.0
  0
LINE
  5
1E8
100
AcDbEntity
  8
001
100
AcDbLine
 10
396.521785
 20
260.164396
 30
0.0
 11
399.0
 21
271.342899
 31
0.0
  0
LINE
  5
1E9
100
AcDbEntity
  8
001
100
AcDbLine
 10
411.0
 20
186.50444
 30
0.0
 11
411.0
 21
247.49556
 31
0.0
  0
LINE
  5
1EA
100
AcDbEntity
  8
001
100
AcDbLine
 10
424.0
 20
178.112911
 30
0.0
 11
424.0
 21
255.887089
 31
0.0
  0
LINE
  5
1EB
100
AcDbEntity
  8
001
100
AcDbLine
 10
488.0
 20
257.5
 30
0.0
 11
427.264465
 21
257.5
 31
0.0
  0
LINE
  5
1EC
100
AcDbEntity
  8
001
100
AcDbLine
 10
454.0
 20
176.5
 30
0.0
 11
427.264465
 21
176.5
 31
0.0
  0
LINE
  5
1ED
100
AcDbEntity
  8
001
100
AcDbLine
 10
413.6357
 20
249.926089
 30
0.0
 11
421.3643
 21
255.573911
 31
0.0
  0
ARC
  5
1EE
100
AcDbEntity
  8
001
100
AcDbCircle
 10
427.264465
 20
247.5
 30
0.0
 40
10.0
100
AcDbArc
 50
90.0
 51
126.158185
  0
ARC
  5
1EF
100
AcDbEntity
  8
001
100
AcDbCircle
 10
407.735535
 20
258.0
 30
0.0
 40
10.0
100
AcDbArc
 50
270.0
 51
306.158185
  0
LINE
  5
1F0
100
AcDbEntity
  8
001
100
AcDbLine
 10
421.3643
 20
178.426089
 30
0.0
 11
413.6357
 21
184.073911
 31
0.0
  0
ARC
  5
1F1
100
AcDbEntity
  8
001
100
AcDbCircle
 10
407.735535
 20
176.0
 30
0.0
 40
10.0
100
AcDbArc
 50
53.841815
 51
90.0
  0
ARC
  5
1F2
100
AcDbEntity
  8
001
100
AcDbCircle
 10
427.264465
 20
186.5
 30
0.0
 40
10.0
100
AcDbArc
 50
233.841815
 51
270.0
  0
ARC
  5
1F3
100
AcDbEntity
  8
001
100
AcDbCircle
 10
454.0
 20
171.5
 30
0.0
 40
5.0
100
AcDbArc
 50
0.0
 51
90.0
  0
LINE
  5
1F4
100
AcDbEntity
  8
001
100
AcDbLine
 10
442.0
 20
223.0
 30
0.0
 11
496.0
 21
223.0
 31
0.0
  0
LINE
  5
1F5
100
AcDbEntity
  8
001
100
AcDbLine
 10
442.0
 20
211.0
 30
0.0
 11
496.0
 21
211.0
 31
0.0
  0
LINE
  5
1F6
100
AcDbEntity
  8
001
100
AcDbLine
 10
499.0
 20
211.0
 30
0.0
 11
499.0
 21
223.0
 31
0.0
  0
LINE
  5
1F7
100
AcDbEntity
  8
001
100
AcDbLine
 10
439.0
 20
211.0
 30
0.0
 11
439.0
 21
223.0
 31
0.0
  0
ARC
  5
1F8
100
AcDbEntity
  8
001
100
AcDbCircle
 10
496.0
 20
226.0
 30
0.0
 40
3.0
100
AcDbArc
 50
270.0
 51
0.0
  0
ARC
  5
1F9
100
AcDbEntity
  8
001
100
AcDbCircle
 10
496.0
 20
208.0
 30
0.0
 40
3.0
100
AcDbArc
 50
0.0
 51
90.0
  0
ARC
  5
1FA
100
AcDbEntity
  8
001
100
AcDbCircle
 10
442.0
 20
226.0
 30
0.0
 40
3.0
100
AcDbArc
 50
180.0
 51
270.0
  0
ARC
  5
1FB
100
AcDbEntity
  8
001
100
AcDbCircle
 10
442.0
 20
208.0
 30
0.0
 40
3.0
100
AcDbArc
 50
90.0
 51
180.0
  0
LINE
  5
1FC
100
AcDbEntity
  8
001
  6
CENTER
100
AcDbLine
 10
469.0
 20
207.25
 30
0.0
 11
469.0
 21
226.75
 31
0.0
  0
LINE
  5
1FD
100
AcDbEntity
  8
001
100
AcDbLine
 10
461.0
 20
152.0
 30
0.0
 11
469.0
 21
152.0
 31
0.0
  0
ARC
  5
1FE
100
AcDbEntity
  8
001
100
AcDbCircle
 10
469.0
 20
154.0
 30
0.0
 40
2.0
100
AcDbArc
 50
270.0
 51
0.0
  0
ARC
  5
1FF
100
AcDbEntity
  8
001
100
AcDbCircle
 10
461.0
 20
154.0
 30
0.0
 40
2.0
100
AcDbArc
 50
180.0
 51
270.0
  0
LINE
  5
200
100
AcDbEntity
  8
001
100
AcDbLine
 10
488.0
 20
176.5
 30
0.0
 11
476.0
 21
176.5
 31
0.0
  0
ARC
  5
201
100
AcDbEntity
  8
001
100
AcDbCircle
 10
476.0
 20
171.5
 30
0.0
 40
5.0
100
AcDbArc
 50
90.0
 51
180.0
  0
ARC
  5
202
100
AcDbEntity
  8
001
100
AcDbCircle
 10
454.0
 20
191.622316
 30
0.0
 40
5.0
100
AcDbArc
 50
0.0
 51
90.0
  0
ARC
  5
203
100
AcDbEntity
  8
001
100
AcDbCircle
 10
476.0
 20
191.622316
 30
0.0
 40
5.0
100
AcDbArc
 50
90.0
 51
180.0
  0
LINE
  5
204
100
AcDbEntity
  8
001
100
AcDbLine
 10
459.0
 20
196.622316
 30
0.0
 11
471.0
 21
196.622316
 31
0.0
  0
LINE
  5
205
100
AcDbEntity
  8
001
100
AcDbLine
 10
402.605199
 20
364.687919
 30
0.0
 11
421.576425
 21
363.319158
 31
0.0
  0
LINE
  5
206
100
AcDbEntity
  8
001
100
AcDbLine
 10
421.801891
 20
342.0
 30
0.0
 11
424.902496
 21
342.0
 31
0.0
  0
LINE
  5
207
100
AcDbEntity
  8
001
100
AcDbLine
 10
426.900232
 20
344.09513
 30
0.0
 11
426.210955
 21
358.569947
 31
0.0
  0
ARC
  5
208
100
AcDbEntity
  8
001
100
AcDbCircle
 10
421.216614
 20
358.332121
 30
0.0
 40
5.0
100
AcDbArc
 50
2.726311
 51
85.8733
  0
ARC
  5
209
100
AcDbEntity
  8
001
100
AcDbCircle
 10
424.902496
 20
344.0
 30
0.0
 40
2.0
100
AcDbArc
 50
270.0
 51
2.726311
  0
ARC
  5
20A
100
AcDbEntity
  8
001
100
AcDbCircle
 10
421.801891
 20
344.0
 30
0.0
 40
2.0
100
AcDbArc
 50
183.999992
 51
270.0
  0
ARC
  5
20B
100
AcDbEntity
  8
001
100
AcDbCircle
 10
402.96501
 20
369.674955
 30
0.0
 40
5.0
100
AcDbArc
 50
227.306463
 51
265.8733
  0
LINE
  5
20C
100
AcDbEntity
  8
001
100
AcDbLine
 10
370.0
 20
403.0
 30
0.0
 11
370.0
 21
406.6
 31
0.0
  0
LINE
  5
20D
100
AcDbEntity
  8
001
100
AcDbLine
 10
326.750252
 20
403.0
 30
0.0
 11
391.249748
 21
403.0
 31
0.0
  0
LINE
  5
20E
100
AcDbEntity
  8
001
100
AcDbLine
 10
313.0
 20
366.0
 30
0.0
 11
405.0
 21
366.0
 31
0.0
  0
LINE
  5
20F
100
AcDbEntity
  8
001
100
AcDbLine
 10
289.0
 20
328.0
 30
0.0
 11
429.0
 21
328.0
 31
0.0
  0
LINE
  5
210
100
AcDbEntity
  8
001
100
AcDbLine
 10
289.0
 20
317.0
 30
0.0
 11
429.0
 21
317.0
 31
0.0
  0
LINE
  5
211
100
AcDbEntity
  8
001
100
AcDbLine
 10
290.0
 20
301.0
 30
0.0
 11
428.0
 21
301.0
 31
0.0
  0
LINE
  5
212
100
AcDbEntity
  8
001
100
AcDbLine
 10
319.0
 20
283.0
 30
0.0
 11
399.0
 21
283.0
 31
0.0
  0
POLYLINE
  5
213
100
AcDbEntity
  8
001
100
AcDb2dPolyline
 66
     1
 10
0.0
 20
0.0
 30
0.0
  0
VERTEX
  5
214
100
AcDbEntity
  8
001
100
AcDbVertex
100
AcDb2dVertex
 10
384.976467
 20
215.0
 30
0.0
  0
VERTEX
  5
215
100
AcDbEntity
  8
001
100
AcDbVertex
100
AcDb2dVertex
 10
384.216449
 20
215.931654
 30
0.0
  0
VERTEX
  5
216
100
AcDbEntity
  8
001
100
AcDbVertex
100
AcDb2dVertex
 10
383.255563
 20
216.83199
 30
0.0
  0
VERTEX
  5
217
100
AcDbEntity
  8
001
100
AcDbVertex
100
AcDb2dVertex
 10
382.101463
 20
217.693836
 30
0.0
  0
VERTEX
  5
218
100
AcDbEntity
  8
001
100
AcDbVertex
100
AcDb2dVertex
 10
380.763343
 20
218.510326
 30
0.0
  0
VERTEX
  5
219
100
AcDbEntity
  8
001
100
AcDbVertex
100
AcDb2dVertex
 10
379.251862
 20
219.274956
 30
0.0
  0
VERTEX
  5
21A
100
AcDbEntity
  8
001
100
AcDbVertex
100
AcDb2dVertex
 10
377.57906
 20
219.981636
 30
0.0
  0
VERTEX
  5
21B
100
AcDbEntity
  8
001
100
AcDbVertex
100
AcDb2dVertex
 10
375.758261
 20
220.624736
 30
0.0
  0
VERTEX
  5
21C
100
AcDbEntity
  8
001
100
AcDbVertex
100
AcDb2dVertex
 10
373.803971
 20
221.199133
 30
0.0
  0
VERTEX
  5
21D
100
AcDbEntity
  8
001
100
AcDbVertex
100
AcDb2dVertex
 10
371.731756
 20
221.700253
 30
0.0
  0
VERTEX
  5
21E
100
AcDbEntity
  8
001
100
AcDbVertex
100
AcDb2dVertex
 10
369.558123
 20
222.124103
 30
0.0
  0
VERTEX
  5
21F
100
AcDbEntity
  8
001
100
AcDbVertex
100
AcDb2dVertex
 10
367.300386
 20
222.467307
 30
0.0
  0
VERTEX
  5
220
100
AcDbEntity
  8
001
100
AcDbVertex
100
AcDb2dVertex
 10
364.976531
 20
222.727131
 30
0.0
  0
VERTEX
  5
221
100
AcDbEntity
  8
001
100
AcDbVertex
100
AcDb2dVertex
 10
362.605068
 20
222.901506
 30
0.0
  0
VERTEX
  5
222
100
AcDbEntity
  8
001
100
AcDbVertex
100
AcDb2dVertex
 10
360.204889
 20
222.989042
 30
0.0
  0
VERTEX
  5
223
100
AcDbEntity
  8
001
100
AcDbVertex
100
AcDb2dVertex
 10
357.795111
 20
222.989042
 30
0.0
  0
VERTEX
  5
224
100
AcDbEntity
  8
001
100
AcDbVertex
100
AcDb2dVertex
 10
355.394932
 20
222.901506
 30
0.0
  0
VERTEX
  5
225
100
AcDbEntity
  8
001
100
AcDbVertex
100
AcDb2dVertex
 10
353.023469
 20
222.727131
 30
0.0
  0
VERTEX
  5
226
100
AcDbEntity
  8
001
100
AcDbVertex
100
AcDb2dVertex
 10
350.699614
 20
222.467307
 30
0.0
  0
VERTEX
  5
227
100
AcDbEntity
  8
001
100
AcDbVertex
100
AcDb2dVertex
 10
348.441877
 20
222.124103
 30
0.0
  0
VERTEX
  5
228
100
AcDbEntity
  8
001
100
AcDbVertex
100
AcDb2dVertex
 10
346.268244
 20
221.700253
 30
0.0
  0
VERTEX
  5
229
100
AcDbEntity
  8
001
100
AcDbVertex
100
AcDb2dVertex
 10
344.196029
 20
221.199133
 30
0.0
  0
VERTEX
  5
22A
100
AcDbEntity
  8
001
100
AcDbVertex
100
AcDb2dVertex
 10
342.241739
 20
220.624736
 30
0.0
  0
VERTEX
  5
22B
100
AcDbEntity
  8
001
100
AcDbVertex
100
AcDb2dVertex
 10
340.42094
 20
219.981636
 30
0.0
  0
VERTEX
  5
22C
100
AcDbEntity
  8
001
100
AcDbVertex
100
AcDb2dVertex
 10
338.748138
 20
219.274956
 30
0.0
  0
VERTEX
  5
22D
100
AcDbEntity
  8
001
100
AcDbVertex
100
AcDb2dVertex
 10
337.236657
 20
218.510326
 30
0.0
  0
VERTEX
  5
22E
100
AcDbEntity
  8
001
100
AcDbVertex
100
AcDb2dVertex
 10
335.898537
 20
217.693836
 30
0.0
  0
VERTEX
  5
22F
100
AcDbEntity
  8
001
100
AcDbVertex
100
AcDb2dVertex
 10
334.744437
 20
216.83199
 30
0.0
  0
VERTEX
  5
230
100
AcDbEntity
  8
001
100
AcDbVertex
100
AcDb2dVertex
 10
333.783551
 20
215.931654
 30
0.0
  0
VERTEX
  5
231
100
AcDbEntity
  8
001
100
AcDbVertex
100
AcDb2dVertex
 10
333.023533
 20
215.0
 30
0.0
  0
SEQEND
  5
232
100
AcDbEntity
  8
001
  0
LINE
  5
233
100
AcDbEntity
  8
001
  6
CENTER
100
AcDbLine
 10
359.0
 20
171.0
 30
0.0
 11
359.0
 21
512.0
 31
0.0
  0
LINE
  5
234
100
AcDbEntity
  8
001
  6
CENTER
100
AcDbLine
 10
718.0
 20
217.0
 30
0.0
 11
918.0
 21
217.0
 31
0.0
  0
LINE
  5
235
100
AcDbEntity
  8
001
  6
CENTER
100
AcDbLine
 10
818.0
 20
137.0
 30
0.0
 11
818.0
 21
512.0
 31
0.0
  0
ARC
  5
236
100
AcDbEntity
  8
001
100
AcDbCircle
 10
387.254441
 20
770.922338
 30
0.0
 40
40.0
100
AcDbArc
 50
10.837621
 51
79.828786
  0
ARC
  5
237
100
AcDbEntity
  8
001
100
AcDbCircle
 10
181.0
 20
731.436826
 30
0.0
 40
250.0
100
AcDbArc
 50
349.162379
 51
10.837621
  0
ARC
  5
238
100
AcDbEntity
  8
001
100
AcDbCircle
 10
359.0
 20
613.436826
 30
0.0
 40
200.0
100
AcDbArc
 50
79.828786
 51
100.171214
  0
ARC
  5
239
100
AcDbEntity
  8
001
100
AcDbCircle
 10
330.745559
 20
770.922338
 30
0.0
 40
40.0
100
AcDbArc
 50
100.171214
 51
169.162379
  0
ARC
  5
23A
100
AcDbEntity
  8
001
100
AcDbCircle
 10
537.0
 20
731.436826
 30
0.0
 40
250.0
100
AcDbArc
 50
169.162379
 51
190.837621
  0
ARC
  5
23B
100
AcDbEntity
  8
001
100
AcDbCircle
 10
387.254441
 20
691.951314
 30
0.0
 40
40.0
100
AcDbArc
 50
280.171214
 51
349.162379
  0
ARC
  5
23C
100
AcDbEntity
  8
001
100
AcDbCircle
 10
359.0
 20
849.436826
 30
0.0
 40
200.0
100
AcDbArc
 50
259.828786
 51
280.171214
  0
ARC
  5
23D
100
AcDbEntity
  8
001
100
AcDbCircle
 10
330.745559
 20
691.951314
 30
0.0
 40
40.0
100
AcDbArc
 50
190.837621
 51
259.828786
  0
LINE
  5
23E
100
AcDbEntity
  8
001
  6
CENTER
100
AcDbLine
 10
359.0
 20
634.436826
 30
0.0
 11
359.0
 21
828.436826
 31
0.0
  0
LINE
  5
23F
100
AcDbEntity
  8
001
  6
CENTER
100
AcDbLine
 10
768.0
 20
286.95
 30
0.0
 11
768.0
 21
352.45
 31
0.0
  0
ARC
  5
240
100
AcDbEntity
  8
001
100
AcDbCircle
 10
301.772776
 20
295.844745
 30
0.0
 40
4.856074
100
AcDbArc
 50
244.384255
 51
304.384126
  0
ARC
  5
241
100
AcDbEntity
  8
001
100
AcDbCircle
 10
310.00001
 20
309.140186
 30
0.0
 40
18.151531
100
AcDbArc
 50
252.412073
 51
287.587915
  0
ARC
  5
242
100
AcDbEntity
  8
001
100
AcDbCircle
 10
318.227232
 20
295.844745
 30
0.0
 40
4.856074
100
AcDbArc
 50
235.6158
 51
295.615745
  0
LINE
  5
243
100
AcDbEntity
  8
001
100
AcDbLine
 10
301.000002
 20
290.7
 30
0.0
 11
299.030352
 21
291.837177
 31
0.0
  0
LINE
  5
244
100
AcDbEntity
  8
001
100
AcDbLine
 10
318.999998
 20
290.7
 30
0.0
 11
320.969648
 21
291.837177
 31
0.0
  0
LINE
  5
245
100
AcDbEntity
  8
001
100
AcDbLine
 10
299.030352
 20
298.7
 30
0.0
 11
299.030352
 21
291.837177
 31
0.0
  0
LINE
  5
246
100
AcDbEntity
  8
001
100
AcDbLine
 10
304.515177
 20
298.7
 30
0.0
 11
304.515177
 21
291.837177
 31
0.0
  0
LINE
  5
247
100
AcDbEntity
  8
001
100
AcDbLine
 10
315.484831
 20
298.7
 30
0.0
 11
315.484831
 21
291.837177
 31
0.0
  0
LINE
  5
248
100
AcDbEntity
  8
001
100
AcDbLine
 10
320.969648
 20
298.7
 30
0.0
 11
320.969648
 21
291.837177
 31
0.0
  0
LINE
  5
249
100
AcDbEntity
  8
001
100
AcDbLine
 10
301.000002
 20
290.7
 30
0.0
 11
319.000013
 21
290.7
 31
0.0
  0
ARC
  5
24A
100
AcDbEntity
  8
001
100
AcDbCircle
 10
763.25
 20
326.291608
 30
0.0
 40
13.719723
100
AcDbArc
 50
69.743897
 51
110.256103
  0
ARC
  5
24B
100
AcDbEntity
  8
001
100
AcDbCircle
 10
772.75
 20
326.291608
 30
0.0
 40
13.719723
100
AcDbArc
 50
69.743897
 51
110.256103
  0
LINE
  5
24C
100
AcDbEntity
  8
001
100
AcDbLine
 10
758.5
 20
340.011334
 30
0.0
 11
759.0
 21
340.3
 31
0.0
  0
LINE
  5
24D
100
AcDbEntity
  8
001
100
AcDbLine
 10
777.5
 20
340.011334
 30
0.0
 11
777.0
 21
340.3
 31
0.0
  0
LINE
  5
24E
100
AcDbEntity
  8
001
100
AcDbLine
 10
759.0
 20
340.3
 30
0.0
 11
777.0
 21
340.3
 31
0.0
  0
LINE
  5
24F
100
AcDbEntity
  8
001
100
AcDbLine
 10
758.5
 20
330.3
 30
0.0
 11
758.5
 21
340.011334
 31
0.0
  0
LINE
  5
250
100
AcDbEntity
  8
001
100
AcDbLine
 10
777.5
 20
330.3
 30
0.0
 11
777.5
 21
340.011334
 31
0.0
  0
LINE
  5
251
100
AcDbEntity
  8
001
100
AcDbLine
 10
768.0
 20
330.3
 30
0.0
 11
768.0
 21
339.162823
 31
0.0
  0
ARC
  5
252
100
AcDbEntity
  8
001
100
AcDbCircle
 10
763.25
 20
304.708392
 30
0.0
 40
13.719723
100
AcDbArc
 50
249.743897
 51
290.256103
  0
ARC
  5
253
100
AcDbEntity
  8
001
100
AcDbCircle
 10
772.75
 20
304.708392
 30
0.0
 40
13.719723
100
AcDbArc
 50
249.743897
 51
290.256103
  0
LINE
  5
254
100
AcDbEntity
  8
001
100
AcDbLine
 10
758.5
 20
290.988666
 30
0.0
 11
759.0
 21
290.7
 31
0.0
  0
LINE
  5
255
100
AcDbEntity
  8
001
100
AcDbLine
 10
777.5
 20
290.988666
 30
0.0
 11
777.0
 21
290.7
 31
0.0
  0
LINE
  5
256
100
AcDbEntity
  8
001
100
AcDbLine
 10
759.0
 20
290.7
 30
0.0
 11
777.000015
 21
290.7
 31
0.0
  0
LINE
  5
257
100
AcDbEntity
  8
001
100
AcDbLine
 10
758.5
 20
298.7
 30
0.0
 11
758.5
 21
290.988666
 31
0.0
  0
LINE
  5
258
100
AcDbEntity
  8
001
100
AcDbLine
 10
777.5
 20
298.7
 30
0.0
 11
777.5
 21
290.988666
 31
0.0
  0
LINE
  5
259
100
AcDbEntity
  8
001
100
AcDbLine
 10
768.0
 20
298.7
 30
0.0
 11
768.0
 21
291.837177
 31
0.0
  0
ARC
  5
25A
100
AcDbEntity
  8
001
100
AcDbCircle
 10
301.772766
 20
335.155255
 30
0.0
 40
4.856074
100
AcDbArc
 50
55.6158
 51
115.615582
  0
ARC
  5
25B
100
AcDbEntity
  8
001
100
AcDbCircle
 10
310.0
 20
321.859814
 30
0.0
 40
18.151531
100
AcDbArc
 50
72.41205
 51
107.587904
  0
ARC
  5
25C
100
AcDbEntity
  8
001
100
AcDbCircle
 10
318.227234
 20
335.155255
 30
0.0
 40
4.856074
100
AcDbArc
 50
64.384418
 51
124.3842
  0
LINE
  5
25D
100
AcDbEntity
  8
001
100
AcDbLine
 10
301.0
 20
340.3
 30
0.0
 11
299.03035
 21
339.162823
 31
0.0
  0
LINE
  5
25E
100
AcDbEntity
  8
001
100
AcDbLine
 10
319.0
 20
340.3
 30
0.0
 11
320.96965
 21
339.162823
 31
0.0
  0
LINE
  5
25F
100
AcDbEntity
  8
001
100
AcDbLine
 10
301.0
 20
340.3
 30
0.0
 11
319.0
 21
340.3
 31
0.0
  0
LINE
  5
260
100
AcDbEntity
  8
001
100
AcDbLine
 10
299.03035
 20
330.3
 30
0.0
 11
299.03035
 21
339.162823
 31
0.0
  0
LINE
  5
261
100
AcDbEntity
  8
001
100
AcDbLine
 10
304.515167
 20
330.3
 30
0.0
 11
304.515167
 21
339.162823
 31
0.0
  0
LINE
  5
262
100
AcDbEntity
  8
001
100
AcDbLine
 10
315.484833
 20
330.3
 30
0.0
 11
315.484833
 21
339.162823
 31
0.0
  0
LINE
  5
263
100
AcDbEntity
  8
001
100
AcDbLine
 10
320.96965
 20
330.3
 30
0.0
 11
320.96965
 21
339.162823
 31
0.0
  0
LINE
  5
264
100
AcDbEntity
  8
001
100
AcDbLine
 10
304.0
 20
346.7
 30
0.0
 11
316.0
 21
346.7
 31
0.0
  0
ARC
  5
265
100
AcDbEntity
  8
001
100
AcDbCircle
 10
310.0
 20
338.7
 30
0.0
 40
10.0
100
AcDbArc
 50
53.130102
 51
126.869898
  0
LINE
  5
266
100
AcDbEntity
  8
001
  6
CENTER
100
AcDbLine
 10
310.0
 20
286.95
 30
0.0
 11
310.0
 21
352.45
 31
0.0
  0
LINE
  5
267
100
AcDbEntity
  8
001
100
AcDbLine
 10
304.0
 20
340.3
 30
0.0
 11
304.0
 21
346.7
 31
0.0
  0
LINE
  5
268
100
AcDbEntity
  8
001
100
AcDbLine
 10
316.0
 20
340.3
 30
0.0
 11
316.0
 21
346.7
 31
0.0
  0
LINE
  5
269
100
AcDbEntity
  8
001
100
AcDbLine
 10
315.055
 20
340.3
 30
0.0
 11
315.055
 21
347.328266
 31
0.0
  0
LINE
  5
26A
100
AcDbEntity
  8
001
100
AcDbLine
 10
304.945
 20
340.3
 30
0.0
 11
304.945
 21
347.328266
 31
0.0
  0
LINE
  5
26B
100
AcDbEntity
  8
001
100
AcDbLine
 10
762.0
 20
346.7
 30
0.0
 11
774.0
 21
346.7
 31
0.0
  0
ARC
  5
26C
100
AcDbEntity
  8
001
100
AcDbCircle
 10
768.0
 20
338.7
 30
0.0
 40
10.0
100
AcDbArc
 50
53.130102
 51
126.869898
  0
LINE
  5
26D
100
AcDbEntity
  8
001
  6
CENTER
100
AcDbLine
 10
120.0
 20
731.436826
 30
0.0
 11
598.0
 21
731.436826
 31
0.0
  0
CIRCLE
  5
26E
100
AcDbEntity
  8
001
100
AcDbCircle
 10
408.0
 20
681.436826
 30
0.0
 40
6.0
  0
CIRCLE
  5
26F
100
AcDbEntity
  8
001
100
AcDbCircle
 10
408.0
 20
681.436826
 30
0.0
 40
9.0
  0
LINE
  5
270
100
AcDbEntity
  8
001
100
AcDbLine
 10
402.515172
 20
671.936826
 30
0.0
 11
413.484828
 21
671.936826
 31
0.0
  0
LINE
  5
271
100
AcDbEntity
  8
001
100
AcDbLine
 10
402.515172
 20
690.936826
 30
0.0
 11
413.484828
 21
690.936826
 31
0.0
  0
LINE
  5
272
100
AcDbEntity
  8
001
100
AcDbLine
 10
418.969655
 20
681.436826
 30
0.0
 11
413.484828
 21
671.936826
 31
0.0
  0
LINE
  5
273
100
AcDbEntity
  8
001
100
AcDbLine
 10
397.030345
 20
681.436826
 30
0.0
 11
402.515172
 21
690.936826
 31
0.0
  0
LINE
  5
274
100
AcDbEntity
  8
001
100
AcDbLine
 10
413.484828
 20
690.936826
 30
0.0
 11
418.969655
 21
681.436826
 31
0.0
  0
LINE
  5
275
100
AcDbEntity
  8
001
100
AcDbLine
 10
402.515172
 20
671.936826
 30
0.0
 11
397.030345
 21
681.436826
 31
0.0
  0
CIRCLE
  5
276
100
AcDbEntity
  8
001
100
AcDbCircle
 10
408.0
 20
681.436826
 30
0.0
 40
5.055
  0
ARC
  5
277
100
AcDbEntity
  8
001
  6
CENTER
100
AcDbCircle
 10
387.254441
 20
691.951314
 30
0.0
 40
23.25796
100
AcDbArc
 50
293.984592
 51
349.162379
  0
LINE
  5
278
100
AcDbEntity
  8
001
  6
CENTER
100
AcDbLine
 10
393.951366
 20
688.557106
 30
0.0
 11
422.048634
 21
674.316546
 31
0.0
  0
ARC
  5
279
100
AcDbEntity
  8
001
  6
CENTER
100
AcDbCircle
 10
181.0
 20
731.436826
 30
0.0
 40
233.25796
100
AcDbArc
 50
349.162379
 51
351.445505
  0
ARC
  5
27A
100
AcDbEntity
  8
001
100
AcDbCircle
 10
488.0
 20
258.5
 30
0.0
 40
1.0
100
AcDbArc
 50
270.0
 51
330.0
  0
ARC
  5
27B
100
AcDbEntity
  8
001
100
AcDbCircle
 10
488.0
 20
175.5
 30
0.0
 40
1.0
100
AcDbArc
 50
30.0
 51
90.0
  0
ARC
  5
27C
100
AcDbEntity
  8
001
100
AcDbCircle
 10
489.732051
 20
176.5
 30
0.0
 40
1.0
100
AcDbArc
 50
210.0
 51
270.0
  0
ARC
  5
27D
100
AcDbEntity
  8
001
100
AcDbCircle
 10
489.732051
 20
257.5
 30
0.0
 40
1.0
100
AcDbArc
 50
90.0
 51
150.0
  0
ARC
  5
27E
100
AcDbEntity
  8
001
100
AcDbCircle
 10
485.866025
 20
208.0
 30
0.0
 40
3.0
100
AcDbArc
 50
0.0
 51
30.0
  0
ARC
  5
27F
100
AcDbEntity
  8
001
100
AcDbCircle
 10
485.866025
 20
226.0
 30
0.0
 40
3.0
100
AcDbArc
 50
330.0
 51
0.0
  0
LINE
  5
280
100
AcDbEntity
  8
001
100
AcDbLine
 10
488.866025
 20
208.0
 30
0.0
 11
488.866025
 21
177.302776
 31
0.0
  0
LINE
  5
281
100
AcDbEntity
  8
001
100
AcDbLine
 10
488.866025
 20
226.0
 30
0.0
 11
488.866025
 21
256.697224
 31
0.0
  0
LINE
  5
282
100
AcDbEntity
  8
001
100
AcDbLine
 10
488.0
 20
771.936826
 30
0.0
 11
427.697689
 21
771.936826
 31
0.0
  0
LINE
  5
283
100
AcDbEntity
  8
001
100
AcDbLine
 10
489.732051
 20
772.936826
 30
0.0
 11
508.646118
 21
772.936826
 31
0.0
  0
ARC
  5
284
100
AcDbEntity
  8
001
100
AcDbCircle
 10
488.0
 20
772.936826
 30
0.0
 40
1.0
100
AcDbArc
 50
270.0
 51
330.0
  0
ARC
  5
285
100
AcDbEntity
  8
001
100
AcDbCircle
 10
489.732051
 20
771.936826
 30
0.0
 40
1.0
100
AcDbArc
 50
90.0
 51
150.0
  0
ARC
  5
286
100
AcDbEntity
  8
001
100
AcDbCircle
 10
580.0
 20
768.046558
 30
0.0
 40
3.0
100
AcDbArc
 50
0.0
 51
77.092591
  0
LINE
  5
287
100
AcDbEntity
  8
001
100
AcDbLine
 10
556.0
 20
754.436826
 30
0.0
 11
519.5
 21
754.436826
 31
0.0
  0
ARC
  5
288
100
AcDbEntity
  8
001
100
AcDbCircle
 10
519.5
 20
751.436826
 30
0.0
 40
3.0
100
AcDbArc
 50
90.0
 51
180.0
  0
ARC
  5
289
100
AcDbEntity
  8
001
100
AcDbCircle
 10
542.5
 20
751.436826
 30
0.0
 40
3.0
100
AcDbArc
 50
0.0
 51
90.0
  0
LINE
  5
28A
100
AcDbEntity
  8
001
100
AcDbLine
 10
559.0
 20
757.436826
 30
0.0
 11
559.0
 21
775.936826
 31
0.0
  0
ARC
  5
28B
100
AcDbEntity
  8
001
100
AcDbCircle
 10
556.0
 20
757.436826
 30
0.0
 40
3.0
100
AcDbArc
 50
270.0
 51
0.0
  0
LINE
  5
28C
100
AcDbEntity
  8
001
100
AcDbLine
 10
508.757359
 20
258.5
 30
0.0
 11
489.732051
 21
258.5
 31
0.0
  0
LINE
  5
28D
100
AcDbEntity
  8
001
100
AcDbLine
 10
489.732051
 20
175.5
 30
0.0
 11
508.757359
 21
175.5
 31
0.0
  0
LINE
  5
28E
100
AcDbEntity
  8
001
100
AcDbLine
 10
533.0
 20
254.0
 30
0.0
 11
538.0
 21
254.0
 31
0.0
  0
ARC
  5
28F
100
AcDbEntity
  8
001
100
AcDbCircle
 10
538.0
 20
253.0
 30
0.0
 40
1.0
100
AcDbArc
 50
0.0
 51
90.0
  0
ARC
  5
290
100
AcDbEntity
  8
001
100
AcDbCircle
 10
533.0
 20
257.0
 30
0.0
 40
3.0
100
AcDbArc
 50
180.0
 51
270.0
  0
LINE
  5
291
100
AcDbEntity
  8
001
100
AcDbLine
 10
511.992641
 20
260.492641
 30
0.0
 11
510.87868
 21
259.37868
 31
0.0
  0
ARC
  5
292
100
AcDbEntity
  8
001
100
AcDbCircle
 10
508.757359
 20
261.5
 30
0.0
 40
3.0
100
AcDbArc
 50
270.0
 51
315.0
  0
ARC
  5
293
100
AcDbEntity
  8
001
100
AcDbCircle
 10
516.235281
 20
256.25
 30
0.0
 40
6.0
100
AcDbArc
 50
87.471303
 51
135.0
  0
ARC
  5
294
100
AcDbEntity
  8
001
100
AcDbCircle
 10
528.0
 20
258.136752
 30
0.0
 40
2.0
100
AcDbArc
 50
0.0
 51
29.801615
  0
ARC
  5
295
100
AcDbEntity
  8
001
100
AcDbCircle
 10
508.757359
 20
172.5
 30
0.0
 40
3.0
100
AcDbArc
 50
45.0
 51
90.0
  0
LINE
  5
296
100
AcDbEntity
  8
001
100
AcDbLine
 10
511.992641
 20
173.507359
 30
0.0
 11
510.87868
 21
174.62132
 31
0.0
  0
ARC
  5
297
100
AcDbEntity
  8
001
100
AcDbCircle
 10
516.235281
 20
177.75
 30
0.0
 40
6.0
100
AcDbArc
 50
225.0
 51
272.528697
  0
LINE
  5
298
100
AcDbEntity
  8
001
100
AcDbLine
 10
530.0
 20
258.136752
 30
0.0
 11
530.0
 21
209.756608
 31
0.0
  0
ARC
  5
299
100
AcDbEntity
  8
001
100
AcDbCircle
 10
508.757359
 20
775.936826
 30
0.0
 40
3.0
100
AcDbArc
 50
270.0
 51
315.0
  0
LINE
  5
29A
100
AcDbEntity
  8
001
100
AcDbLine
 10
511.992641
 20
774.929467
 30
0.0
 11
510.87868
 21
773.815506
 31
0.0
  0
ARC
  5
29B
100
AcDbEntity
  8
001
100
AcDbCircle
 10
516.235281
 20
770.686826
 30
0.0
 40
6.0
100
AcDbArc
 50
79.495446
 51
135.0
  0
LINE
  5
29C
100
AcDbEntity
  8
001
100
AcDbLine
 10
528.453059
 20
774.523662
 30
0.0
 11
517.329163
 21
776.586269
 31
0.0
  0
ARC
  5
29D
100
AcDbEntity
  8
001
100
AcDbCircle
 10
528.0
 20
772.573578
 30
0.0
 40
2.0
100
AcDbArc
 50
0.0
 51
79.495446
  0
LINE
  5
29E
100
AcDbEntity
  8
001
100
AcDbLine
 10
530.0
 20
772.573578
 30
0.0
 11
530.0
 21
754.436826
 31
0.0
  0
ARC
  5
29F
100
AcDbEntity
  8
001
100
AcDbCircle
 10
533.0
 20
771.436826
 30
0.0
 40
3.0
100
AcDbArc
 50
180.0
 51
270.0
  0
LINE
  5
2A0
100
AcDbEntity
  8
001
100
AcDbLine
 10
533.0
 20
768.436826
 30
0.0
 11
538.0
 21
768.436826
 31
0.0
  0
ARC
  5
2A1
100
AcDbEntity
  8
001
100
AcDbCircle
 10
538.0
 20
767.436826
 30
0.0
 40
1.0
100
AcDbArc
 50
0.0
 51
90.0
  0
LINE
  5
2A2
100
AcDbEntity
  8
001
100
AcDbLine
 10
510.0
 20
176.302084
 30
0.0
 11
510.0
 21
257.697916
 31
0.0
  0
LINE
  5
2A3
100
AcDbEntity
  8
001
100
AcDbLine
 10
583.0
 20
180.390268
 30
0.0
 11
583.0
 21
253.609732
 31
0.0
  0
LINE
  5
2A4
100
AcDbEntity
  8
001
100
AcDbLine
 10
548.5
 20
261.5
 30
0.0
 11
559.0
 21
261.5
 31
0.0
  0
LINE
  5
2A5
100
AcDbEntity
  8
001
100
AcDbLine
 10
559.0
 20
261.5
 30
0.0
 11
580.670128
 21
256.533929
 31
0.0
  0
LINE
  5
2A6
100
AcDbEntity
  8
001
100
AcDbLine
 10
559.0
 20
172.5
 30
0.0
 11
580.670128
 21
177.466071
 31
0.0
  0
ARC
  5
2A7
100
AcDbEntity
  8
001
100
AcDbCircle
 10
580.0
 20
253.609732
 30
0.0
 40
3.0
100
AcDbArc
 50
0.0
 51
77.092591
  0
ARC
  5
2A8
100
AcDbEntity
  8
001
100
AcDbCircle
 10
580.0
 20
180.390268
 30
0.0
 40
3.0
100
AcDbArc
 50
282.907409
 51
0.0
  0
LINE
  5
2A9
100
AcDbEntity
  8
001
100
AcDbLine
 10
545.5
 20
258.095275
 30
0.0
 11
545.5
 21
278.5
 31
0.0
  0
LINE
  5
2AA
100
AcDbEntity
  8
001
100
AcDbLine
 10
519.5
 20
281.5
 30
0.0
 11
542.5
 21
281.5
 31
0.0
  0
LINE
  5
2AB
100
AcDbEntity
  8
001
100
AcDbLine
 10
519.5
 20
277.259854
 30
0.0
 11
542.5
 21
277.259854
 31
0.0
  0
LINE
  5
2AC
100
AcDbEntity
  8
001
100
AcDbLine
 10
516.5
 20
260.130749
 30
0.0
 11
516.5
 21
278.5
 31
0.0
  0
LINE
  5
2AD
100
AcDbEntity
  8
001
100
AcDbLine
 10
539.0
 20
256.130749
 30
0.0
 11
539.0
 21
212.756608
 31
0.0
  0
ARC
  5
2AE
100
AcDbEntity
  8
001
100
AcDbCircle
 10
542.5
 20
274.259854
 30
0.0
 40
3.0
100
AcDbArc
 50
0.0
 51
90.0
  0
ARC
  5
2AF
100
AcDbEntity
  8
001
100
AcDbCircle
 10
519.5
 20
274.259854
 30
0.0
 40
3.0
100
AcDbArc
 50
90.0
 51
180.0
  0
ARC
  5
2B0
100
AcDbEntity
  8
001
100
AcDbCircle
 10
542.5
 20
278.5
 30
0.0
 40
3.0
100
AcDbArc
 50
0.0
 51
90.0
  0
ARC
  5
2B1
100
AcDbEntity
  8
001
100
AcDbCircle
 10
519.5
 20
278.5
 30
0.0
 40
3.0
100
AcDbArc
 50
90.0
 51
180.0
  0
LINE
  5
2B2
100
AcDbEntity
  8
001
100
AcDbLine
 10
556.0
 20
255.095275
 30
0.0
 11
548.5
 21
255.095275
 31
0.0
  0
ARC
  5
2B3
100
AcDbEntity
  8
001
100
AcDbCircle
 10
548.5
 20
258.095275
 30
0.0
 40
3.0
100
AcDbArc
 50
180.0
 51
270.0
  0
ARC
  5
2B4
100
AcDbEntity
  8
001
100
AcDbCircle
 10
556.0
 20
252.095275
 30
0.0
 40
3.0
100
AcDbArc
 50
0.0
 51
90.0
  0
LINE
  5
2B5
100
AcDbEntity
  8
001
100
AcDbLine
 10
542.5
 20
206.261409
 30
0.0
 11
519.5
 21
206.261409
 31
0.0
  0
LINE
  5
2B6
100
AcDbEntity
  8
001
100
AcDbLine
 10
519.5
 20
167.290266
 30
0.0
 11
542.5
 21
167.290266
 31
0.0
  0
LINE
  5
2B7
100
AcDbEntity
  8
001
100
AcDbLine
 10
516.5
 20
214.285631
 30
0.0
 11
516.5
 21
170.290266
 31
0.0
  0
ARC
  5
2B8
100
AcDbEntity
  8
001
100
AcDbCircle
 10
542.5
 20
170.290266
 30
0.0
 40
3.0
100
AcDbArc
 50
270.0
 51
0.0
  0
ARC
  5
2B9
100
AcDbEntity
  8
001
100
AcDbCircle
 10
519.5
 20
170.290266
 30
0.0
 40
3.0
100
AcDbArc
 50
180.0
 51
270.0
  0
ARC
  5
2BA
100
AcDbEntity
  8
001
100
AcDbCircle
 10
519.5
 20
209.261409
 30
0.0
 40
3.0
100
AcDbArc
 50
180.0
 51
270.0
  0
ARC
  5
2BB
100
AcDbEntity
  8
001
100
AcDbCircle
 10
542.5
 20
209.261409
 30
0.0
 40
3.0
100
AcDbArc
 50
270.0
 51
0.0
  0
LINE
  5
2BC
100
AcDbEntity
  8
001
100
AcDbLine
 10
556.0
 20
217.289218
 30
0.0
 11
548.5
 21
217.289218
 31
0.0
  0
ARC
  5
2BD
100
AcDbEntity
  8
001
100
AcDbCircle
 10
548.5
 20
214.289218
 30
0.0
 40
3.0
100
AcDbArc
 50
90.0
 51
180.0
  0
ARC
  5
2BE
100
AcDbEntity
  8
001
100
AcDbCircle
 10
556.0
 20
220.289218
 30
0.0
 40
3.0
100
AcDbArc
 50
270.0
 51
0.0
  0
LINE
  5
2BF
100
AcDbEntity
  8
001
100
AcDbLine
 10
556.0
 20
178.318075
 30
0.0
 11
548.5
 21
178.318075
 31
0.0
  0
ARC
  5
2C0
100
AcDbEntity
  8
001
100
AcDbCircle
 10
548.5
 20
175.318075
 30
0.0
 40
3.0
100
AcDbArc
 50
90.0
 51
180.0
  0
ARC
  5
2C1
100
AcDbEntity
  8
001
100
AcDbCircle
 10
556.0
 20
175.318075
 30
0.0
 40
3.0
100
AcDbArc
 50
0.0
 51
90.0
  0
LINE
  5
2C2
100
AcDbEntity
  8
001
100
AcDbLine
 10
559.0
 20
220.289218
 30
0.0
 11
559.0
 21
261.5
 31
0.0
  0
LINE
  5
2C3
100
AcDbEntity
  8
001
100
AcDbLine
 10
559.0
 20
172.5
 30
0.0
 11
559.0
 21
175.318075
 31
0.0
  0
LINE
  5
2C4
100
AcDbEntity
  8
001
100
AcDbLine
 10
542.0
 20
248.496031
 30
0.0
 11
556.0
 21
248.496031
 31
0.0
  0
ARC
  5
2C5
100
AcDbEntity
  8
001
100
AcDbCircle
 10
556.0
 20
245.496031
 30
0.0
 40
3.0
100
AcDbArc
 50
0.0
 51
90.0
  0
ARC
  5
2C6
100
AcDbEntity
  8
001
100
AcDbCircle
 10
542.0
 20
251.496031
 30
0.0
 40
3.0
100
AcDbArc
 50
180.0
 51
270.0
  0
LINE
  5
2C7
100
AcDbEntity
  8
001
100
AcDbLine
 10
541.929545
 20
220.558001
 30
0.0
 11
556.0
 21
220.558001
 31
0.0
  0
ARC
  5
2C8
100
AcDbEntity
  8
001
100
AcDbCircle
 10
556.0
 20
223.558001
 30
0.0
 40
3.0
100
AcDbArc
 50
270.0
 51
0.0
  0
LINE
  5
2C9
100
AcDbEntity
  8
001
100
AcDbLine
 10
581.659034
 20
256.109253
 30
0.0
 11
544.159034
 21
280.999521
 31
0.0
  0
LINE
  5
2CA
100
AcDbEntity
  8
001
100
AcDbLine
 10
544.629653
 20
187.989006
 30
0.0
 11
580.967824
 21
200.374187
 31
0.0
  0
ARC
  5
2CB
100
AcDbEntity
  8
001
100
AcDbCircle
 10
580.0
 20
203.213786
 30
0.0
 40
3.0
100
AcDbArc
 50
288.82071
 51
0.0
  0
ARC
  5
2CC
100
AcDbEntity
  8
001
100
AcDbCircle
 10
543.66183
 20
190.828605
 30
0.0
 40
3.0
100
AcDbArc
 50
270.0
 51
288.82071
  0
LINE
  5
2CD
100
AcDbEntity
  8
001
100
AcDbLine
 10
544.629653
 20
181.926829
 30
0.0
 11
580.967824
 21
194.31201
 31
0.0
  0
ARC
  5
2CE
100
AcDbEntity
  8
001
100
AcDbCircle
 10
580.0
 20
197.151608
 30
0.0
 40
3.0
100
AcDbArc
 50
288.82071
 51
0.0
  0
ARC
  5
2CF
100
AcDbEntity
  8
001
100
AcDbCircle
 10
543.66183
 20
184.766427
 30
0.0
 40
3.0
100
AcDbArc
 50
270.0
 51
288.82071
  0
LINE
  5
2D0
100
AcDbEntity
  8
001
100
AcDbLine
 10
545.5
 20
214.289218
 30
0.0
 11
545.5
 21
188.285648
 31
0.0
  0
LINE
  5
2D1
100
AcDbEntity
  8
001
100
AcDbLine
 10
545.5
 20
182.22347
 30
0.0
 11
545.5
 21
170.290266
 31
0.0
  0
LINE
  5
2D2
100
AcDbEntity
  8
001
100
AcDbLine
 10
559.0
 20
178.318075
 30
0.0
 11
559.0
 21
186.824691
 31
0.0
  0
LINE
  5
2D3
100
AcDbEntity
  8
001
100
AcDbLine
 10
559.0
 20
197.850016
 30
0.0
 11
559.0
 21
217.289218
 31
0.0
  0
LINE
  5
2D4
100
AcDbEntity
  8
001
100
AcDbLine
 10
559.0
 20
197.850016
 30
0.0
 11
580.362705
 21
200.451887
 31
0.0
  0
LINE
  5
2D5
100
AcDbEntity
  8
001
100
AcDbLine
 10
548.5
 20
197.850016
 30
0.0
 11
559.0
 21
197.850016
 31
0.0
  0
ARC
  5
2D6
100
AcDbEntity
  8
001
100
AcDbCircle
 10
548.5
 20
194.850016
 30
0.0
 40
3.0
100
AcDbArc
 50
90.0
 51
180.0
  0
LINE
  5
2D7
100
AcDbEntity
  8
001
100
AcDbLine
 10
259.0
 20
191.622316
 30
0.0
 11
259.0
 21
154.0
 31
0.0
  0
LINE
  5
2D8
100
AcDbEntity
  8
001
100
AcDbLine
 10
247.0
 20
191.622316
 30
0.0
 11
247.0
 21
154.0
 31
0.0
  0
LINE
  5
2D9
100
AcDbEntity
  8
001
100
AcDbLine
 10
230.0
 20
257.5
 30
0.0
 11
290.735535
 21
257.5
 31
0.0
  0
LINE
  5
2DA
100
AcDbEntity
  8
001
100
AcDbLine
 10
264.0
 20
176.5
 30
0.0
 11
290.735535
 21
176.5
 31
0.0
  0
ARC
  5
2DB
100
AcDbEntity
  8
001
100
AcDbCircle
 10
264.0
 20
171.5
 30
0.0
 40
5.0
100
AcDbArc
 50
90.0
 51
180.0
  0
LINE
  5
2DC
100
AcDbEntity
  8
001
100
AcDbLine
 10
276.0
 20
223.0
 30
0.0
 11
222.0
 21
223.0
 31
0.0
  0
LINE
  5
2DD
100
AcDbEntity
  8
001
100
AcDbLine
 10
276.0
 20
211.0
 30
0.0
 11
222.0
 21
211.0
 31
0.0
  0
LINE
  5
2DE
100
AcDbEntity
  8
001
100
AcDbLine
 10
219.0
 20
211.0
 30
0.0
 11
219.0
 21
223.0
 31
0.0
  0
ARC
  5
2DF
100
AcDbEntity
  8
001
100
AcDbCircle
 10
222.0
 20
226.0
 30
0.0
 40
3.0
100
AcDbArc
 50
180.0
 51
270.0
  0
ARC
  5
2E0
100
AcDbEntity
  8
001
100
AcDbCircle
 10
222.0
 20
208.0
 30
0.0
 40
3.0
100
AcDbArc
 50
90.0
 51
180.0
  0
LINE
  5
2E1
100
AcDbEntity
  8
001
  6
CENTER
100
AcDbLine
 10
249.0
 20
207.25
 30
0.0
 11
249.0
 21
226.75
 31
0.0
  0
LINE
  5
2E2
100
AcDbEntity
  8
001
100
AcDbLine
 10
257.0
 20
152.0
 30
0.0
 11
249.0
 21
152.0
 31
0.0
  0
ARC
  5
2E3
100
AcDbEntity
  8
001
100
AcDbCircle
 10
249.0
 20
154.0
 30
0.0
 40
2.0
100
AcDbArc
 50
180.0
 51
270.0
  0
ARC
  5
2E4
100
AcDbEntity
  8
001
100
AcDbCircle
 10
257.0
 20
154.0
 30
0.0
 40
2.0
100
AcDbArc
 50
270.0
 51
0.0
  0
LINE
  5
2E5
100
AcDbEntity
  8
001
100
AcDbLine
 10
230.0
 20
176.5
 30
0.0
 11
242.0
 21
176.5
 31
0.0
  0
ARC
  5
2E6
100
AcDbEntity
  8
001
100
AcDbCircle
 10
242.0
 20
171.5
 30
0.0
 40
5.0
100
AcDbArc
 50
0.0
 51
90.0
  0
ARC
  5
2E7
100
AcDbEntity
  8
001
100
AcDbCircle
 10
264.0
 20
191.622316
 30
0.0
 40
5.0
100
AcDbArc
 50
90.0
 51
180.0
  0
ARC
  5
2E8
100
AcDbEntity
  8
001
100
AcDbCircle
 10
242.0
 20
191.622316
 30
0.0
 40
5.0
100
AcDbArc
 50
0.0
 51
90.0
  0
LINE
  5
2E9
100
AcDbEntity
  8
001
100
AcDbLine
 10
259.0
 20
196.622316
 30
0.0
 11
247.0
 21
196.622316
 31
0.0
  0
ARC
  5
2EA
100
AcDbEntity
  8
001
100
AcDbCircle
 10
230.0
 20
258.5
 30
0.0
 40
1.0
100
AcDbArc
 50
210.0
 51
270.0
  0
ARC
  5
2EB
100
AcDbEntity
  8
001
100
AcDbCircle
 10
230.0
 20
175.5
 30
0.0
 40
1.0
100
AcDbArc
 50
90.0
 51
150.0
  0
ARC
  5
2EC
100
AcDbEntity
  8
001
100
AcDbCircle
 10
228.267949
 20
176.5
 30
0.0
 40
1.0
100
AcDbArc
 50
270.0
 51
330.0
  0
ARC
  5
2ED
100
AcDbEntity
  8
001
100
AcDbCircle
 10
228.267949
 20
257.5
 30
0.0
 40
1.0
100
AcDbArc
 50
30.0
 51
90.0
  0
ARC
  5
2EE
100
AcDbEntity
  8
001
100
AcDbCircle
 10
232.133975
 20
208.0
 30
0.0
 40
3.0
100
AcDbArc
 50
150.0
 51
180.0
  0
ARC
  5
2EF
100
AcDbEntity
  8
001
100
AcDbCircle
 10
232.133975
 20
226.0
 30
0.0
 40
3.0
100
AcDbArc
 50
180.0
 51
210.0
  0
LINE
  5
2F0
100
AcDbEntity
  8
001
100
AcDbLine
 10
229.133975
 20
208.0
 30
0.0
 11
229.133975
 21
177.302776
 31
0.0
  0
LINE
  5
2F1
100
AcDbEntity
  8
001
100
AcDbLine
 10
229.133975
 20
226.0
 30
0.0
 11
229.133975
 21
256.697224
 31
0.0
  0
LINE
  5
2F2
100
AcDbEntity
  8
001
100
AcDbLine
 10
209.242641
 20
258.5
 30
0.0
 11
228.267949
 21
258.5
 31
0.0
  0
LINE
  5
2F3
100
AcDbEntity
  8
001
100
AcDbLine
 10
228.267949
 20
175.5
 30
0.0
 11
209.242641
 21
175.5
 31
0.0
  0
LINE
  5
2F4
100
AcDbEntity
  8
001
100
AcDbLine
 10
185.0
 20
254.0
 30
0.0
 11
180.0
 21
254.0
 31
0.0
  0
ARC
  5
2F5
100
AcDbEntity
  8
001
100
AcDbCircle
 10
180.0
 20
253.0
 30
0.0
 40
1.0
100
AcDbArc
 50
90.0
 51
180.0
  0
ARC
  5
2F6
100
AcDbEntity
  8
001
100
AcDbCircle
 10
185.0
 20
257.0
 30
0.0
 40
3.0
100
AcDbArc
 50
270.0
 51
0.0
  0
LINE
  5
2F7
100
AcDbEntity
  8
001
100
AcDbLine
 10
206.007359
 20
260.492641
 30
0.0
 11
207.12132
 21
259.37868
 31
0.0
  0
ARC
  5
2F8
100
AcDbEntity
  8
001
100
AcDbCircle
 10
209.242641
 20
261.5
 30
0.0
 40
3.0
100
AcDbArc
 50
225.0
 51
270.0
  0
ARC
  5
2F9
100
AcDbEntity
  8
001
100
AcDbCircle
 10
201.764719
 20
256.25
 30
0.0
 40
6.0
100
AcDbArc
 50
45.0
 51
92.528697
  0
LINE
  5
2FA
100
AcDbEntity
  8
001
100
AcDbLine
 10
189.546941
 20
260.086836
 30
0.0
 11
195.0
 21
261.097949
 31
0.0
  0
ARC
  5
2FB
100
AcDbEntity
  8
001
100
AcDbCircle
 10
190.0
 20
258.136752
 30
0.0
 40
2.0
100
AcDbArc
 50
100.504554
 51
180.0
  0
ARC
  5
2FC
100
AcDbEntity
  8
001
100
AcDbCircle
 10
189.0
 20
263.036557
 30
0.0
 40
3.0
100
AcDbArc
 50
180.0
 51
280.504554
  0
ARC
  5
2FD
100
AcDbEntity
  8
001
100
AcDbCircle
 10
209.242641
 20
172.5
 30
0.0
 40
3.0
100
AcDbArc
 50
90.0
 51
135.0
  0
LINE
  5
2FE
100
AcDbEntity
  8
001
100
AcDbLine
 10
206.007359
 20
173.507359
 30
0.0
 11
207.12132
 21
174.62132
 31
0.0
  0
ARC
  5
2FF
100
AcDbEntity
  8
001
100
AcDbCircle
 10
201.764719
 20
177.75
 30
0.0
 40
6.0
100
AcDbArc
 50
267.471303
 51
315.0
  0
LINE
  5
300
100
AcDbEntity
  8
001
100
AcDbLine
 10
188.0
 20
258.136752
 30
0.0
 11
188.0
 21
215.285631
 31
0.0
  0
LINE
  5
301
100
AcDbEntity
  8
001
100
AcDbLine
 10
208.0
 20
176.302084
 30
0.0
 11
208.0
 21
257.697916
 31
0.0
  0
LINE
  5
302
100
AcDbEntity
  8
001
100
AcDbLine
 10
135.0
 20
180.390268
 30
0.0
 11
135.0
 21
253.609732
 31
0.0
  0
LINE
  5
303
100
AcDbEntity
  8
001
100
AcDbLine
 10
169.5
 20
261.5
 30
0.0
 11
159.0
 21
261.5
 31
0.0
  0
LINE
  5
304
100
AcDbEntity
  8
001
100
AcDbLine
 10
159.0
 20
261.5
 30
0.0
 11
137.329872
 21
256.533929
 31
0.0
  0
LINE
  5
305
100
AcDbEntity
  8
001
100
AcDbLine
 10
159.0
 20
172.5
 30
0.0
 11
137.329872
 21
177.466071
 31
0.0
  0
ARC
  5
306
100
AcDbEntity
  8
001
100
AcDbCircle
 10
138.0
 20
253.609732
 30
0.0
 40
3.0
100
AcDbArc
 50
102.907409
 51
180.0
  0
ARC
  5
307
100
AcDbEntity
  8
001
100
AcDbCircle
 10
138.0
 20
180.390268
 30
0.0
 40
3.0
100
AcDbArc
 50
180.0
 51
257.092591
  0
LINE
  5
308
100
AcDbEntity
  8
001
100
AcDbLine
 10
172.5
 20
258.095275
 30
0.0
 11
172.5
 21
278.5
 31
0.0
  0
LINE
  5
309
100
AcDbEntity
  8
001
100
AcDbLine
 10
198.5
 20
281.5
 30
0.0
 11
175.5
 21
281.5
 31
0.0
  0
LINE
  5
30A
100
AcDbEntity
  8
001
100
AcDbLine
 10
198.5
 20
277.259854
 30
0.0
 11
175.5
 21
277.259854
 31
0.0
  0
LINE
  5
30B
100
AcDbEntity
  8
001
100
AcDbLine
 10
192.0
 20
270.244718
 30
0.0
 11
182.0
 21
270.244718
 31
0.0
  0
LINE
  5
30C
100
AcDbEntity
  8
001
100
AcDbLine
 10
201.5
 20
260.130749
 30
0.0
 11
201.5
 21
278.5
 31
0.0
  0
LINE
  5
30D
100
AcDbEntity
  8
001
100
AcDbLine
 10
195.0
 20
260.130749
 30
0.0
 11
195.0
 21
267.244718
 31
0.0
  0
LINE
  5
30E
100
AcDbEntity
  8
001
100
AcDbLine
 10
179.0
 20
218.204349
 30
0.0
 11
179.0
 21
267.244718
 31
0.0
  0
ARC
  5
30F
100
AcDbEntity
  8
001
100
AcDbCircle
 10
182.0
 20
267.244718
 30
0.0
 40
3.0
100
AcDbArc
 50
90.0
 51
180.0
  0
ARC
  5
310
100
AcDbEntity
  8
001
100
AcDbCircle
 10
192.0
 20
267.244718
 30
0.0
 40
3.0
100
AcDbArc
 50
0.0
 51
90.0
  0
ARC
  5
311
100
AcDbEntity
  8
001
100
AcDbCircle
 10
175.5
 20
274.259854
 30
0.0
 40
3.0
100
AcDbArc
 50
90.0
 51
180.0
  0
ARC
  5
312
100
AcDbEntity
  8
001
100
AcDbCircle
 10
198.5
 20
274.259854
 30
0.0
 40
3.0
100
AcDbArc
 50
0.0
 51
90.0
  0
ARC
  5
313
100
AcDbEntity
  8
001
100
AcDbCircle
 10
175.5
 20
278.5
 30
0.0
 40
3.0
100
AcDbArc
 50
90.0
 51
180.0
  0
ARC
  5
314
100
AcDbEntity
  8
001
100
AcDbCircle
 10
198.5
 20
278.5
 30
0.0
 40
3.0
100
AcDbArc
 50
0.0
 51
90.0
  0
LINE
  5
315
100
AcDbEntity
  8
001
100
AcDbLine
 10
162.0
 20
255.095275
 30
0.0
 11
169.5
 21
255.095275
 31
0.0
  0
ARC
  5
316
100
AcDbEntity
  8
001
100
AcDbCircle
 10
169.5
 20
258.095275
 30
0.0
 40
3.0
100
AcDbArc
 50
270.0
 51
0.0
  0
ARC
  5
317
100
AcDbEntity
  8
001
100
AcDbCircle
 10
162.0
 20
252.095275
 30
0.0
 40
3.0
100
AcDbArc
 50
90.0
 51
180.0
  0
LINE
  5
318
100
AcDbEntity
  8
001
100
AcDbLine
 10
175.5
 20
206.261409
 30
0.0
 11
198.5
 21
206.261409
 31
0.0
  0
LINE
  5
319
100
AcDbEntity
  8
001
100
AcDbLine
 10
198.5
 20
167.290266
 30
0.0
 11
175.5
 21
167.290266
 31
0.0
  0
LINE
  5
31A
100
AcDbEntity
  8
001
100
AcDbLine
 10
201.5
 20
214.285631
 30
0.0
 11
201.5
 21
170.290266
 31
0.0
  0
ARC
  5
31B
100
AcDbEntity
  8
001
100
AcDbCircle
 10
175.5
 20
170.290266
 30
0.0
 40
3.0
100
AcDbArc
 50
180.0
 51
270.0
  0
ARC
  5
31C
100
AcDbEntity
  8
001
100
AcDbCircle
 10
198.5
 20
170.290266
 30
0.0
 40
3.0
100
AcDbArc
 50
270.0
 51
0.0
  0
ARC
  5
31D
100
AcDbEntity
  8
001
100
AcDbCircle
 10
198.5
 20
209.261409
 30
0.0
 40
3.0
100
AcDbArc
 50
270.0
 51
0.0
  0
ARC
  5
31E
100
AcDbEntity
  8
001
100
AcDbCircle
 10
175.5
 20
209.261409
 30
0.0
 40
3.0
100
AcDbArc
 50
180.0
 51
270.0
  0
LINE
  5
31F
100
AcDbEntity
  8
001
100
AcDbLine
 10
162.0
 20
217.289218
 30
0.0
 11
169.5
 21
217.289218
 31
0.0
  0
ARC
  5
320
100
AcDbEntity
  8
001
100
AcDbCircle
 10
169.5
 20
214.289218
 30
0.0
 40
3.0
100
AcDbArc
 50
0.0
 51
90.0
  0
ARC
  5
321
100
AcDbEntity
  8
001
100
AcDbCircle
 10
162.0
 20
220.289218
 30
0.0
 40
3.0
100
AcDbArc
 50
180.0
 51
270.0
  0
LINE
  5
322
100
AcDbEntity
  8
001
100
AcDbLine
 10
162.0
 20
178.318075
 30
0.0
 11
169.5
 21
178.318075
 31
0.0
  0
ARC
  5
323
100
AcDbEntity
  8
001
100
AcDbCircle
 10
169.5
 20
175.318075
 30
0.0
 40
3.0
100
AcDbArc
 50
0.0
 51
90.0
  0
ARC
  5
324
100
AcDbEntity
  8
001
100
AcDbCircle
 10
162.0
 20
175.318075
 30
0.0
 40
3.0
100
AcDbArc
 50
90.0
 51
180.0
  0
LINE
  5
325
100
AcDbEntity
  8
001
100
AcDbLine
 10
159.0
 20
220.289218
 30
0.0
 11
159.0
 21
261.5
 31
0.0
  0
LINE
  5
326
100
AcDbEntity
  8
001
100
AcDbLine
 10
159.0
 20
172.5
 30
0.0
 11
159.0
 21
175.318075
 31
0.0
  0
LINE
  5
327
100
AcDbEntity
  8
001
100
AcDbLine
 10
176.0
 20
248.496031
 30
0.0
 11
162.0
 21
248.496031
 31
0.0
  0
ARC
  5
328
100
AcDbEntity
  8
001
100
AcDbCircle
 10
162.0
 20
245.496031
 30
0.0
 40
3.0
100
AcDbArc
 50
90.0
 51
180.0
  0
ARC
  5
329
100
AcDbEntity
  8
001
100
AcDbCircle
 10
176.0
 20
251.496031
 30
0.0
 40
3.0
100
AcDbArc
 50
270.0
 51
0.0
  0
LINE
  5
32A
100
AcDbEntity
  8
001
100
AcDbLine
 10
176.070455
 20
220.558001
 30
0.0
 11
162.0
 21
220.558001
 31
0.0
  0
ARC
  5
32B
100
AcDbEntity
  8
001
100
AcDbCircle
 10
162.0
 20
223.558001
 30
0.0
 40
3.0
100
AcDbArc
 50
180.0
 51
270.0
  0
LINE
  5
32C
100
AcDbEntity
  8
001
100
AcDbLine
 10
136.340966
 20
256.109253
 30
0.0
 11
173.840966
 21
280.999521
 31
0.0
  0
LINE
  5
32D
100
AcDbEntity
  8
001
100
AcDbLine
 10
173.370347
 20
187.989006
 30
0.0
 11
137.032176
 21
200.374187
 31
0.0
  0
ARC
  5
32E
100
AcDbEntity
  8
001
100
AcDbCircle
 10
138.0
 20
203.213786
 30
0.0
 40
3.0
100
AcDbArc
 50
180.0
 51
251.17929
  0
ARC
  5
32F
100
AcDbEntity
  8
001
100
AcDbCircle
 10
174.33817
 20
190.828605
 30
0.0
 40
3.0
100
AcDbArc
 50
251.17929
 51
270.0
  0
LINE
  5
330
100
AcDbEntity
  8
001
100
AcDbLine
 10
173.370347
 20
181.926829
 30
0.0
 11
137.032176
 21
194.31201
 31
0.0
  0
ARC
  5
331
100
AcDbEntity
  8
001
100
AcDbCircle
 10
138.0
 20
197.151608
 30
0.0
 40
3.0
100
AcDbArc
 50
180.0
 51
251.17929
  0
ARC
  5
332
100
AcDbEntity
  8
001
100
AcDbCircle
 10
174.33817
 20
184.766427
 30
0.0
 40
3.0
100
AcDbArc
 50
251.17929
 51
270.0
  0
LINE
  5
333
100
AcDbEntity
  8
001
100
AcDbLine
 10
172.5
 20
214.289218
 30
0.0
 11
172.5
 21
188.285648
 31
0.0
  0
LINE
  5
334
100
AcDbEntity
  8
001
100
AcDbLine
 10
172.5
 20
182.22347
 30
0.0
 11
172.5
 21
170.290266
 31
0.0
  0
LINE
  5
335
100
AcDbEntity
  8
001
100
AcDbLine
 10
159.0
 20
178.318075
 30
0.0
 11
159.0
 21
186.824691
 31
0.0
  0
LINE
  5
336
100
AcDbEntity
  8
001
100
AcDbLine
 10
159.0
 20
197.850016
 30
0.0
 11
159.0
 21
217.289218
 31
0.0
  0
LINE
  5
337
100
AcDbEntity
  8
001
100
AcDbLine
 10
159.0
 20
197.850016
 30
0.0
 11
137.637295
 21
200.451887
 31
0.0
  0
LINE
  5
338
100
AcDbEntity
  8
001
100
AcDbLine
 10
169.5
 20
197.850016
 30
0.0
 11
159.0
 21
197.850016
 31
0.0
  0
ARC
  5
339
100
AcDbEntity
  8
001
100
AcDbCircle
 10
169.5
 20
194.850016
 30
0.0
 40
3.0
100
AcDbArc
 50
0.0
 51
90.0
  0
LINE
  5
33A
100
AcDbEntity
  8
001
100
AcDbLine
 10
172.5
 20
272.817029
 30
0.0
 11
169.5
 21
272.817029
 31
0.0
  0
LINE
  5
33B
100
AcDbEntity
  8
001
100
AcDbLine
 10
172.5
 20
263.817029
 30
0.0
 11
169.5
 21
263.817029
 31
0.0
  0
LINE
  5
33C
100
AcDbEntity
  8
001
100
AcDbLine
 10
169.5
 20
263.817029
 30
0.0
 11
169.5
 21
272.817029
 31
0.0
  0
LINE
  5
33D
100
AcDbEntity
  8
001
100
AcDbLine
 10
209.5
 20
265.817029
 30
0.0
 11
209.5
 21
270.817029
 31
0.0
  0
LINE
  5
33E
100
AcDbEntity
  8
001
100
AcDbLine
 10
209.5
 20
265.817029
 30
0.0
 11
201.5
 21
265.817029
 31
0.0
  0
LINE
  5
33F
100
AcDbEntity
  8
001
100
AcDbLine
 10
195.0
 20
265.817029
 30
0.0
 11
179.0
 21
265.817029
 31
0.0
  0
LINE
  5
340
100
AcDbEntity
  8
001
100
AcDbLine
 10
209.5
 20
270.817029
 30
0.0
 11
201.5
 21
270.817029
 31
0.0
  0
LINE
  5
341
100
AcDbEntity
  8
001
  6
CENTER
100
AcDbLine
 10
165.75
 20
268.317029
 30
0.0
 11
213.25
 21
268.317029
 31
0.0
  0
LINE
  5
342
100
AcDbEntity
  8
001
100
AcDbLine
 10
310.264465
 20
248.0
 30
0.0
 11
311.715254
 21
248.0
 31
0.0
  0
LINE
  5
343
100
AcDbEntity
  8
001
100
AcDbLine
 10
319.0
 20
271.342899
 30
0.0
 11
319.0
 21
283.0
 31
0.0
  0
ARC
  5
344
100
AcDbEntity
  8
001
100
AcDbCircle
 10
311.715254
 20
258.0
 30
0.0
 40
10.0
100
AcDbArc
 50
270.0
 51
12.5
  0
LINE
  5
345
100
AcDbEntity
  8
001
100
AcDbLine
 10
336.4
 20
192.856571
 30
0.0
 11
322.993292
 21
253.330324
 31
0.0
  0
LINE
  5
346
100
AcDbEntity
  8
001
100
AcDbLine
 10
321.478215
 20
260.164396
 30
0.0
 11
319.0
 21
271.342899
 31
0.0
  0
LINE
  5
347
100
AcDbEntity
  8
001
100
AcDbLine
 10
307.0
 20
186.50444
 30
0.0
 11
307.0
 21
247.49556
 31
0.0
  0
LINE
  5
348
100
AcDbEntity
  8
001
100
AcDbLine
 10
294.0
 20
178.112911
 30
0.0
 11
294.0
 21
255.887089
 31
0.0
  0
LINE
  5
349
100
AcDbEntity
  8
001
100
AcDbLine
 10
304.3643
 20
249.926089
 30
0.0
 11
296.6357
 21
255.573911
 31
0.0
  0
ARC
  5
34A
100
AcDbEntity
  8
001
100
AcDbCircle
 10
290.735535
 20
247.5
 30
0.0
 40
10.0
100
AcDbArc
 50
53.841815
 51
90.0
  0
ARC
  5
34B
100
AcDbEntity
  8
001
100
AcDbCircle
 10
310.264465
 20
258.0
 30
0.0
 40
10.0
100
AcDbArc
 50
233.841815
 51
270.0
  0
LINE
  5
34C
100
AcDbEntity
  8
001
100
AcDbLine
 10
296.6357
 20
178.426089
 30
0.0
 11
304.3643
 21
184.073911
 31
0.0
  0
ARC
  5
34D
100
AcDbEntity
  8
001
100
AcDbCircle
 10
310.264465
 20
176.0
 30
0.0
 40
10.0
100
AcDbArc
 50
90.0
 51
126.158185
  0
ARC
  5
34E
100
AcDbEntity
  8
001
100
AcDbCircle
 10
290.735535
 20
186.5
 30
0.0
 40
10.0
100
AcDbArc
 50
270.0
 51
306.158185
  0
LINE
  5
34F
100
AcDbEntity
  8
001
100
AcDbLine
 10
279.0
 20
211.0
 30
0.0
 11
279.0
 21
223.0
 31
0.0
  0
ARC
  5
350
100
AcDbEntity
  8
001
100
AcDbCircle
 10
276.0
 20
226.0
 30
0.0
 40
3.0
100
AcDbArc
 50
270.0
 51
0.0
  0
ARC
  5
351
100
AcDbEntity
  8
001
100
AcDbCircle
 10
276.0
 20
208.0
 30
0.0
 40
3.0
100
AcDbArc
 50
0.0
 51
90.0
  0
LINE
  5
352
100
AcDbEntity
  8
001
  6
CENTER
100
AcDbLine
 10
120.0
 20
217.0
 30
0.0
 11
598.0
 21
217.0
 31
0.0
  0
LINE
  5
353
100
AcDbEntity
  8
001
100
AcDbLine
 10
310.264465
 20
186.0
 30
0.0
 11
407.735535
 21
186.0
 31
0.0
  0
LINE
  5
354
100
AcDbEntity
  8
001
100
AcDbLine
 10
498.458246
 20
775.253786
 30
0.0
 11
493.3434
 21
797.128826
 31
0.0
  0
LINE
  5
355
100
AcDbEntity
  8
001
100
AcDbLine
 10
439.525971
 20
774.279684
 30
0.0
 11
444.607145
 21
796.913013
 31
0.0
  0
ARC
  5
356
100
AcDbEntity
  8
001
100
AcDbCircle
 10
469.0
 20
791.436826
 30
0.0
 40
25.0
100
AcDbArc
 50
13.160523
 51
167.346907
  0
LINE
  5
357
100
AcDbEntity
  8
001
  6
CENTER
100
AcDbLine
 10
469.0
 20
775.186826
 30
0.0
 11
469.0
 21
807.686826
 31
0.0
  0
LINE
  5
358
100
AcDbEntity
  8
001
  6
CENTER
100
AcDbLine
 10
452.75
 20
791.436826
 30
0.0
 11
485.25
 21
791.436826
 31
0.0
  0
ARC
  5
359
100
AcDbEntity
  8
001
100
AcDbCircle
 10
501.379454
 20
775.936826
 30
0.0
 40
3.0
100
AcDbArc
 50
193.160523
 51
270.0
  0
ARC
  5
35A
100
AcDbEntity
  8
001
100
AcDbCircle
 10
436.598828
 20
774.936826
 30
0.0
 40
3.0
100
AcDbArc
 50
270.0
 51
347.346907
  0
CIRCLE
  5
35B
100
AcDbEntity
  8
001
100
AcDbCircle
 10
469.0
 20
791.436826
 30
0.0
 40
12.5
  0
LINE
  5
35C
100
AcDbEntity
  8
001
100
AcDbLine
 10
545.5
 20
737.936826
 30
0.0
 11
545.5
 21
751.436826
 31
0.0
  0
LINE
  5
35D
100
AcDbEntity
  8
001
100
AcDbLine
 10
559.0
 20
737.936826
 30
0.0
 11
559.0
 21
751.436826
 31
0.0
  0
LINE
  5
35E
100
AcDbEntity
  8
001
100
AcDbLine
 10
516.5
 20
776.680983
 30
0.0
 11
516.5
 21
792.036611
 31
0.0
  0
LINE
  5
35F
100
AcDbEntity
  8
001
100
AcDbLine
 10
545.5
 20
778.935886
 30
0.0
 11
545.5
 21
792.036611
 31
0.0
  0
LINE
  5
360
100
AcDbEntity
  8
001
100
AcDbLine
 10
519.5
 20
795.036611
 30
0.0
 11
542.5
 21
795.036611
 31
0.0
  0
ARC
  5
361
100
AcDbEntity
  8
001
100
AcDbCircle
 10
542.5
 20
792.036611
 30
0.0
 40
3.0
100
AcDbArc
 50
0.0
 51
90.0
  0
ARC
  5
362
100
AcDbEntity
  8
001
100
AcDbCircle
 10
519.5
 20
792.036611
 30
0.0
 40
3.0
100
AcDbArc
 50
90.0
 51
180.0
  0
LINE
  5
363
100
AcDbEntity
  8
001
100
AcDbLine
 10
548.5
 20
775.935886
 30
0.0
 11
559.0
 21
775.935886
 31
0.0
  0
ARC
  5
364
100
AcDbEntity
  8
001
100
AcDbCircle
 10
548.5
 20
778.935886
 30
0.0
 40
3.0
100
AcDbArc
 50
180.0
 51
270.0
  0
LINE
  5
365
100
AcDbEntity
  8
001
100
AcDbLine
 10
556.0
 20
770.274187
 30
0.0
 11
542.0
 21
770.274187
 31
0.0
  0
ARC
  5
366
100
AcDbEntity
  8
001
100
AcDbCircle
 10
542.0
 20
773.274187
 30
0.0
 40
3.0
100
AcDbArc
 50
180.0
 51
270.0
  0
ARC
  5
367
100
AcDbEntity
  8
001
100
AcDbCircle
 10
556.0
 20
767.274187
 30
0.0
 40
3.0
100
AcDbArc
 50
0.0
 51
90.0
  0
LINE
  5
368
100
AcDbEntity
  8
001
100
AcDbLine
 10
539.0
 20
776.406201
 30
0.0
 11
539.0
 21
754.436826
 31
0.0
  0
LINE
  5
369
100
AcDbEntity
  8
001
100
AcDbLine
 10
544.159034
 20
734.936826
 30
0.0
 11
583.0
 21
734.936826
 31
0.0
  0
LINE
  5
36A
100
AcDbEntity
  8
001
100
AcDbLine
 10
545.5
 20
788.171543
 30
0.0
 11
568.973526
 21
774.314254
 31
0.0
  0
ARC
  5
36B
100
AcDbEntity
  8
001
100
AcDbCircle
 10
548.5
 20
737.936826
 30
0.0
 40
3.0
100
AcDbArc
 50
180.0
 51
270.0
  0
LINE
  5
36C
100
AcDbEntity
  8
001
100
AcDbLine
 10
488.0
 20
690.936826
 30
0.0
 11
427.697689
 21
690.936826
 31
0.0
  0
LINE
  5
36D
100
AcDbEntity
  8
001
100
AcDbLine
 10
489.732051
 20
689.936826
 30
0.0
 11
508.646118
 21
689.936826
 31
0.0
  0
ARC
  5
36E
100
AcDbEntity
  8
001
100
AcDbCircle
 10
488.0
 20
689.936826
 30
0.0
 40
1.0
100
AcDbArc
 50
30.0
 51
90.0
  0
ARC
  5
36F
100
AcDbEntity
  8
001
100
AcDbCircle
 10
489.732051
 20
690.936826
 30
0.0
 40
1.0
100
AcDbArc
 50
210.0
 51
270.0
  0
LINE
  5
370
100
AcDbEntity
  8
001
100
AcDbLine
 10
559.0
 20
686.936826
 30
0.0
 11
580.670128
 21
691.902897
 31
0.0
  0
ARC
  5
371
100
AcDbEntity
  8
001
100
AcDbCircle
 10
580.0
 20
694.827094
 30
0.0
 40
3.0
100
AcDbArc
 50
282.907409
 51
0.0
  0
LINE
  5
372
100
AcDbEntity
  8
001
100
AcDbLine
 10
556.0
 20
708.436826
 30
0.0
 11
519.5
 21
708.436826
 31
0.0
  0
ARC
  5
373
100
AcDbEntity
  8
001
100
AcDbCircle
 10
519.5
 20
711.436826
 30
0.0
 40
3.0
100
AcDbArc
 50
180.0
 51
270.0
  0
ARC
  5
374
100
AcDbEntity
  8
001
100
AcDbCircle
 10
542.5
 20
711.436826
 30
0.0
 40
3.0
100
AcDbArc
 50
270.0
 51
0.0
  0
LINE
  5
375
100
AcDbEntity
  8
001
100
AcDbLine
 10
559.0
 20
705.436826
 30
0.0
 11
559.0
 21
686.936826
 31
0.0
  0
ARC
  5
376
100
AcDbEntity
  8
001
100
AcDbCircle
 10
556.0
 20
705.436826
 30
0.0
 40
3.0
100
AcDbArc
 50
0.0
 51
90.0
  0
ARC
  5
377
100
AcDbEntity
  8
001
100
AcDbCircle
 10
508.757359
 20
686.936826
 30
0.0
 40
3.0
100
AcDbArc
 50
45.0
 51
90.0
  0
LINE
  5
378
100
AcDbEntity
  8
001
100
AcDbLine
 10
511.992641
 20
687.944185
 30
0.0
 11
510.87868
 21
689.058146
 31
0.0
  0
ARC
  5
379
100
AcDbEntity
  8
001
100
AcDbCircle
 10
516.235281
 20
692.186826
 30
0.0
 40
6.0
100
AcDbArc
 50
225.0
 51
280.504554
  0
LINE
  5
37A
100
AcDbEntity
  8
001
100
AcDbLine
 10
528.453059
 20
688.34999
 30
0.0
 11
517.329163
 21
686.287383
 31
0.0
  0
ARC
  5
37B
100
AcDbEntity
  8
001
100
AcDbCircle
 10
528.0
 20
690.300074
 30
0.0
 40
2.0
100
AcDbArc
 50
280.504554
 51
0.0
  0
LINE
  5
37C
100
AcDbEntity
  8
001
100
AcDbLine
 10
530.0
 20
690.300074
 30
0.0
 11
530.0
 21
708.436826
 31
0.0
  0
ARC
  5
37D
100
AcDbEntity
  8
001
100
AcDbCircle
 10
533.0
 20
691.436826
 30
0.0
 40
3.0
100
AcDbArc
 50
90.0
 51
180.0
  0
LINE
  5
37E
100
AcDbEntity
  8
001
100
AcDbLine
 10
533.0
 20
694.436826
 30
0.0
 11
538.0
 21
694.436826
 31
0.0
  0
ARC
  5
37F
100
AcDbEntity
  8
001
100
AcDbCircle
 10
538.0
 20
695.436826
 30
0.0
 40
1.0
100
AcDbArc
 50
270.0
 51
0.0
  0
LINE
  5
380
100
AcDbEntity
  8
001
100
AcDbLine
 10
498.458246
 20
687.619866
 30
0.0
 11
493.3434
 21
665.744826
 31
0.0
  0
LINE
  5
381
100
AcDbEntity
  8
001
100
AcDbLine
 10
439.525971
 20
688.593968
 30
0.0
 11
444.607145
 21
665.960639
 31
0.0
  0
ARC
  5
382
100
AcDbEntity
  8
001
100
AcDbCircle
 10
469.0
 20
671.436826
 30
0.0
 40
25.0
100
AcDbArc
 50
192.653093
 51
346.839477
  0
LINE
  5
383
100
AcDbEntity
  8
001
  6
CENTER
100
AcDbLine
 10
469.0
 20
687.686826
 30
0.0
 11
469.0
 21
655.186826
 31
0.0
  0
LINE
  5
384
100
AcDbEntity
  8
001
  6
CENTER
100
AcDbLine
 10
452.75
 20
671.436826
 30
0.0
 11
485.25
 21
671.436826
 31
0.0
  0
ARC
  5
385
100
AcDbEntity
  8
001
100
AcDbCircle
 10
501.379454
 20
686.936826
 30
0.0
 40
3.0
100
AcDbArc
 50
90.0
 51
166.839477
  0
ARC
  5
386
100
AcDbEntity
  8
001
100
AcDbCircle
 10
436.598828
 20
687.936826
 30
0.0
 40
3.0
100
AcDbArc
 50
12.653093
 51
90.0
  0
CIRCLE
  5
387
100
AcDbEntity
  8
001
100
AcDbCircle
 10
469.0
 20
671.436826
 30
0.0
 40
12.5
  0
LINE
  5
388
100
AcDbEntity
  8
001
100
AcDbLine
 10
545.5
 20
724.936826
 30
0.0
 11
545.5
 21
711.436826
 31
0.0
  0
LINE
  5
389
100
AcDbEntity
  8
001
100
AcDbLine
 10
559.0
 20
724.936826
 30
0.0
 11
559.0
 21
711.436826
 31
0.0
  0
LINE
  5
38A
100
AcDbEntity
  8
001
100
AcDbLine
 10
516.5
 20
686.192669
 30
0.0
 11
516.5
 21
670.837041
 31
0.0
  0
LINE
  5
38B
100
AcDbEntity
  8
001
100
AcDbLine
 10
545.5
 20
683.937766
 30
0.0
 11
545.5
 21
670.837041
 31
0.0
  0
LINE
  5
38C
100
AcDbEntity
  8
001
100
AcDbLine
 10
519.5
 20
667.837041
 30
0.0
 11
542.5
 21
667.837041
 31
0.0
  0
ARC
  5
38D
100
AcDbEntity
  8
001
100
AcDbCircle
 10
542.5
 20
670.837041
 30
0.0
 40
3.0
100
AcDbArc
 50
270.0
 51
0.0
  0
ARC
  5
38E
100
AcDbEntity
  8
001
100
AcDbCircle
 10
519.5
 20
670.837041
 30
0.0
 40
3.0
100
AcDbArc
 50
180.0
 51
270.0
  0
LINE
  5
38F
100
AcDbEntity
  8
001
100
AcDbLine
 10
548.5
 20
686.937766
 30
0.0
 11
559.0
 21
686.937766
 31
0.0
  0
ARC
  5
390
100
AcDbEntity
  8
001
100
AcDbCircle
 10
548.5
 20
683.937766
 30
0.0
 40
3.0
100
AcDbArc
 50
90.0
 51
180.0
  0
LINE
  5
391
100
AcDbEntity
  8
001
100
AcDbLine
 10
556.0
 20
692.599465
 30
0.0
 11
542.0
 21
692.599465
 31
0.0
  0
ARC
  5
392
100
AcDbEntity
  8
001
100
AcDbCircle
 10
542.0
 20
689.599465
 30
0.0
 40
3.0
100
AcDbArc
 50
90.0
 51
180.0
  0
ARC
  5
393
100
AcDbEntity
  8
001
100
AcDbCircle
 10
556.0
 20
695.599465
 30
0.0
 40
3.0
100
AcDbArc
 50
270.0
 51
0.0
  0
LINE
  5
394
100
AcDbEntity
  8
001
100
AcDbLine
 10
539.0
 20
708.436826
 30
0.0
 11
539.0
 21
676.890903
 31
0.0
  0
LINE
  5
395
100
AcDbEntity
  8
001
100
AcDbLine
 10
544.159034
 20
727.936826
 30
0.0
 11
583.0
 21
727.936826
 31
0.0
  0
LINE
  5
396
100
AcDbEntity
  8
001
100
AcDbLine
 10
545.5
 20
674.702109
 30
0.0
 11
570.809304
 21
689.643125
 31
0.0
  0
ARC
  5
397
100
AcDbEntity
  8
001
100
AcDbCircle
 10
548.5
 20
724.936826
 30
0.0
 40
3.0
100
AcDbArc
 50
90.0
 51
180.0
  0
LINE
  5
398
100
AcDbEntity
  8
001
100
AcDbLine
 10
583.0
 20
694.827094
 30
0.0
 11
583.0
 21
768.046558
 31
0.0
  0
LINE
  5
399
100
AcDbEntity
  8
001
100
AcDbLine
 10
516.5
 20
711.436826
 30
0.0
 11
516.5
 21
751.436826
 31
0.0
  0
LINE
  5
39A
100
AcDbEntity
  8
001
100
AcDbLine
 10
488.866025
 20
691.739602
 30
0.0
 11
488.866025
 21
771.13405
 31
0.0
  0
LINE
  5
39B
100
AcDbEntity
  8
001
100
AcDbLine
 10
508.5
 20
747.186826
 30
0.0
 11
508.5
 21
742.186826
 31
0.0
  0
LINE
  5
39C
100
AcDbEntity
  8
001
100
AcDbLine
 10
508.5
 20
747.186826
 30
0.0
 11
516.5
 21
747.186826
 31
0.0
  0
LINE
  5
39D
100
AcDbEntity
  8
001
100
AcDbLine
 10
508.5
 20
742.186826
 30
0.0
 11
516.5
 21
742.186826
 31
0.0
  0
LINE
  5
39E
100
AcDbEntity
  8
001
  6
CENTER
100
AcDbLine
 10
552.25
 20
744.686826
 30
0.0
 11
504.75
 21
744.686826
 31
0.0
  0
LINE
  5
39F
100
AcDbEntity
  8
001
100
AcDbLine
 10
545.5
 20
740.186826
 30
0.0
 11
548.5
 21
740.186826
 31
0.0
  0
LINE
  5
3A0
100
AcDbEntity
  8
001
100
AcDbLine
 10
548.5
 20
749.186826
 30
0.0
 11
548.5
 21
740.186826
 31
0.0
  0
LINE
  5
3A1
100
AcDbEntity
  8
001
100
AcDbLine
 10
545.5
 20
749.186826
 30
0.0
 11
548.5
 21
749.186826
 31
0.0
  0
LINE
  5
3A2
100
AcDbEntity
  8
001
100
AcDbLine
 10
510.0
 20
690.73891
 30
0.0
 11
510.0
 21
742.186826
 31
0.0
  0
LINE
  5
3A3
100
AcDbEntity
  8
001
100
AcDbLine
 10
510.0
 20
747.186826
 30
0.0
 11
510.0
 21
772.134742
 31
0.0
  0
CIRCLE
  5
3A4
100
AcDbEntity
  8
001
100
AcDbCircle
 10
831.25
 20
268.317029
 30
0.0
 40
4.5
  0
LINE
  5
3A5
100
AcDbEntity
  8
001
  6
CENTER
100
AcDbLine
 10
831.25
 20
260.067029
 30
0.0
 11
831.25
 21
276.567029
 31
0.0
  0
LINE
  5
3A6
100
AcDbEntity
  8
001
  6
CENTER
100
AcDbLine
 10
823.0
 20
268.317029
 30
0.0
 11
839.5
 21
268.317029
 31
0.0
  0
LINE
  5
3A7
100
AcDbEntity
  8
001
  6
CENTER
100
AcDbLine
 10
549.25
 20
268.317029
 30
0.0
 11
504.75
 21
268.317029
 31
0.0
  0
LINE
  5
3A8
100
AcDbEntity
  8
001
100
AcDbLine
 10
508.5
 20
265.817029
 30
0.0
 11
508.5
 21
270.817029
 31
0.0
  0
LINE
  5
3A9
100
AcDbEntity
  8
001
100
AcDbLine
 10
508.5
 20
265.817029
 30
0.0
 11
516.5
 21
265.817029
 31
0.0
  0
LINE
  5
3AA
100
AcDbEntity
  8
001
100
AcDbLine
 10
508.5
 20
270.817029
 30
0.0
 11
516.5
 21
270.817029
 31
0.0
  0
ARC
  5
3AB
100
AcDbEntity
  8
001
100
AcDbCircle
 10
548.5
 20
264.5
 30
0.0
 40
3.0
100
AcDbArc
 50
180.0
 51
270.0
  0
LINE
  5
3AC
100
AcDbEntity
  8
001
 62
     3
100
AcDbLine
 10
978.0
 20
48.0
 30
0.0
 11
1215.0
 21
48.0
 31
0.0
  0
TEXT
  5
3AF
100
AcDbEntity
  8
001
 62
     3
100
AcDbText
 10
999.75
 20
51.0
 30
0.0
 40
12.0
  1
塩ビ管用継手　　　　　　型両受け
 41
0.833333
100
AcDbText
  0
TEXT
  5
3B0
100
AcDbEntity
  8
001
 62
     3
100
AcDbText
 10
1065.75
 20
51.0
 30
0.0
 40
12.0
  1
(SGR-N)
 41
1.105263
100
AcDbText
  0
TEXT
  5
3B1
100
AcDbEntity
  8
001
 62
     3
100
AcDbText
 10
999.75
 20
66.0
 30
0.0
 40
15.0
  1
浅層埋設対応型　ソフトシール仕切弁
 41
0.666667
100
AcDbText
  0
TEXT
  5
3B2
100
AcDbEntity
  8
001
 62
     3
100
AcDbText
 10
989.25
 20
84.0
 30
0.0
 40
13.5
  1
ＪＷＷＡ　Ｂ　１２０準拠　φ５０
 41
0.648148
100
AcDbText
  0
POLYLINE
  5
3B3
100
AcDbEntity
  8
001
 62
     2
100
AcDb2dPolyline
 66
     1
 10
0.0
 20
0.0
 30
0.0
 70
     1
  0
VERTEX
  5
3B4
100
AcDbEntity
  8
001
 62
     2
100
AcDbVertex
100
AcDb2dVertex
 10
978.0
 20
30.0
 30
0.0
  0
VERTEX
  5
3B5
100
AcDbEntity
  8
001
 62
     2
100
AcDbVertex
100
AcDb2dVertex
 10
1215.0
 20
30.0
 30
0.0
  0
VERTEX
  5
3B6
100
AcDbEntity
  8
001
 62
     2
100
AcDbVertex
100
AcDb2dVertex
 10
1215.0
 20
100.5
 30
0.0
  0
VERTEX
  5
3B7
100
AcDbEntity
  8
001
 62
     2
100
AcDbVertex
100
AcDb2dVertex
 10
978.0
 20
100.5
 30
0.0
  0
SEQEND
  5
3B8
100
AcDbEntity
  8
001
 62
     2
  0
LINE
  5
3B9
100
AcDbEntity
  8
001
100
AcDbLine
 10
154.848394
 20
245.69784
 30
0.0
 11
154.848394
 21
232.767284
 31
0.0
  0
LINE
  5
3BA
100
AcDbEntity
  8
001
100
AcDbLine
 10
143.151606
 20
244.334119
 30
0.0
 11
143.151606
 21
231.411352
 31
0.0
  0
POLYLINE
  5
3BB
100
AcDbEntity
  8
001
100
AcDb2dPolyline
 66
     1
 10
0.0
 20
0.0
 30
0.0
  0
VERTEX
  5
3BC
100
AcDbEntity
  8
001
100
AcDbVertex
100
AcDb2dVertex
 10
154.848394
 20
245.69784
 30
0.0
  0
VERTEX
  5
3BD
100
AcDbEntity
  8
001
100
AcDbVertex
100
AcDb2dVertex
 10
154.826139
 20
245.936107
 30
0.0
  0
VERTEX
  5
3BE
100
AcDbEntity
  8
001
100
AcDbVertex
100
AcDb2dVertex
 10
154.759544
 20
246.17256
 30
0.0
  0
VERTEX
  5
3BF
100
AcDbEntity
  8
001
100
AcDbVertex
100
AcDb2dVertex
 10
154.649115
 20
246.4054
 30
0.0
  0
VERTEX
  5
3C0
100
AcDbEntity
  8
001
100
AcDbVertex
100
AcDb2dVertex
 10
154.495693
 20
246.632855
 30
0.0
  0
VERTEX
  5
3C1
100
AcDbEntity
  8
001
100
AcDbVertex
100
AcDb2dVertex
 10
154.300445
 20
246.853195
 30
0.0
  0
VERTEX
  5
3C2
100
AcDbEntity
  8
001
100
AcDbVertex
100
AcDb2dVertex
 10
154.064858
 20
247.064741
 30
0.0
  0
VERTEX
  5
3C3
100
AcDbEntity
  8
001
100
AcDbVertex
100
AcDb2dVertex
 10
153.790724
 20
247.265884
 30
0.0
  0
VERTEX
  5
3C4
100
AcDbEntity
  8
001
100
AcDbVertex
100
AcDb2dVertex
 10
153.48013
 20
247.455094
 30
0.0
  0
VERTEX
  5
3C5
100
AcDbEntity
  8
001
100
AcDbVertex
100
AcDb2dVertex
 10
153.135439
 20
247.63093
 30
0.0
  0
VERTEX
  5
3C6
100
AcDbEntity
  8
001
100
AcDbVertex
100
AcDb2dVertex
 10
152.759275
 20
247.792054
 30
0.0
  0
VERTEX
  5
3C7
100
AcDbEntity
  8
001
100
AcDbVertex
100
AcDb2dVertex
 10
152.354501
 20
247.93724
 30
0.0
  0
VERTEX
  5
3C8
100
AcDbEntity
  8
001
100
AcDbVertex
100
AcDb2dVertex
 10
151.924197
 20
248.065382
 30
0.0
  0
VERTEX
  5
3C9
100
AcDbEntity
  8
001
100
AcDbVertex
100
AcDb2dVertex
 10
151.471638
 20
248.175506
 30
0.0
  0
VERTEX
  5
3CA
100
AcDbEntity
  8
001
100
AcDbVertex
100
AcDb2dVertex
 10
151.000269
 20
248.266774
 30
0.0
  0
VERTEX
  5
3CB
100
AcDbEntity
  8
001
100
AcDbVertex
100
AcDb2dVertex
 10
150.513676
 20
248.33849
 30
0.0
  0
VERTEX
  5
3CC
100
AcDbEntity
  8
001
100
AcDbVertex
100
AcDb2dVertex
 10
150.015563
 20
248.390109
 30
0.0
  0
VERTEX
  5
3CD
100
AcDbEntity
  8
001
100
AcDbVertex
100
AcDb2dVertex
 10
149.509721
 20
248.421239
 30
0.0
  0
VERTEX
  5
3CE
100
AcDbEntity
  8
001
100
AcDbVertex
100
AcDb2dVertex
 10
149.0
 20
248.431642
 30
0.0
  0
SEQEND
  5
3CF
100
AcDbEntity
  8
001
  0
POLYLINE
  5
3D0
100
AcDbEntity
  8
001
100
AcDb2dPolyline
 66
     1
 10
0.0
 20
0.0
 30
0.0
  0
VERTEX
  5
3D1
100
AcDbEntity
  8
001
100
AcDbVertex
100
AcDb2dVertex
 10
149.0
 20
248.431642
 30
0.0
  0
VERTEX
  5
3D2
100
AcDbEntity
  8
001
100
AcDbVertex
100
AcDb2dVertex
 10
148.490279
 20
248.41605
 30
0.0
  0
VERTEX
  5
3D3
100
AcDbEntity
  8
001
100
AcDbVertex
100
AcDb2dVertex
 10
147.984437
 20
248.369391
 30
0.0
  0
VERTEX
  5
3D4
100
AcDbEntity
  8
001
100
AcDbVertex
100
AcDb2dVertex
 10
147.486324
 20
248.292022
 30
0.0
  0
VERTEX
  5
3D5
100
AcDbEntity
  8
001
100
AcDbVertex
100
AcDb2dVertex
 10
146.999731
 20
248.184531
 30
0.0
  0
VERTEX
  5
3D6
100
AcDbEntity
  8
001
100
AcDbVertex
100
AcDb2dVertex
 10
146.528362
 20
248.047736
 30
0.0
  0
VERTEX
  5
3D7
100
AcDbEntity
  8
001
100
AcDbVertex
100
AcDb2dVertex
 10
146.075803
 20
247.882678
 30
0.0
  0
VERTEX
  5
3D8
100
AcDbEntity
  8
001
100
AcDbVertex
100
AcDb2dVertex
 10
145.645499
 20
247.690613
 30
0.0
  0
VERTEX
  5
3D9
100
AcDbEntity
  8
001
100
AcDbVertex
100
AcDb2dVertex
 10
145.240725
 20
247.473004
 30
0.0
  0
VERTEX
  5
3DA
100
AcDbEntity
  8
001
100
AcDbVertex
100
AcDb2dVertex
 10
144.864561
 20
247.231505
 30
0.0
  0
VERTEX
  5
3DB
100
AcDbEntity
  8
001
100
AcDbVertex
100
AcDb2dVertex
 10
144.51987
 20
246.967956
 30
0.0
  0
VERTEX
  5
3DC
100
AcDbEntity
  8
001
100
AcDbVertex
100
AcDb2dVertex
 10
144.209276
 20
246.684361
 30
0.0
  0
VERTEX
  5
3DD
100
AcDbEntity
  8
001
100
AcDbVertex
100
AcDb2dVertex
 10
143.935142
 20
246.38288
 30
0.0
  0
VERTEX
  5
3DE
100
AcDbEntity
  8
001
100
AcDbVertex
100
AcDb2dVertex
 10
143.699555
 20
246.065807
 30
0.0
  0
VERTEX
  5
3DF
100
AcDbEntity
  8
001
100
AcDbVertex
100
AcDb2dVertex
 10
143.504307
 20
245.735554
 30
0.0
  0
VERTEX
  5
3E0
100
AcDbEntity
  8
001
100
AcDbVertex
100
AcDb2dVertex
 10
143.350885
 20
245.394636
 30
0.0
  0
VERTEX
  5
3E1
100
AcDbEntity
  8
001
100
AcDbVertex
100
AcDb2dVertex
 10
143.240456
 20
245.045646
 30
0.0
  0
VERTEX
  5
3E2
100
AcDbEntity
  8
001
100
AcDbVertex
100
AcDb2dVertex
 10
143.173861
 20
244.691241
 30
0.0
  0
VERTEX
  5
3E3
100
AcDbEntity
  8
001
100
AcDbVertex
100
AcDb2dVertex
 10
143.151606
 20
244.334119
 30
0.0
  0
SEQEND
  5
3E4
100
AcDbEntity
  8
001
  0
POLYLINE
  5
3E5
100
AcDbEntity
  8
001
100
AcDb2dPolyline
 66
     1
 10
0.0
 20
0.0
 30
0.0
  0
VERTEX
  5
3E6
100
AcDbEntity
  8
001
100
AcDbVertex
100
AcDb2dVertex
 10
149.0
 20
227.774153
 30
0.0
  0
VERTEX
  5
3E7
100
AcDbEntity
  8
001
100
AcDbVertex
100
AcDb2dVertex
 10
149.509721
 20
227.793153
 30
0.0
  0
VERTEX
  5
3E8
100
AcDbEntity
  8
001
100
AcDbVertex
100
AcDb2dVertex
 10
150.015563
 20
227.850009
 30
0.0
  0
VERTEX
  5
3E9
100
AcDbEntity
  8
001
100
AcDbVertex
100
AcDb2dVertex
 10
150.513676
 20
227.944289
 30
0.0
  0
VERTEX
  5
3EA
100
AcDbEntity
  8
001
100
AcDbVertex
100
AcDb2dVertex
 10
151.000269
 20
228.075275
 30
0.0
  0
VERTEX
  5
3EB
100
AcDbEntity
  8
001
100
AcDbVertex
100
AcDb2dVertex
 10
151.471638
 20
228.24197
 30
0.0
  0
VERTEX
  5
3EC
100
AcDbEntity
  8
001
100
AcDbVertex
100
AcDb2dVertex
 10
151.924197
 20
228.443105
 30
0.0
  0
VERTEX
  5
3ED
100
AcDbEntity
  8
001
100
AcDbVertex
100
AcDb2dVertex
 10
152.354501
 20
228.67715
 30
0.0
  0
VERTEX
  5
3EE
100
AcDbEntity
  8
001
100
AcDbVertex
100
AcDb2dVertex
 10
152.759275
 20
228.942323
 30
0.0
  0
VERTEX
  5
3EF
100
AcDbEntity
  8
001
100
AcDbVertex
100
AcDb2dVertex
 10
153.135439
 20
229.236607
 30
0.0
  0
VERTEX
  5
3F0
100
AcDbEntity
  8
001
100
AcDbVertex
100
AcDb2dVertex
 10
153.48013
 20
229.557761
 30
0.0
  0
VERTEX
  5
3F1
100
AcDbEntity
  8
001
100
AcDbVertex
100
AcDb2dVertex
 10
153.790724
 20
229.903341
 30
0.0
  0
VERTEX
  5
3F2
100
AcDbEntity
  8
001
100
AcDbVertex
100
AcDb2dVertex
 10
154.064858
 20
230.270718
 30
0.0
  0
VERTEX
  5
3F3
100
AcDbEntity
  8
001
100
AcDbVertex
100
AcDb2dVertex
 10
154.300445
 20
230.657095
 30
0.0
  0
VERTEX
  5
3F4
100
AcDbEntity
  8
001
100
AcDbVertex
100
AcDb2dVertex
 10
154.495693
 20
231.059532
 30
0.0
  0
VERTEX
  5
3F5
100
AcDbEntity
  8
001
100
AcDbVertex
100
AcDb2dVertex
 10
154.649115
 20
231.474966
 30
0.0
  0
VERTEX
  5
3F6
100
AcDbEntity
  8
001
100
AcDbVertex
100
AcDb2dVertex
 10
154.759544
 20
231.900236
 30
0.0
  0
VERTEX
  5
3F7
100
AcDbEntity
  8
001
100
AcDbVertex
100
AcDb2dVertex
 10
154.826139
 20
232.332104
 30
0.0
  0
VERTEX
  5
3F8
100
AcDbEntity
  8
001
100
AcDbVertex
100
AcDb2dVertex
 10
154.848394
 20
232.767284
 30
0.0
  0
SEQEND
  5
3F9
100
AcDbEntity
  8
001
  0
POLYLINE
  5
3FA
100
AcDbEntity
  8
001
100
AcDb2dPolyline
 66
     1
 10
0.0
 20
0.0
 30
0.0
  0
VERTEX
  5
3FB
100
AcDbEntity
  8
001
100
AcDbVertex
100
AcDb2dVertex
 10
143.151606
 20
231.411352
 30
0.0
  0
VERTEX
  5
3FC
100
AcDbEntity
  8
001
100
AcDbVertex
100
AcDb2dVertex
 10
143.173861
 20
231.094349
 30
0.0
  0
VERTEX
  5
3FD
100
AcDbEntity
  8
001
100
AcDbVertex
100
AcDb2dVertex
 10
143.240456
 20
230.779759
 30
0.0
  0
VERTEX
  5
3FE
100
AcDbEntity
  8
001
100
AcDbVertex
100
AcDb2dVertex
 10
143.350885
 20
230.469976
 30
0.0
  0
VERTEX
  5
3FF
100
AcDbEntity
  8
001
100
AcDbVertex
100
AcDb2dVertex
 10
143.504307
 20
230.167357
 30
0.0
  0
VERTEX
  5
400
100
AcDbEntity
  8
001
100
AcDbVertex
100
AcDb2dVertex
 10
143.699555
 20
229.874205
 30
0.0
  0
VERTEX
  5
401
100
AcDbEntity
  8
001
100
AcDbVertex
100
AcDb2dVertex
 10
143.935142
 20
229.592752
 30
0.0
  0
VERTEX
  5
402
100
AcDbEntity
  8
001
100
AcDbVertex
100
AcDb2dVertex
 10
144.209276
 20
229.32514
 30
0.0
  0
VERTEX
  5
403
100
AcDbEntity
  8
001
100
AcDbVertex
100
AcDb2dVertex
 10
144.51987
 20
229.073405
 30
0.0
  0
VERTEX
  5
404
100
AcDbEntity
  8
001
100
AcDbVertex
100
AcDb2dVertex
 10
144.864561
 20
228.839464
 30
0.0
  0
VERTEX
  5
405
100
AcDbEntity
  8
001
100
AcDbVertex
100
AcDb2dVertex
 10
145.240725
 20
228.625096
 30
0.0
  0
VERTEX
  5
406
100
AcDbEntity
  8
001
100
AcDbVertex
100
AcDb2dVertex
 10
145.645499
 20
228.431933
 30
0.0
  0
VERTEX
  5
407
100
AcDbEntity
  8
001
100
AcDbVertex
100
AcDb2dVertex
 10
146.075803
 20
228.261445
 30
0.0
  0
VERTEX
  5
408
100
AcDbEntity
  8
001
100
AcDbVertex
100
AcDb2dVertex
 10
146.528362
 20
228.11493
 30
0.0
  0
VERTEX
  5
409
100
AcDbEntity
  8
001
100
AcDbVertex
100
AcDb2dVertex
 10
146.999731
 20
227.993503
 30
0.0
  0
VERTEX
  5
40A
100
AcDbEntity
  8
001
100
AcDbVertex
100
AcDb2dVertex
 10
147.486324
 20
227.898087
 30
0.0
  0
VERTEX
  5
40B
100
AcDbEntity
  8
001
100
AcDbVertex
100
AcDb2dVertex
 10
147.984437
 20
227.82941
 30
0.0
  0
VERTEX
  5
40C
100
AcDbEntity
  8
001
100
AcDbVertex
100
AcDb2dVertex
 10
148.490279
 20
227.787993
 30
0.0
  0
VERTEX
  5
40D
100
AcDbEntity
  8
001
100
AcDbVertex
100
AcDb2dVertex
 10
149.0
 20
227.774153
 30
0.0
  0
SEQEND
  5
40E
100
AcDbEntity
  8
001
  0
LINE
  5
40F
100
AcDbEntity
  8
001
100
AcDbLine
 10
155.183458
 20
244.954377
 30
0.0
 11
155.183458
 21
232.027892
 31
0.0
  0
POLYLINE
  5
410
100
AcDbEntity
  8
001
100
AcDb2dPolyline
 66
     1
 10
0.0
 20
0.0
 30
0.0
  0
VERTEX
  5
411
100
AcDbEntity
  8
001
100
AcDbVertex
100
AcDb2dVertex
 10
155.183458
 20
244.954377
 30
0.0
  0
VERTEX
  5
412
100
AcDbEntity
  8
001
100
AcDbVertex
100
AcDb2dVertex
 10
155.14452
 20
245.266745
 30
0.0
  0
VERTEX
  5
413
100
AcDbEntity
  8
001
100
AcDbVertex
100
AcDb2dVertex
 10
155.028222
 20
245.574955
 30
0.0
  0
VERTEX
  5
414
100
AcDbEntity
  8
001
100
AcDbVertex
100
AcDb2dVertex
 10
154.836115
 20
245.8749
 30
0.0
  0
SEQEND
  5
415
100
AcDbEntity
  8
001
  0
POLYLINE
  5
416
100
AcDbEntity
  8
001
100
AcDb2dPolyline
 66
     1
 10
0.0
 20
0.0
 30
0.0
  0
VERTEX
  5
417
100
AcDbEntity
  8
001
100
AcDbVertex
100
AcDb2dVertex
 10
149.335064
 20
227.025262
 30
0.0
  0
VERTEX
  5
418
100
AcDbEntity
  8
001
100
AcDbVertex
100
AcDb2dVertex
 10
149.844785
 20
227.044299
 30
0.0
  0
VERTEX
  5
419
100
AcDbEntity
  8
001
100
AcDbVertex
100
AcDb2dVertex
 10
150.350627
 20
227.101264
 30
0.0
  0
VERTEX
  5
41A
100
AcDbEntity
  8
001
100
AcDbVertex
100
AcDb2dVertex
 10
150.84874
 20
227.195723
 30
0.0
  0
VERTEX
  5
41B
100
AcDbEntity
  8
001
100
AcDbVertex
100
AcDb2dVertex
 10
151.335333
 20
227.326958
 30
0.0
  0
VERTEX
  5
41C
100
AcDbEntity
  8
001
100
AcDbVertex
100
AcDb2dVertex
 10
151.806702
 20
227.49397
 30
0.0
  0
VERTEX
  5
41D
100
AcDbEntity
  8
001
100
AcDbVertex
100
AcDb2dVertex
 10
152.259261
 20
227.695488
 30
0.0
  0
VERTEX
  5
41E
100
AcDbEntity
  8
001
100
AcDbVertex
100
AcDb2dVertex
 10
152.689565
 20
227.929978
 30
0.0
  0
VERTEX
  5
41F
100
AcDbEntity
  8
001
100
AcDbVertex
100
AcDb2dVertex
 10
153.094339
 20
228.195655
 30
0.0
  0
VERTEX
  5
420
100
AcDbEntity
  8
001
100
AcDbVertex
100
AcDb2dVertex
 10
153.470503
 20
228.490499
 30
0.0
  0
VERTEX
  5
421
100
AcDbEntity
  8
001
100
AcDbVertex
100
AcDb2dVertex
 10
153.815194
 20
228.812264
 30
0.0
  0
VERTEX
  5
422
100
AcDbEntity
  8
001
100
AcDbVertex
100
AcDb2dVertex
 10
154.125788
 20
229.158501
 30
0.0
  0
VERTEX
  5
423
100
AcDbEntity
  8
001
100
AcDbVertex
100
AcDb2dVertex
 10
154.399922
 20
229.526577
 30
0.0
  0
VERTEX
  5
424
100
AcDbEntity
  8
001
100
AcDbVertex
100
AcDb2dVertex
 10
154.635509
 20
229.913689
 30
0.0
  0
VERTEX
  5
425
100
AcDbEntity
  8
001
100
AcDbVertex
100
AcDb2dVertex
 10
154.830757
 20
230.316892
 30
0.0
  0
VERTEX
  5
426
100
AcDbEntity
  8
001
100
AcDbVertex
100
AcDb2dVertex
 10
154.984179
 20
230.733116
 30
0.0
  0
VERTEX
  5
427
100
AcDbEntity
  8
001
100
AcDbVertex
100
AcDb2dVertex
 10
155.094608
 20
231.159194
 30
0.0
  0
VERTEX
  5
428
100
AcDbEntity
  8
001
100
AcDbVertex
100
AcDb2dVertex
 10
155.161203
 20
231.591884
 30
0.0
  0
VERTEX
  5
429
100
AcDbEntity
  8
001
100
AcDbVertex
100
AcDb2dVertex
 10
155.183458
 20
232.027892
 30
0.0
  0
SEQEND
  5
42A
100
AcDbEntity
  8
001
  0
POLYLINE
  5
42B
100
AcDbEntity
  8
001
100
AcDb2dPolyline
 66
     1
 10
0.0
 20
0.0
 30
0.0
  0
VERTEX
  5
42C
100
AcDbEntity
  8
001
100
AcDbVertex
100
AcDb2dVertex
 10
143.568765
 20
230.062301
 30
0.0
  0
VERTEX
  5
42D
100
AcDbEntity
  8
001
100
AcDbVertex
100
AcDb2dVertex
 10
143.676438
 20
229.749834
 30
0.0
  0
VERTEX
  5
42E
100
AcDbEntity
  8
001
100
AcDbVertex
100
AcDb2dVertex
 10
143.827597
 20
229.444446
 30
0.0
  0
VERTEX
  5
42F
100
AcDbEntity
  8
001
100
AcDbVertex
100
AcDb2dVertex
 10
144.021078
 20
229.148484
 30
0.0
  0
VERTEX
  5
430
100
AcDbEntity
  8
001
100
AcDbVertex
100
AcDb2dVertex
 10
144.255396
 20
228.864222
 30
0.0
  0
VERTEX
  5
431
100
AcDbEntity
  8
001
100
AcDbVertex
100
AcDb2dVertex
 10
144.52875
 20
228.593845
 30
0.0
  0
VERTEX
  5
432
100
AcDbEntity
  8
001
100
AcDbVertex
100
AcDb2dVertex
 10
144.839038
 20
228.33943
 30
0.0
  0
VERTEX
  5
433
100
AcDbEntity
  8
001
100
AcDbVertex
100
AcDb2dVertex
 10
145.183877
 20
228.102932
 30
0.0
  0
VERTEX
  5
434
100
AcDbEntity
  8
001
100
AcDbVertex
100
AcDb2dVertex
 10
145.560616
 20
227.886169
 30
0.0
  0
VERTEX
  5
435
100
AcDbEntity
  8
001
100
AcDbVertex
100
AcDb2dVertex
 10
145.966361
 20
227.690807
 30
0.0
  0
VERTEX
  5
436
100
AcDbEntity
  8
001
100
AcDbVertex
100
AcDb2dVertex
 10
146.397994
 20
227.518347
 30
0.0
  0
VERTEX
  5
437
100
AcDbEntity
  8
001
100
AcDbVertex
100
AcDb2dVertex
 10
146.852197
 20
227.370114
 30
0.0
  0
VERTEX
  5
438
100
AcDbEntity
  8
001
100
AcDbVertex
100
AcDb2dVertex
 10
147.325479
 20
227.247247
 30
0.0
  0
VERTEX
  5
439
100
AcDbEntity
  8
001
100
AcDbVertex
100
AcDb2dVertex
 10
147.814205
 20
227.150691
 30
0.0
  0
VERTEX
  5
43A
100
AcDbEntity
  8
001
100
AcDbVertex
100
AcDb2dVertex
 10
148.314618
 20
227.081188
 30
0.0
  0
VERTEX
  5
43B
100
AcDbEntity
  8
001
100
AcDbVertex
100
AcDb2dVertex
 10
148.822873
 20
227.039271
 30
0.0
  0
VERTEX
  5
43C
100
AcDbEntity
  8
001
100
AcDbVertex
100
AcDb2dVertex
 10
149.335064
 20
227.025262
 30
0.0
  0
SEQEND
  5
43D
100
AcDbEntity
  8
001
  0
LINE
  5
43E
100
AcDbEntity
  8
001
100
AcDbLine
 10
574.848394
 20
763.858983
 30
0.0
 11
574.848394
 21
771.319946
 31
0.0
  0
LINE
  5
43F
100
AcDbEntity
  8
001
100
AcDbLine
 10
563.151606
 20
766.212023
 30
0.0
 11
563.151606
 21
773.677483
 31
0.0
  0
POLYLINE
  5
440
100
AcDbEntity
  8
001
100
AcDb2dPolyline
 66
     1
 10
0.0
 20
0.0
 30
0.0
  0
VERTEX
  5
441
100
AcDbEntity
  8
001
100
AcDbVertex
100
AcDb2dVertex
 10
563.151606
 20
766.212023
 30
0.0
  0
VERTEX
  5
442
100
AcDbEntity
  8
001
100
AcDbVertex
100
AcDb2dVertex
 10
563.173861
 20
765.829208
 30
0.0
  0
VERTEX
  5
443
100
AcDbEntity
  8
001
100
AcDbVertex
100
AcDb2dVertex
 10
563.240456
 20
765.449308
 30
0.0
  0
VERTEX
  5
444
100
AcDbEntity
  8
001
100
AcDbVertex
100
AcDb2dVertex
 10
563.350885
 20
765.075212
 30
0.0
  0
VERTEX
  5
445
100
AcDbEntity
  8
001
100
AcDbVertex
100
AcDb2dVertex
 10
563.504307
 20
764.709767
 30
0.0
  0
VERTEX
  5
446
100
AcDbEntity
  8
001
100
AcDbVertex
100
AcDb2dVertex
 10
563.699555
 20
764.355756
 30
0.0
  0
VERTEX
  5
447
100
AcDbEntity
  8
001
100
AcDbVertex
100
AcDb2dVertex
 10
563.935142
 20
764.015872
 30
0.0
  0
VERTEX
  5
448
100
AcDbEntity
  8
001
100
AcDbVertex
100
AcDb2dVertex
 10
564.209276
 20
763.692702
 30
0.0
  0
VERTEX
  5
449
100
AcDbEntity
  8
001
100
AcDbVertex
100
AcDb2dVertex
 10
564.51987
 20
763.388706
 30
0.0
  0
VERTEX
  5
44A
100
AcDbEntity
  8
001
100
AcDbVertex
100
AcDb2dVertex
 10
564.864561
 20
763.106197
 30
0.0
  0
VERTEX
  5
44B
100
AcDbEntity
  8
001
100
AcDbVertex
100
AcDb2dVertex
 10
565.240725
 20
762.847325
 30
0.0
  0
VERTEX
  5
44C
100
AcDbEntity
  8
001
100
AcDbVertex
100
AcDb2dVertex
 10
565.645499
 20
762.61406
 30
0.0
  0
VERTEX
  5
44D
100
AcDbEntity
  8
001
100
AcDbVertex
100
AcDb2dVertex
 10
566.075803
 20
762.408178
 30
0.0
  0
VERTEX
  5
44E
100
AcDbEntity
  8
001
100
AcDbVertex
100
AcDb2dVertex
 10
566.528362
 20
762.231246
 30
0.0
  0
VERTEX
  5
44F
100
AcDbEntity
  8
001
100
AcDbVertex
100
AcDb2dVertex
 10
566.999731
 20
762.08461
 30
0.0
  0
VERTEX
  5
450
100
AcDbEntity
  8
001
100
AcDbVertex
100
AcDb2dVertex
 10
567.486324
 20
761.969386
 30
0.0
  0
VERTEX
  5
451
100
AcDbEntity
  8
001
100
AcDbVertex
100
AcDb2dVertex
 10
567.984437
 20
761.88645
 30
0.0
  0
VERTEX
  5
452
100
AcDbEntity
  8
001
100
AcDbVertex
100
AcDb2dVertex
 10
568.490279
 20
761.836435
 30
0.0
  0
VERTEX
  5
453
100
AcDbEntity
  8
001
100
AcDbVertex
100
AcDb2dVertex
 10
569.0
 20
761.819721
 30
0.0
  0
SEQEND
  5
454
100
AcDbEntity
  8
001
  0
POLYLINE
  5
455
100
AcDbEntity
  8
001
100
AcDb2dPolyline
 66
     1
 10
0.0
 20
0.0
 30
0.0
  0
VERTEX
  5
456
100
AcDbEntity
  8
001
100
AcDbVertex
100
AcDb2dVertex
 10
574.848394
 20
771.319946
 30
0.0
  0
VERTEX
  5
457
100
AcDbEntity
  8
001
100
AcDbVertex
100
AcDb2dVertex
 10
574.826139
 20
771.580917
 30
0.0
  0
VERTEX
  5
458
100
AcDbEntity
  8
001
100
AcDbVertex
100
AcDb2dVertex
 10
574.759544
 20
771.839903
 30
0.0
  0
VERTEX
  5
459
100
AcDbEntity
  8
001
100
AcDbVertex
100
AcDb2dVertex
 10
574.649115
 20
772.094931
 30
0.0
  0
VERTEX
  5
45A
100
AcDbEntity
  8
001
100
AcDbVertex
100
AcDb2dVertex
 10
574.495693
 20
772.344062
 30
0.0
  0
VERTEX
  5
45B
100
AcDbEntity
  8
001
100
AcDbVertex
100
AcDb2dVertex
 10
574.300445
 20
772.585398
 30
0.0
  0
VERTEX
  5
45C
100
AcDbEntity
  8
001
100
AcDbVertex
100
AcDb2dVertex
 10
574.064858
 20
772.817103
 30
0.0
  0
VERTEX
  5
45D
100
AcDbEntity
  8
001
100
AcDbVertex
100
AcDb2dVertex
 10
573.790724
 20
773.037414
 30
0.0
  0
VERTEX
  5
45E
100
AcDbEntity
  8
001
100
AcDbVertex
100
AcDb2dVertex
 10
573.48013
 20
773.244654
 30
0.0
  0
VERTEX
  5
45F
100
AcDbEntity
  8
001
100
AcDbVertex
100
AcDb2dVertex
 10
573.135439
 20
773.437246
 30
0.0
  0
VERTEX
  5
460
100
AcDbEntity
  8
001
100
AcDbVertex
100
AcDb2dVertex
 10
572.759275
 20
773.613724
 30
0.0
  0
VERTEX
  5
461
100
AcDbEntity
  8
001
100
AcDbVertex
100
AcDb2dVertex
 10
572.354501
 20
773.772745
 30
0.0
  0
VERTEX
  5
462
100
AcDbEntity
  8
001
100
AcDbVertex
100
AcDb2dVertex
 10
571.924197
 20
773.913099
 30
0.0
  0
VERTEX
  5
463
100
AcDbEntity
  8
001
100
AcDbVertex
100
AcDb2dVertex
 10
571.471638
 20
774.033717
 30
0.0
  0
VERTEX
  5
464
100
AcDbEntity
  8
001
100
AcDbVertex
100
AcDb2dVertex
 10
571.000269
 20
774.133682
 30
0.0
  0
VERTEX
  5
465
100
AcDbEntity
  8
001
100
AcDbVertex
100
AcDb2dVertex
 10
570.513676
 20
774.212232
 30
0.0
  0
VERTEX
  5
466
100
AcDbEntity
  8
001
100
AcDbVertex
100
AcDb2dVertex
 10
570.015563
 20
774.26877
 30
0.0
  0
VERTEX
  5
467
100
AcDbEntity
  8
001
100
AcDbVertex
100
AcDb2dVertex
 10
569.509721
 20
774.302867
 30
0.0
  0
VERTEX
  5
468
100
AcDbEntity
  8
001
100
AcDbVertex
100
AcDb2dVertex
 10
569.0
 20
774.314261
 30
0.0
  0
SEQEND
  5
469
100
AcDbEntity
  8
001
  0
LINE
  5
46A
100
AcDbEntity
  8
001
100
AcDbLine
 10
562.816542
 20
764.929008
 30
0.0
 11
562.816542
 21
772.392117
 31
0.0
  0
POLYLINE
  5
46B
100
AcDbEntity
  8
001
100
AcDb2dPolyline
 66
     1
 10
0.0
 20
0.0
 30
0.0
  0
VERTEX
  5
46C
100
AcDbEntity
  8
001
100
AcDbVertex
100
AcDb2dVertex
 10
562.816542
 20
764.929008
 30
0.0
  0
VERTEX
  5
46D
100
AcDbEntity
  8
001
100
AcDbVertex
100
AcDb2dVertex
 10
562.838797
 20
764.544193
 30
0.0
  0
VERTEX
  5
46E
100
AcDbEntity
  8
001
100
AcDbVertex
100
AcDb2dVertex
 10
562.905392
 20
764.162307
 30
0.0
  0
VERTEX
  5
46F
100
AcDbEntity
  8
001
100
AcDbVertex
100
AcDb2dVertex
 10
563.015821
 20
763.786257
 30
0.0
  0
VERTEX
  5
470
100
AcDbEntity
  8
001
100
AcDbVertex
100
AcDb2dVertex
 10
563.169243
 20
763.418903
 30
0.0
  0
VERTEX
  5
471
100
AcDbEntity
  8
001
100
AcDbVertex
100
AcDb2dVertex
 10
563.364491
 20
763.063042
 30
0.0
  0
VERTEX
  5
472
100
AcDbEntity
  8
001
100
AcDbVertex
100
AcDb2dVertex
 10
563.600078
 20
762.721382
 30
0.0
  0
VERTEX
  5
473
100
AcDbEntity
  8
001
100
AcDbVertex
100
AcDb2dVertex
 10
563.874212
 20
762.396524
 30
0.0
  0
VERTEX
  5
474
100
AcDbEntity
  8
001
100
AcDbVertex
100
AcDb2dVertex
 10
564.184806
 20
762.090939
 30
0.0
  0
VERTEX
  5
475
100
AcDbEntity
  8
001
100
AcDbVertex
100
AcDb2dVertex
 10
564.529497
 20
761.806954
 30
0.0
  0
VERTEX
  5
476
100
AcDbEntity
  8
001
100
AcDbVertex
100
AcDb2dVertex
 10
564.905661
 20
761.546729
 30
0.0
  0
VERTEX
  5
477
100
AcDbEntity
  8
001
100
AcDbVertex
100
AcDb2dVertex
 10
565.310435
 20
761.312246
 30
0.0
  0
VERTEX
  5
478
100
AcDbEntity
  8
001
100
AcDbVertex
100
AcDb2dVertex
 10
565.740739
 20
761.105288
 30
0.0
  0
VERTEX
  5
479
100
AcDbEntity
  8
001
100
AcDbVertex
100
AcDb2dVertex
 10
566.193298
 20
760.927431
 30
0.0
  0
VERTEX
  5
47A
100
AcDbEntity
  8
001
100
AcDbVertex
100
AcDb2dVertex
 10
566.664667
 20
760.780029
 30
0.0
  0
VERTEX
  5
47B
100
AcDbEntity
  8
001
100
AcDbVertex
100
AcDb2dVertex
 10
567.15126
 20
760.664203
 30
0.0
  0
VERTEX
  5
47C
100
AcDbEntity
  8
001
100
AcDbVertex
100
AcDb2dVertex
 10
567.649373
 20
760.580834
 30
0.0
  0
VERTEX
  5
47D
100
AcDbEntity
  8
001
100
AcDbVertex
100
AcDb2dVertex
 10
568.155215
 20
760.530558
 30
0.0
  0
VERTEX
  5
47E
100
AcDbEntity
  8
001
100
AcDbVertex
100
AcDb2dVertex
 10
568.664936
 20
760.513757
 30
0.0
  0
SEQEND
  5
47F
100
AcDbEntity
  8
001
  0
POLYLINE
  5
480
100
AcDbEntity
  8
001
100
AcDb2dPolyline
 66
     1
 10
0.0
 20
0.0
 30
0.0
  0
VERTEX
  5
481
100
AcDbEntity
  8
001
100
AcDbVertex
100
AcDb2dVertex
 10
569.0
 20
761.819721
 30
0.0
  0
VERTEX
  5
482
100
AcDbEntity
  8
001
100
AcDbVertex
100
AcDb2dVertex
 10
569.509721
 20
761.827481
 30
0.0
  0
VERTEX
  5
483
100
AcDbEntity
  8
001
100
AcDbVertex
100
AcDb2dVertex
 10
570.015563
 20
761.850702
 30
0.0
  0
VERTEX
  5
484
100
AcDbEntity
  8
001
100
AcDbVertex
100
AcDb2dVertex
 10
570.513676
 20
761.889208
 30
0.0
  0
VERTEX
  5
485
100
AcDbEntity
  8
001
100
AcDbVertex
100
AcDb2dVertex
 10
571.000269
 20
761.942704
 30
0.0
  0
VERTEX
  5
486
100
AcDbEntity
  8
001
100
AcDbVertex
100
AcDb2dVertex
 10
571.471638
 20
762.010784
 30
0.0
  0
VERTEX
  5
487
100
AcDbEntity
  8
001
100
AcDbVertex
100
AcDb2dVertex
 10
571.924197
 20
762.092931
 30
0.0
  0
VERTEX
  5
488
100
AcDbEntity
  8
001
100
AcDbVertex
100
AcDb2dVertex
 10
572.354501
 20
762.188518
 30
0.0
  0
VERTEX
  5
489
100
AcDbEntity
  8
001
100
AcDbVertex
100
AcDb2dVertex
 10
572.759275
 20
762.296818
 30
0.0
  0
VERTEX
  5
48A
100
AcDbEntity
  8
001
100
AcDbVertex
100
AcDb2dVertex
 10
573.135439
 20
762.417007
 30
0.0
  0
VERTEX
  5
48B
100
AcDbEntity
  8
001
100
AcDbVertex
100
AcDb2dVertex
 10
573.48013
 20
762.548171
 30
0.0
  0
VERTEX
  5
48C
100
AcDbEntity
  8
001
100
AcDbVertex
100
AcDb2dVertex
 10
573.790724
 20
762.689311
 30
0.0
  0
VERTEX
  5
48D
100
AcDbEntity
  8
001
100
AcDbVertex
100
AcDb2dVertex
 10
574.064858
 20
762.839352
 30
0.0
  0
VERTEX
  5
48E
100
AcDbEntity
  8
001
100
AcDbVertex
100
AcDb2dVertex
 10
574.300445
 20
762.997154
 30
0.0
  0
VERTEX
  5
48F
100
AcDbEntity
  8
001
100
AcDbVertex
100
AcDb2dVertex
 10
574.495693
 20
763.161514
 30
0.0
  0
VERTEX
  5
490
100
AcDbEntity
  8
001
100
AcDbVertex
100
AcDb2dVertex
 10
574.649115
 20
763.331183
 30
0.0
  0
VERTEX
  5
491
100
AcDbEntity
  8
001
100
AcDbVertex
100
AcDb2dVertex
 10
574.759544
 20
763.504869
 30
0.0
  0
VERTEX
  5
492
100
AcDbEntity
  8
001
100
AcDbVertex
100
AcDb2dVertex
 10
574.826139
 20
763.681249
 30
0.0
  0
VERTEX
  5
493
100
AcDbEntity
  8
001
100
AcDbVertex
100
AcDb2dVertex
 10
574.848394
 20
763.858983
 30
0.0
  0
SEQEND
  5
494
100
AcDbEntity
  8
001
  0
POLYLINE
  5
495
100
AcDbEntity
  8
001
100
AcDb2dPolyline
 66
     1
 10
0.0
 20
0.0
 30
0.0
  0
VERTEX
  5
496
100
AcDbEntity
  8
001
100
AcDbVertex
100
AcDb2dVertex
 10
568.664936
 20
760.513757
 30
0.0
  0
VERTEX
  5
497
100
AcDbEntity
  8
001
100
AcDbVertex
100
AcDb2dVertex
 10
569.204904
 20
760.522556
 30
0.0
  0
VERTEX
  5
498
100
AcDbEntity
  8
001
100
AcDbVertex
100
AcDb2dVertex
 10
569.740259
 20
760.548879
 30
0.0
  0
VERTEX
  5
499
100
AcDbEntity
  8
001
100
AcDbVertex
100
AcDb2dVertex
 10
570.266429
 20
760.5925
 30
0.0
  0
VERTEX
  5
49A
100
AcDbEntity
  8
001
100
AcDbVertex
100
AcDb2dVertex
 10
570.778917
 20
760.653047
 30
0.0
  0
VERTEX
  5
49B
100
AcDbEntity
  8
001
100
AcDbVertex
100
AcDb2dVertex
 10
571.273347
 20
760.730002
 30
0.0
  0
VERTEX
  5
49C
100
AcDbEntity
  8
001
100
AcDbVertex
100
AcDb2dVertex
 10
571.745493
 20
760.822709
 30
0.0
  0
VERTEX
  5
49D
100
AcDbEntity
  8
001
100
AcDbVertex
100
AcDb2dVertex
 10
572.191324
 20
760.930375
 30
0.0
  0
VERTEX
  5
49E
100
AcDbEntity
  8
001
100
AcDbVertex
100
AcDb2dVertex
 10
572.60703
 20
761.052081
 30
0.0
  0
VERTEX
  5
49F
100
AcDbEntity
  8
001
100
AcDbVertex
100
AcDb2dVertex
 10
572.98906
 20
761.186787
 30
0.0
  0
VERTEX
  5
4A0
100
AcDbEntity
  8
001
100
AcDbVertex
100
AcDb2dVertex
 10
573.334151
 20
761.333341
 30
0.0
  0
VERTEX
  5
4A1
100
AcDbEntity
  8
001
100
AcDbVertex
100
AcDb2dVertex
 10
573.639354
 20
761.490493
 30
0.0
  0
VERTEX
  5
4A2
100
AcDbEntity
  8
001
100
AcDbVertex
100
AcDb2dVertex
 10
573.902063
 20
761.656899
 30
0.0
  0
VERTEX
  5
4A3
100
AcDbEntity
  8
001
100
AcDbVertex
100
AcDb2dVertex
 10
574.120033
 20
761.831139
 30
0.0
  0
VERTEX
  5
4A4
100
AcDbEntity
  8
001
100
AcDbVertex
100
AcDb2dVertex
 10
574.291402
 20
762.011723
 30
0.0
  0
VERTEX
  5
4A5
100
AcDbEntity
  8
001
100
AcDbVertex
100
AcDb2dVertex
 10
574.414706
 20
762.197109
 30
0.0
  0
VERTEX
  5
4A6
100
AcDbEntity
  8
001
100
AcDbVertex
100
AcDb2dVertex
 10
574.488893
 20
762.385713
 30
0.0
  0
SEQEND
  5
4A7
100
AcDbEntity
  8
001
  0
POLYLINE
  5
4A8
100
AcDbEntity
  8
001
100
AcDb2dPolyline
 66
     1
 10
0.0
 20
0.0
 30
0.0
  0
VERTEX
  5
4A9
100
AcDbEntity
  8
001
100
AcDbVertex
100
AcDb2dVertex
 10
562.818715
 20
772.408799
 30
0.0
  0
VERTEX
  5
4AA
100
AcDbEntity
  8
001
100
AcDbVertex
100
AcDb2dVertex
 10
562.816542
 20
772.392117
 30
0.0
  0
SEQEND
  5
4AB
100
AcDbEntity
  8
001
  0
POLYLINE
  5
4AC
100
AcDbEntity
  8
001
100
AcDb2dPolyline
 66
     1
 10
0.0
 20
0.0
 30
0.0
  0
VERTEX
  5
4AD
100
AcDbEntity
  8
001
100
AcDbVertex
100
AcDb2dVertex
 10
569.0
 20
774.314261
 30
0.0
  0
VERTEX
  5
4AE
100
AcDbEntity
  8
001
100
AcDbVertex
100
AcDb2dVertex
 10
568.460378
 20
774.311544
 30
0.0
  0
VERTEX
  5
4AF
100
AcDbEntity
  8
001
100
AcDbVertex
100
AcDb2dVertex
 10
567.92536
 20
774.303418
 30
0.0
  0
VERTEX
  5
4B0
100
AcDbEntity
  8
001
100
AcDbVertex
100
AcDb2dVertex
 10
567.399511
 20
774.289952
 30
0.0
  0
VERTEX
  5
4B1
100
AcDbEntity
  8
001
100
AcDbVertex
100
AcDb2dVertex
 10
566.887316
 20
774.271261
 30
0.0
  0
VERTEX
  5
4B2
100
AcDbEntity
  8
001
100
AcDbVertex
100
AcDb2dVertex
 10
566.393147
 20
774.247503
 30
0.0
  0
VERTEX
  5
4B3
100
AcDbEntity
  8
001
100
AcDbVertex
100
AcDb2dVertex
 10
565.921217
 20
774.218882
 30
0.0
  0
VERTEX
  5
4B4
100
AcDbEntity
  8
001
100
AcDbVertex
100
AcDb2dVertex
 10
565.475555
 20
774.185643
 30
0.0
  0
VERTEX
  5
4B5
100
AcDbEntity
  8
001
100
AcDbVertex
100
AcDb2dVertex
 10
565.059962
 20
774.148067
 30
0.0
  0
VERTEX
  5
4B6
100
AcDbEntity
  8
001
100
AcDbVertex
100
AcDb2dVertex
 10
564.677985
 20
774.106477
 30
0.0
  0
VERTEX
  5
4B7
100
AcDbEntity
  8
001
100
AcDbVertex
100
AcDb2dVertex
 10
564.332881
 20
774.061227
 30
0.0
  0
VERTEX
  5
4B8
100
AcDbEntity
  8
001
100
AcDbVertex
100
AcDb2dVertex
 10
564.027595
 20
774.012703
 30
0.0
  0
VERTEX
  5
4B9
100
AcDbEntity
  8
001
100
AcDbVertex
100
AcDb2dVertex
 10
563.764732
 20
773.961319
 30
0.0
  0
VERTEX
  5
4BA
100
AcDbEntity
  8
001
100
AcDbVertex
100
AcDb2dVertex
 10
563.546535
 20
773.907514
 30
0.0
  0
VERTEX
  5
4BB
100
AcDbEntity
  8
001
100
AcDbVertex
100
AcDb2dVertex
 10
563.374865
 20
773.851746
 30
0.0
  0
VERTEX
  5
4BC
100
AcDbEntity
  8
001
100
AcDbVertex
100
AcDb2dVertex
 10
563.251186
 20
773.794491
 30
0.0
  0
VERTEX
  5
4BD
100
AcDbEntity
  8
001
100
AcDbVertex
100
AcDb2dVertex
 10
563.176554
 20
773.736237
 30
0.0
  0
VERTEX
  5
4BE
100
AcDbEntity
  8
001
100
AcDbVertex
100
AcDb2dVertex
 10
563.151606
 20
773.677483
 30
0.0
  0
SEQEND
  5
4BF
100
AcDbEntity
  8
001
  0
LINE
  5
4C0
100
AcDbEntity
  8
001
100
AcDbLine
 10
563.153958
 20
773.695539
 30
0.0
 11
562.818715
 21
772.408799
 31
0.0
  0
LINE
  5
4C1
100
AcDbEntity
  8
001
100
AcDbLine
 10
574.824445
 20
763.674623
 30
0.0
 11
574.488893
 21
762.385713
 31
0.0
  0
LINE
  5
4C2
100
AcDbEntity
  8
001
100
AcDbLine
 10
559.0
 20
775.936826
 30
0.0
 11
566.375729
 21
774.246555
 31
0.0
  0
LINE
  5
4C3
100
AcDbEntity
  8
001
100
AcDbLine
 10
574.459122
 20
772.394111
 30
0.0
 11
580.670128
 21
770.970755
 31
0.0
  0
ARC
  5
4C4
100
AcDbEntity
  8
001
100
AcDbCircle
 10
818.0
 20
217.0
 30
0.0
 40
44.5
100
AcDbArc
 50
336.792822
 51
15.555549
  0
ARC
  5
4C5
100
AcDbEntity
  8
001
100
AcDbCircle
 10
818.0
 20
217.0
 30
0.0
 40
44.5
100
AcDbArc
 50
44.444451
 51
83.207178
  0
POLYLINE
  5
4C6
100
AcDbEntity
  8
001
100
AcDb2dPolyline
 66
     1
 10
0.0
 20
0.0
 30
0.0
  0
VERTEX
  5
4C7
100
AcDbEntity
  8
001
100
AcDbVertex
100
AcDb2dVertex
 10
852.775197
 20
245.69784
 30
0.0
  0
VERTEX
  5
4C8
100
AcDbEntity
  8
001
100
AcDbVertex
100
AcDb2dVertex
 10
852.470529
 20
246.018872
 30
0.0
  0
VERTEX
  5
4C9
100
AcDbEntity
  8
001
100
AcDbVertex
100
AcDb2dVertex
 10
852.160154
 20
246.329482
 30
0.0
  0
VERTEX
  5
4CA
100
AcDbEntity
  8
001
100
AcDbVertex
100
AcDb2dVertex
 10
851.846722
 20
246.627021
 30
0.0
  0
VERTEX
  5
4CB
100
AcDbEntity
  8
001
100
AcDbVertex
100
AcDb2dVertex
 10
851.532906
 20
246.90895
 30
0.0
  0
VERTEX
  5
4CC
100
AcDbEntity
  8
001
100
AcDbVertex
100
AcDb2dVertex
 10
851.221383
 20
247.172863
 30
0.0
  0
VERTEX
  5
4CD
100
AcDbEntity
  8
001
100
AcDbVertex
100
AcDb2dVertex
 10
850.914812
 20
247.416509
 30
0.0
  0
VERTEX
  5
4CE
100
AcDbEntity
  8
001
100
AcDbVertex
100
AcDb2dVertex
 10
850.615808
 20
247.63781
 30
0.0
  0
VERTEX
  5
4CF
100
AcDbEntity
  8
001
100
AcDbVertex
100
AcDb2dVertex
 10
850.326921
 20
247.834877
 30
0.0
  0
VERTEX
  5
4D0
100
AcDbEntity
  8
001
100
AcDbVertex
100
AcDb2dVertex
 10
850.050617
 20
248.006029
 30
0.0
  0
VERTEX
  5
4D1
100
AcDbEntity
  8
001
100
AcDbVertex
100
AcDb2dVertex
 10
849.789253
 20
248.149806
 30
0.0
  0
VERTEX
  5
4D2
100
AcDbEntity
  8
001
100
AcDbVertex
100
AcDb2dVertex
 10
849.545059
 20
248.26498
 30
0.0
  0
VERTEX
  5
4D3
100
AcDbEntity
  8
001
100
AcDbVertex
100
AcDb2dVertex
 10
849.320117
 20
248.350571
 30
0.0
  0
VERTEX
  5
4D4
100
AcDbEntity
  8
001
100
AcDbVertex
100
AcDb2dVertex
 10
849.116348
 20
248.405846
 30
0.0
  0
VERTEX
  5
4D5
100
AcDbEntity
  8
001
100
AcDbVertex
100
AcDb2dVertex
 10
848.93549
 20
248.430335
 30
0.0
  0
VERTEX
  5
4D6
100
AcDbEntity
  8
001
100
AcDbVertex
100
AcDb2dVertex
 10
848.779085
 20
248.423829
 30
0.0
  0
VERTEX
  5
4D7
100
AcDbEntity
  8
001
100
AcDbVertex
100
AcDb2dVertex
 10
848.648469
 20
248.386383
 30
0.0
  0
VERTEX
  5
4D8
100
AcDbEntity
  8
001
100
AcDbVertex
100
AcDb2dVertex
 10
848.544755
 20
248.318317
 30
0.0
  0
SEQEND
  5
4D9
100
AcDbEntity
  8
001
  0
POLYLINE
  5
4DA
100
AcDbEntity
  8
001
100
AcDb2dPolyline
 66
     1
 10
0.0
 20
0.0
 30
0.0
  0
VERTEX
  5
4DB
100
AcDbEntity
  8
001
100
AcDbVertex
100
AcDb2dVertex
 10
848.544755
 20
248.318317
 30
0.0
  0
VERTEX
  5
4DC
100
AcDbEntity
  8
001
100
AcDbVertex
100
AcDb2dVertex
 10
848.470686
 20
248.228032
 30
0.0
  0
VERTEX
  5
4DD
100
AcDbEntity
  8
001
100
AcDbVertex
100
AcDb2dVertex
 10
848.418885
 20
248.114972
 30
0.0
  0
VERTEX
  5
4DE
100
AcDbEntity
  8
001
100
AcDbVertex
100
AcDb2dVertex
 10
848.389745
 20
247.979996
 30
0.0
  0
VERTEX
  5
4DF
100
AcDbEntity
  8
001
100
AcDbVertex
100
AcDb2dVertex
 10
848.383488
 20
247.824132
 30
0.0
  0
VERTEX
  5
4E0
100
AcDbEntity
  8
001
100
AcDbVertex
100
AcDb2dVertex
 10
848.400162
 20
247.648567
 30
0.0
  0
VERTEX
  5
4E1
100
AcDbEntity
  8
001
100
AcDbVertex
100
AcDb2dVertex
 10
848.439641
 20
247.454636
 30
0.0
  0
VERTEX
  5
4E2
100
AcDbEntity
  8
001
100
AcDbVertex
100
AcDb2dVertex
 10
848.501623
 20
247.243816
 30
0.0
  0
VERTEX
  5
4E3
100
AcDbEntity
  8
001
100
AcDbVertex
100
AcDb2dVertex
 10
848.585636
 20
247.017711
 30
0.0
  0
VERTEX
  5
4E4
100
AcDbEntity
  8
001
100
AcDbVertex
100
AcDb2dVertex
 10
848.691043
 20
246.778041
 30
0.0
  0
VERTEX
  5
4E5
100
AcDbEntity
  8
001
100
AcDbVertex
100
AcDb2dVertex
 10
848.817039
 20
246.526631
 30
0.0
  0
VERTEX
  5
4E6
100
AcDbEntity
  8
001
100
AcDbVertex
100
AcDb2dVertex
 10
848.962667
 20
246.265394
 30
0.0
  0
VERTEX
  5
4E7
100
AcDbEntity
  8
001
100
AcDbVertex
100
AcDb2dVertex
 10
849.126818
 20
245.996319
 30
0.0
  0
VERTEX
  5
4E8
100
AcDbEntity
  8
001
100
AcDbVertex
100
AcDb2dVertex
 10
849.308242
 20
245.721452
 30
0.0
  0
VERTEX
  5
4E9
100
AcDbEntity
  8
001
100
AcDbVertex
100
AcDb2dVertex
 10
849.50556
 20
245.442887
 30
0.0
  0
VERTEX
  5
4EA
100
AcDbEntity
  8
001
100
AcDbVertex
100
AcDb2dVertex
 10
849.717268
 20
245.162742
 30
0.0
  0
VERTEX
  5
4EB
100
AcDbEntity
  8
001
100
AcDbVertex
100
AcDb2dVertex
 10
849.941757
 20
244.883151
 30
0.0
  0
VERTEX
  5
4EC
100
AcDbEntity
  8
001
100
AcDbVertex
100
AcDb2dVertex
 10
850.177318
 20
244.606241
 30
0.0
  0
VERTEX
  5
4ED
100
AcDbEntity
  8
001
100
AcDbVertex
100
AcDb2dVertex
 10
850.422157
 20
244.334119
 30
0.0
  0
SEQEND
  5
4EE
100
AcDbEntity
  8
001
  0
ARC
  5
4EF
100
AcDbEntity
  8
001
100
AcDbCircle
 10
818.0
 20
217.0
 30
0.0
 40
45.087474
100
AcDbArc
 50
20.46923
 51
39.53077
  0
ARC
  5
4F0
100
AcDbEntity
  8
001
100
AcDbCircle
 10
818.0
 20
217.0
 30
0.0
 40
42.40696
100
AcDbArc
 50
19.866797
 51
40.133203
  0
POLYLINE
  5
4F1
100
AcDbEntity
  8
001
100
AcDb2dPolyline
 66
     1
 10
0.0
 20
0.0
 30
0.0
  0
VERTEX
  5
4F2
100
AcDbEntity
  8
001
100
AcDbVertex
100
AcDb2dVertex
 10
860.394836
 20
227.793375
 30
0.0
  0
VERTEX
  5
4F3
100
AcDbEntity
  8
001
100
AcDbVertex
100
AcDb2dVertex
 10
860.50564
 20
227.849161
 30
0.0
  0
VERTEX
  5
4F4
100
AcDbEntity
  8
001
100
AcDbVertex
100
AcDb2dVertex
 10
860.603377
 20
227.943555
 30
0.0
  0
VERTEX
  5
4F5
100
AcDbEntity
  8
001
100
AcDbVertex
100
AcDb2dVertex
 10
860.687214
 20
228.075753
 30
0.0
  0
VERTEX
  5
4F6
100
AcDbEntity
  8
001
100
AcDbVertex
100
AcDb2dVertex
 10
860.756435
 20
228.244625
 30
0.0
  0
VERTEX
  5
4F7
100
AcDbEntity
  8
001
100
AcDbVertex
100
AcDb2dVertex
 10
860.810449
 20
228.448732
 30
0.0
  0
VERTEX
  5
4F8
100
AcDbEntity
  8
001
100
AcDbVertex
100
AcDb2dVertex
 10
860.848797
 20
228.686332
 30
0.0
  0
VERTEX
  5
4F9
100
AcDbEntity
  8
001
100
AcDbVertex
100
AcDb2dVertex
 10
860.87115
 20
228.955398
 30
0.0
  0
VERTEX
  5
4FA
100
AcDbEntity
  8
001
100
AcDbVertex
100
AcDb2dVertex
 10
860.877317
 20
229.253634
 30
0.0
  0
VERTEX
  5
4FB
100
AcDbEntity
  8
001
100
AcDbVertex
100
AcDb2dVertex
 10
860.867247
 20
229.578497
 30
0.0
  0
VERTEX
  5
4FC
100
AcDbEntity
  8
001
100
AcDbVertex
100
AcDb2dVertex
 10
860.841026
 20
229.927213
 30
0.0
  0
VERTEX
  5
4FD
100
AcDbEntity
  8
001
100
AcDbVertex
100
AcDb2dVertex
 10
860.798876
 20
230.296809
 30
0.0
  0
VERTEX
  5
4FE
100
AcDbEntity
  8
001
100
AcDbVertex
100
AcDb2dVertex
 10
860.741158
 20
230.684131
 30
0.0
  0
VERTEX
  5
4FF
100
AcDbEntity
  8
001
100
AcDbVertex
100
AcDb2dVertex
 10
860.668363
 20
231.085874
 30
0.0
  0
VERTEX
  5
500
100
AcDbEntity
  8
001
100
AcDbVertex
100
AcDb2dVertex
 10
860.581114
 20
231.498611
 30
0.0
  0
VERTEX
  5
501
100
AcDbEntity
  8
001
100
AcDbVertex
100
AcDb2dVertex
 10
860.480154
 20
231.91882
 30
0.0
  0
VERTEX
  5
502
100
AcDbEntity
  8
001
100
AcDbVertex
100
AcDb2dVertex
 10
860.366345
 20
232.342917
 30
0.0
  0
VERTEX
  5
503
100
AcDbEntity
  8
001
100
AcDbVertex
100
AcDb2dVertex
 10
860.240657
 20
232.767284
 30
0.0
  0
SEQEND
  5
504
100
AcDbEntity
  8
001
  0
ARC
  5
505
100
AcDbEntity
  8
001
100
AcDbCircle
 10
818.0
 20
217.0
 30
0.0
 40
40.944862
100
AcDbArc
 50
19.504951
 51
40.495049
  0
LINE
  5
506
100
AcDbEntity
  8
001
100
AcDbLine
 10
860.469042
 20
227.825635
 30
0.0
 11
859.151847
 21
227.076571
 31
0.0
  0
POLYLINE
  5
507
100
AcDbEntity
  8
001
100
AcDb2dPolyline
 66
     1
 10
0.0
 20
0.0
 30
0.0
  0
VERTEX
  5
508
100
AcDbEntity
  8
001
100
AcDbVertex
100
AcDb2dVertex
 10
857.88312
 20
231.411352
 30
0.0
  0
VERTEX
  5
509
100
AcDbEntity
  8
001
100
AcDbVertex
100
AcDb2dVertex
 10
857.996364
 20
231.063254
 30
0.0
  0
VERTEX
  5
50A
100
AcDbEntity
  8
001
100
AcDbVertex
100
AcDb2dVertex
 10
858.118396
 20
230.720798
 30
0.0
  0
VERTEX
  5
50B
100
AcDbEntity
  8
001
100
AcDbVertex
100
AcDb2dVertex
 10
858.248284
 20
230.386589
 30
0.0
  0
VERTEX
  5
50C
100
AcDbEntity
  8
001
100
AcDbVertex
100
AcDb2dVertex
 10
858.385042
 20
230.063172
 30
0.0
  0
VERTEX
  5
50D
100
AcDbEntity
  8
001
100
AcDbVertex
100
AcDb2dVertex
 10
858.527628
 20
229.753007
 30
0.0
  0
VERTEX
  5
50E
100
AcDbEntity
  8
001
100
AcDbVertex
100
AcDb2dVertex
 10
858.674957
 20
229.458455
 30
0.0
  0
VERTEX
  5
50F
100
AcDbEntity
  8
001
100
AcDbVertex
100
AcDb2dVertex
 10
858.825908
 20
229.181759
 30
0.0
  0
VERTEX
  5
510
100
AcDbEntity
  8
001
100
AcDbVertex
100
AcDb2dVertex
 10
858.979332
 20
228.925023
 30
0.0
  0
VERTEX
  5
511
100
AcDbEntity
  8
001
100
AcDbVertex
100
AcDb2dVertex
 10
859.134061
 20
228.690202
 30
0.0
  0
VERTEX
  5
512
100
AcDbEntity
  8
001
100
AcDbVertex
100
AcDb2dVertex
 10
859.288918
 20
228.479083
 30
0.0
  0
VERTEX
  5
513
100
AcDbEntity
  8
001
100
AcDbVertex
100
AcDb2dVertex
 10
859.442724
 20
228.293272
 30
0.0
  0
VERTEX
  5
514
100
AcDbEntity
  8
001
100
AcDbVertex
100
AcDb2dVertex
 10
859.594309
 20
228.134184
 30
0.0
  0
VERTEX
  5
515
100
AcDbEntity
  8
001
100
AcDbVertex
100
AcDb2dVertex
 10
859.742519
 20
228.003029
 30
0.0
  0
VERTEX
  5
516
100
AcDbEntity
  8
001
100
AcDbVertex
100
AcDb2dVertex
 10
859.886226
 20
227.900806
 30
0.0
  0
VERTEX
  5
517
100
AcDbEntity
  8
001
100
AcDbVertex
100
AcDb2dVertex
 10
860.024336
 20
227.828293
 30
0.0
  0
VERTEX
  5
518
100
AcDbEntity
  8
001
100
AcDbVertex
100
AcDb2dVertex
 10
860.155798
 20
227.786041
 30
0.0
  0
VERTEX
  5
519
100
AcDbEntity
  8
001
100
AcDbVertex
100
AcDb2dVertex
 10
860.279612
 20
227.774372
 30
0.0
  0
VERTEX
  5
51A
100
AcDbEntity
  8
001
100
AcDbVertex
100
AcDb2dVertex
 10
860.394836
 20
227.793375
 30
0.0
  0
SEQEND
  5
51B
100
AcDbEntity
  8
001
  0
POLYLINE
  5
51C
100
AcDbEntity
  8
001
100
AcDb2dPolyline
 66
     1
 10
0.0
 20
0.0
 30
0.0
  0
VERTEX
  5
51D
100
AcDbEntity
  8
001
100
AcDbVertex
100
AcDb2dVertex
 10
859.075041
 20
227.043521
 30
0.0
  0
VERTEX
  5
51E
100
AcDbEntity
  8
001
100
AcDbVertex
100
AcDb2dVertex
 10
859.151847
 20
227.076571
 30
0.0
  0
SEQEND
  5
51F
100
AcDbEntity
  8
001
  0
POLYLINE
  5
520
100
AcDbEntity
  8
001
100
AcDb2dPolyline
 66
     1
 10
0.0
 20
0.0
 30
0.0
  0
VERTEX
  5
521
100
AcDbEntity
  8
001
100
AcDbVertex
100
AcDb2dVertex
 10
856.595145
 20
230.671011
 30
0.0
  0
VERTEX
  5
522
100
AcDbEntity
  8
001
100
AcDbVertex
100
AcDb2dVertex
 10
856.705438
 20
230.32292
 30
0.0
  0
VERTEX
  5
523
100
AcDbEntity
  8
001
100
AcDbVertex
100
AcDb2dVertex
 10
856.824556
 20
229.980395
 30
0.0
  0
VERTEX
  5
524
100
AcDbEntity
  8
001
100
AcDbVertex
100
AcDb2dVertex
 10
856.951592
 20
229.646041
 30
0.0
  0
VERTEX
  5
525
100
AcDbEntity
  8
001
100
AcDbVertex
100
AcDb2dVertex
 10
857.085581
 20
229.322404
 30
0.0
  0
VERTEX
  5
526
100
AcDbEntity
  8
001
100
AcDbVertex
100
AcDb2dVertex
 10
857.225501
 20
229.011947
 30
0.0
  0
VERTEX
  5
527
100
AcDbEntity
  8
001
100
AcDbVertex
100
AcDb2dVertex
 10
857.370288
 20
228.717031
 30
0.0
  0
VERTEX
  5
528
100
AcDbEntity
  8
001
100
AcDbVertex
100
AcDb2dVertex
 10
857.518841
 20
228.439903
 30
0.0
  0
VERTEX
  5
529
100
AcDbEntity
  8
001
100
AcDbVertex
100
AcDb2dVertex
 10
857.670028
 20
228.18267
 30
0.0
  0
VERTEX
  5
52A
100
AcDbEntity
  8
001
100
AcDbVertex
100
AcDb2dVertex
 10
857.822699
 20
227.947291
 30
0.0
  0
VERTEX
  5
52B
100
AcDbEntity
  8
001
100
AcDbVertex
100
AcDb2dVertex
 10
857.975692
 20
227.735557
 30
0.0
  0
VERTEX
  5
52C
100
AcDbEntity
  8
001
100
AcDbVertex
100
AcDb2dVertex
 10
858.127843
 20
227.54908
 30
0.0
  0
VERTEX
  5
52D
100
AcDbEntity
  8
001
100
AcDbVertex
100
AcDb2dVertex
 10
858.277993
 20
227.389278
 30
0.0
  0
VERTEX
  5
52E
100
AcDbEntity
  8
001
100
AcDbVertex
100
AcDb2dVertex
 10
858.425001
 20
227.257368
 30
0.0
  0
VERTEX
  5
52F
100
AcDbEntity
  8
001
100
AcDbVertex
100
AcDb2dVertex
 10
858.567746
 20
227.154353
 30
0.0
  0
VERTEX
  5
530
100
AcDbEntity
  8
001
100
AcDbVertex
100
AcDb2dVertex
 10
858.705144
 20
227.081019
 30
0.0
  0
VERTEX
  5
531
100
AcDbEntity
  8
001
100
AcDbVertex
100
AcDb2dVertex
 10
858.836147
 20
227.037922
 30
0.0
  0
VERTEX
  5
532
100
AcDbEntity
  8
001
100
AcDbVertex
100
AcDb2dVertex
 10
858.95976
 20
227.025391
 30
0.0
  0
VERTEX
  5
533
100
AcDbEntity
  8
001
100
AcDbVertex
100
AcDb2dVertex
 10
859.075041
 20
227.043521
 30
0.0
  0
SEQEND
  5
534
100
AcDbEntity
  8
001
  0
POLYLINE
  5
535
100
AcDbEntity
  8
001
100
AcDb2dPolyline
 66
     1
 10
0.0
 20
0.0
 30
0.0
  0
VERTEX
  5
536
100
AcDbEntity
  8
001
100
AcDbVertex
100
AcDb2dVertex
 10
847.302491
 20
247.60026
 30
0.0
  0
VERTEX
  5
537
100
AcDbEntity
  8
001
100
AcDbVertex
100
AcDb2dVertex
 10
847.235464
 20
247.550268
 30
0.0
  0
SEQEND
  5
538
100
AcDbEntity
  8
001
  0
LINE
  5
539
100
AcDbEntity
  8
001
100
AcDbLine
 10
848.609796
 20
248.366452
 30
0.0
 11
847.302491
 21
247.60026
 31
0.0
  0
POLYLINE
  5
53A
100
AcDbEntity
  8
001
100
AcDb2dPolyline
 66
     1
 10
0.0
 20
0.0
 30
0.0
  0
VERTEX
  5
53B
100
AcDbEntity
  8
001
100
AcDbVertex
100
AcDb2dVertex
 10
847.235464
 20
247.550268
 30
0.0
  0
VERTEX
  5
53C
100
AcDbEntity
  8
001
100
AcDbVertex
100
AcDb2dVertex
 10
847.162123
 20
247.459497
 30
0.0
  0
VERTEX
  5
53D
100
AcDbEntity
  8
001
100
AcDbVertex
100
AcDb2dVertex
 10
847.111169
 20
247.34618
 30
0.0
  0
VERTEX
  5
53E
100
AcDbEntity
  8
001
100
AcDbVertex
100
AcDb2dVertex
 10
847.08299
 20
247.211179
 30
0.0
  0
VERTEX
  5
53F
100
AcDbEntity
  8
001
100
AcDbVertex
100
AcDb2dVertex
 10
847.077801
 20
247.055522
 30
0.0
  0
VERTEX
  5
540
100
AcDbEntity
  8
001
100
AcDbVertex
100
AcDb2dVertex
 10
847.095641
 20
246.880394
 30
0.0
  0
VERTEX
  5
541
100
AcDbEntity
  8
001
100
AcDbVertex
100
AcDb2dVertex
 10
847.136375
 20
246.687127
 30
0.0
  0
VERTEX
  5
542
100
AcDbEntity
  8
001
100
AcDbVertex
100
AcDb2dVertex
 10
847.199693
 20
246.477191
 30
0.0
  0
VERTEX
  5
543
100
AcDbEntity
  8
001
100
AcDbVertex
100
AcDb2dVertex
 10
847.285112
 20
246.252186
 30
0.0
  0
VERTEX
  5
544
100
AcDbEntity
  8
001
100
AcDbVertex
100
AcDb2dVertex
 10
847.391982
 20
246.013823
 30
0.0
  0
VERTEX
  5
545
100
AcDbEntity
  8
001
100
AcDbVertex
100
AcDb2dVertex
 10
847.519491
 20
245.763917
 30
0.0
  0
VERTEX
  5
546
100
AcDbEntity
  8
001
100
AcDbVertex
100
AcDb2dVertex
 10
847.666667
 20
245.504369
 30
0.0
  0
VERTEX
  5
547
100
AcDbEntity
  8
001
100
AcDbVertex
100
AcDb2dVertex
 10
847.832391
 20
245.237154
 30
0.0
  0
VERTEX
  5
548
100
AcDbEntity
  8
001
100
AcDbVertex
100
AcDb2dVertex
 10
848.015401
 20
244.964307
 30
0.0
  0
VERTEX
  5
549
100
AcDbEntity
  8
001
100
AcDbVertex
100
AcDb2dVertex
 10
848.214305
 20
244.687904
 30
0.0
  0
VERTEX
  5
54A
100
AcDbEntity
  8
001
100
AcDbVertex
100
AcDb2dVertex
 10
848.427589
 20
244.410048
 30
0.0
  0
VERTEX
  5
54B
100
AcDbEntity
  8
001
100
AcDbVertex
100
AcDb2dVertex
 10
848.65363
 20
244.132854
 30
0.0
  0
VERTEX
  5
54C
100
AcDbEntity
  8
001
100
AcDbVertex
100
AcDb2dVertex
 10
848.890706
 20
243.858432
 30
0.0
  0
VERTEX
  5
54D
100
AcDbEntity
  8
001
100
AcDbVertex
100
AcDb2dVertex
 10
849.137015
 20
243.58887
 30
0.0
  0
SEQEND
  5
54E
100
AcDbEntity
  8
001
  0
LINE
  5
54F
100
AcDbEntity
  8
001
100
AcDbLine
 10
287.0
 20
319.0
 30
0.0
 11
287.0
 21
326.0
 31
0.0
  0
LINE
  5
550
100
AcDbEntity
  8
001
100
AcDbLine
 10
431.0
 20
319.0
 30
0.0
 11
431.0
 21
326.0
 31
0.0
  0
LINE
  5
551
100
AcDbEntity
  8
001
100
AcDbLine
 10
287.0
 20
304.0
 30
0.0
 11
287.0
 21
314.0
 31
0.0
  0
LINE
  5
552
100
AcDbEntity
  8
001
100
AcDbLine
 10
431.0
 20
304.0
 30
0.0
 11
431.0
 21
314.0
 31
0.0
  0
ARC
  5
553
100
AcDbEntity
  8
001
100
AcDbCircle
 10
428.0
 20
314.0
 30
0.0
 40
3.0
100
AcDbArc
 50
0.0
 51
90.0
  0
ARC
  5
554
100
AcDbEntity
  8
001
100
AcDbCircle
 10
428.0
 20
304.0
 30
0.0
 40
3.0
100
AcDbArc
 50
270.0
 51
0.0
  0
ARC
  5
555
100
AcDbEntity
  8
001
100
AcDbCircle
 10
290.0
 20
314.0
 30
0.0
 40
3.0
100
AcDbArc
 50
90.0
 51
180.0
  0
ARC
  5
556
100
AcDbEntity
  8
001
100
AcDbCircle
 10
290.0
 20
304.0
 30
0.0
 40
3.0
100
AcDbArc
 50
180.0
 51
270.0
  0
ARC
  5
557
100
AcDbEntity
  8
001
100
AcDbCircle
 10
429.0
 20
326.0
 30
0.0
 40
2.0
100
AcDbArc
 50
0.0
 51
90.0
  0
ARC
  5
558
100
AcDbEntity
  8
001
100
AcDbCircle
 10
429.0
 20
319.0
 30
0.0
 40
2.0
100
AcDbArc
 50
270.0
 51
0.0
  0
ARC
  5
559
100
AcDbEntity
  8
001
100
AcDbCircle
 10
289.0
 20
326.0
 30
0.0
 40
2.0
100
AcDbArc
 50
90.0
 51
180.0
  0
ARC
  5
55A
100
AcDbEntity
  8
001
100
AcDbCircle
 10
289.0
 20
319.0
 30
0.0
 40
2.0
100
AcDbArc
 50
180.0
 51
270.0
  0
LINE
  5
55B
100
AcDbEntity
  8
001
100
AcDbLine
 10
900.0
 20
319.0
 30
0.0
 11
900.0
 21
326.0
 31
0.0
  0
LINE
  5
55C
100
AcDbEntity
  8
001
100
AcDbLine
 10
736.0
 20
319.0
 30
0.0
 11
736.0
 21
326.0
 31
0.0
  0
LINE
  5
55D
100
AcDbEntity
  8
001
100
AcDbLine
 10
900.0
 20
304.0
 30
0.0
 11
900.0
 21
314.0
 31
0.0
  0
LINE
  5
55E
100
AcDbEntity
  8
001
100
AcDbLine
 10
736.0
 20
304.0
 30
0.0
 11
736.0
 21
314.0
 31
0.0
  0
ARC
  5
55F
100
AcDbEntity
  8
001
100
AcDbCircle
 10
897.0
 20
314.0
 30
0.0
 40
3.0
100
AcDbArc
 50
0.0
 51
90.0
  0
ARC
  5
560
100
AcDbEntity
  8
001
100
AcDbCircle
 10
897.0
 20
304.0
 30
0.0
 40
3.0
100
AcDbArc
 50
270.0
 51
0.0
  0
ARC
  5
561
100
AcDbEntity
  8
001
100
AcDbCircle
 10
739.0
 20
314.0
 30
0.0
 40
3.0
100
AcDbArc
 50
90.0
 51
180.0
  0
ARC
  5
562
100
AcDbEntity
  8
001
100
AcDbCircle
 10
739.0
 20
304.0
 30
0.0
 40
3.0
100
AcDbArc
 50
180.0
 51
270.0
  0
ARC
  5
563
100
AcDbEntity
  8
001
100
AcDbCircle
 10
898.0
 20
326.0
 30
0.0
 40
2.0
100
AcDbArc
 50
0.0
 51
90.0
  0
ARC
  5
564
100
AcDbEntity
  8
001
100
AcDbCircle
 10
898.0
 20
319.0
 30
0.0
 40
2.0
100
AcDbArc
 50
270.0
 51
0.0
  0
ARC
  5
565
100
AcDbEntity
  8
001
100
AcDbCircle
 10
738.0
 20
326.0
 30
0.0
 40
2.0
100
AcDbArc
 50
90.0
 51
180.0
  0
ARC
  5
566
100
AcDbEntity
  8
001
100
AcDbCircle
 10
738.0
 20
319.0
 30
0.0
 40
2.0
100
AcDbArc
 50
180.0
 51
270.0
  0
LINE
  5
567
100
AcDbEntity
  8
001
100
AcDbLine
 10
403.24145
 20
393.257529
 30
0.0
 11
405.0
 21
366.0
 31
0.0
  0
LINE
  5
568
100
AcDbEntity
  8
001
100
AcDbLine
 10
314.75855
 20
393.257529
 30
0.0
 11
313.0
 21
366.0
 31
0.0
  0
LINE
  5
569
100
AcDbEntity
  8
001
100
AcDbLine
 10
395.24145
 20
399.257529
 30
0.0
 11
397.387097
 21
366.0
 31
0.0
  0
LINE
  5
56A
100
AcDbEntity
  8
001
100
AcDbLine
 10
322.75855
 20
399.257529
 30
0.0
 11
320.612903
 21
366.0
 31
0.0
  0
ARC
  5
56B
100
AcDbEntity
  8
001
100
AcDbCircle
 10
399.249748
 20
393.0
 30
0.0
 40
4.0
100
AcDbArc
 50
3.691386
 51
90.0
  0
ARC
  5
56C
100
AcDbEntity
  8
001
100
AcDbCircle
 10
391.249748
 20
399.0
 30
0.0
 40
4.0
100
AcDbArc
 50
3.691386
 51
90.0
  0
ARC
  5
56D
100
AcDbEntity
  8
001
100
AcDbCircle
 10
326.750252
 20
399.0
 30
0.0
 40
4.0
100
AcDbArc
 50
90.0
 51
176.308614
  0
ARC
  5
56E
100
AcDbEntity
  8
001
100
AcDbCircle
 10
318.750252
 20
393.0
 30
0.0
 40
4.0
100
AcDbArc
 50
90.0
 51
176.308614
  0
ARC
  5
56F
100
AcDbEntity
  8
001
100
AcDbCircle
 10
541.929545
 20
217.558001
 30
0.0
 40
3.0
100
AcDbArc
 50
90.0
 51
171.210924
  0
LINE
  5
570
100
AcDbEntity
  8
001
100
AcDbLine
 10
523.0
 20
214.285631
 30
0.0
 11
523.0
 21
212.756608
 31
0.0
  0
LINE
  5
571
100
AcDbEntity
  8
001
100
AcDbLine
 10
536.0
 20
209.756608
 30
0.0
 11
526.0
 21
209.756608
 31
0.0
  0
ARC
  5
572
100
AcDbEntity
  8
001
100
AcDbCircle
 10
526.0
 20
212.756608
 30
0.0
 40
3.0
100
AcDbArc
 50
180.0
 51
270.0
  0
ARC
  5
573
100
AcDbEntity
  8
001
100
AcDbCircle
 10
536.0
 20
212.756608
 30
0.0
 40
3.0
100
AcDbArc
 50
270.0
 51
0.0
  0
LINE
  5
574
100
AcDbEntity
  8
001
100
AcDbLine
 10
526.0
 20
673.890903
 30
0.0
 11
536.0
 21
673.890903
 31
0.0
  0
LINE
  5
575
100
AcDbEntity
  8
001
100
AcDbLine
 10
523.0
 20
687.338877
 30
0.0
 11
523.0
 21
676.890903
 31
0.0
  0
ARC
  5
576
100
AcDbEntity
  8
001
100
AcDbCircle
 10
536.0
 20
676.890903
 30
0.0
 40
3.0
100
AcDbArc
 50
270.0
 51
0.0
  0
ARC
  5
577
100
AcDbEntity
  8
001
100
AcDbCircle
 10
526.0
 20
676.890903
 30
0.0
 40
3.0
100
AcDbArc
 50
180.0
 51
270.0
  0
LINE
  5
578
100
AcDbEntity
  8
001
100
AcDbLine
 10
532.0
 20
678.436826
 30
0.0
 11
532.0
 21
685.400269
 31
0.0
  0
ARC
  5
579
100
AcDbEntity
  8
001
100
AcDbCircle
 10
529.0
 20
685.400269
 30
0.0
 40
3.0
100
AcDbArc
 50
0.0
 51
100.504554
  0
ARC
  5
57A
100
AcDbEntity
  8
001
100
AcDbCircle
 10
176.070455
 20
217.558001
 30
0.0
 40
3.0
100
AcDbArc
 50
6.965494
 51
90.0
  0
LINE
  5
57B
100
AcDbEntity
  8
001
100
AcDbLine
 10
534.0
 20
676.436826
 30
0.0
 11
537.0
 21
676.436826
 31
0.0
  0
ARC
  5
57C
100
AcDbEntity
  8
001
100
AcDbCircle
 10
537.0
 20
678.436826
 30
0.0
 40
2.0
100
AcDbArc
 50
270.0
 51
0.0
  0
ARC
  5
57D
100
AcDbEntity
  8
001
100
AcDbCircle
 10
534.0
 20
678.436826
 30
0.0
 40
2.0
100
AcDbArc
 50
180.0
 51
270.0
  0
LINE
  5
57E
100
AcDbEntity
  8
001
100
AcDbLine
 10
230.0
 20
690.936826
 30
0.0
 11
290.302311
 21
690.936826
 31
0.0
  0
LINE
  5
57F
100
AcDbEntity
  8
001
100
AcDbLine
 10
228.267949
 20
689.936826
 30
0.0
 11
209.353882
 21
689.936826
 31
0.0
  0
ARC
  5
580
100
AcDbEntity
  8
001
100
AcDbCircle
 10
230.0
 20
689.936826
 30
0.0
 40
1.0
100
AcDbArc
 50
90.0
 51
150.0
  0
ARC
  5
581
100
AcDbEntity
  8
001
100
AcDbCircle
 10
228.267949
 20
690.936826
 30
0.0
 40
1.0
100
AcDbArc
 50
270.0
 51
330.0
  0
ARC
  5
582
100
AcDbEntity
  8
001
100
AcDbCircle
 10
138.0
 20
694.827094
 30
0.0
 40
3.0
100
AcDbArc
 50
180.0
 51
257.092591
  0
LINE
  5
583
100
AcDbEntity
  8
001
100
AcDbLine
 10
162.0
 20
708.436826
 30
0.0
 11
198.5
 21
708.436826
 31
0.0
  0
ARC
  5
584
100
AcDbEntity
  8
001
100
AcDbCircle
 10
198.5
 20
711.436826
 30
0.0
 40
3.0
100
AcDbArc
 50
270.0
 51
0.0
  0
ARC
  5
585
100
AcDbEntity
  8
001
100
AcDbCircle
 10
175.5
 20
711.436826
 30
0.0
 40
3.0
100
AcDbArc
 50
180.0
 51
270.0
  0
LINE
  5
586
100
AcDbEntity
  8
001
100
AcDbLine
 10
159.0
 20
705.436826
 30
0.0
 11
159.0
 21
686.936826
 31
0.0
  0
ARC
  5
587
100
AcDbEntity
  8
001
100
AcDbCircle
 10
162.0
 20
705.436826
 30
0.0
 40
3.0
100
AcDbArc
 50
90.0
 51
180.0
  0
ARC
  5
588
100
AcDbEntity
  8
001
100
AcDbCircle
 10
209.242641
 20
686.936826
 30
0.0
 40
3.0
100
AcDbArc
 50
90.0
 51
135.0
  0
LINE
  5
589
100
AcDbEntity
  8
001
100
AcDbLine
 10
206.007359
 20
687.944185
 30
0.0
 11
207.12132
 21
689.058146
 31
0.0
  0
ARC
  5
58A
100
AcDbEntity
  8
001
100
AcDbCircle
 10
201.764719
 20
692.186826
 30
0.0
 40
6.0
100
AcDbArc
 50
259.495446
 51
315.0
  0
LINE
  5
58B
100
AcDbEntity
  8
001
100
AcDbLine
 10
189.546941
 20
688.34999
 30
0.0
 11
200.670837
 21
686.287383
 31
0.0
  0
ARC
  5
58C
100
AcDbEntity
  8
001
100
AcDbCircle
 10
190.0
 20
690.300074
 30
0.0
 40
2.0
100
AcDbArc
 50
180.0
 51
259.495446
  0
LINE
  5
58D
100
AcDbEntity
  8
001
100
AcDbLine
 10
188.0
 20
690.300074
 30
0.0
 11
188.0
 21
708.436826
 31
0.0
  0
ARC
  5
58E
100
AcDbEntity
  8
001
100
AcDbCircle
 10
185.0
 20
691.436826
 30
0.0
 40
3.0
100
AcDbArc
 50
0.0
 51
90.0
  0
LINE
  5
58F
100
AcDbEntity
  8
001
100
AcDbLine
 10
185.0
 20
694.436826
 30
0.0
 11
180.0
 21
694.436826
 31
0.0
  0
ARC
  5
590
100
AcDbEntity
  8
001
100
AcDbCircle
 10
180.0
 20
695.436826
 30
0.0
 40
1.0
100
AcDbArc
 50
180.0
 51
270.0
  0
LINE
  5
591
100
AcDbEntity
  8
001
100
AcDbLine
 10
219.541754
 20
687.619866
 30
0.0
 11
224.6566
 21
665.744826
 31
0.0
  0
LINE
  5
592
100
AcDbEntity
  8
001
100
AcDbLine
 10
278.474029
 20
688.593968
 30
0.0
 11
273.392855
 21
665.960639
 31
0.0
  0
ARC
  5
593
100
AcDbEntity
  8
001
100
AcDbCircle
 10
249.0
 20
671.436826
 30
0.0
 40
25.0
100
AcDbArc
 50
193.160523
 51
347.346907
  0
LINE
  5
594
100
AcDbEntity
  8
001
  6
CENTER
100
AcDbLine
 10
249.0
 20
687.686826
 30
0.0
 11
249.0
 21
655.186826
 31
0.0
  0
LINE
  5
595
100
AcDbEntity
  8
001
  6
CENTER
100
AcDbLine
 10
265.25
 20
671.436826
 30
0.0
 11
232.75
 21
671.436826
 31
0.0
  0
ARC
  5
596
100
AcDbEntity
  8
001
100
AcDbCircle
 10
216.620546
 20
686.936826
 30
0.0
 40
3.0
100
AcDbArc
 50
13.160523
 51
90.0
  0
ARC
  5
597
100
AcDbEntity
  8
001
100
AcDbCircle
 10
281.401172
 20
687.936826
 30
0.0
 40
3.0
100
AcDbArc
 50
90.0
 51
167.346907
  0
CIRCLE
  5
598
100
AcDbEntity
  8
001
100
AcDbCircle
 10
249.0
 20
671.436826
 30
0.0
 40
12.5
  0
LINE
  5
599
100
AcDbEntity
  8
001
100
AcDbLine
 10
172.5
 20
724.936826
 30
0.0
 11
172.5
 21
711.436826
 31
0.0
  0
LINE
  5
59A
100
AcDbEntity
  8
001
100
AcDbLine
 10
159.0
 20
724.936826
 30
0.0
 11
159.0
 21
711.436826
 31
0.0
  0
LINE
  5
59B
100
AcDbEntity
  8
001
100
AcDbLine
 10
201.5
 20
686.192669
 30
0.0
 11
201.5
 21
670.837041
 31
0.0
  0
LINE
  5
59C
100
AcDbEntity
  8
001
100
AcDbLine
 10
172.5
 20
683.937766
 30
0.0
 11
172.5
 21
670.837041
 31
0.0
  0
LINE
  5
59D
100
AcDbEntity
  8
001
100
AcDbLine
 10
198.5
 20
667.837041
 30
0.0
 11
175.5
 21
667.837041
 31
0.0
  0
ARC
  5
59E
100
AcDbEntity
  8
001
100
AcDbCircle
 10
175.5
 20
670.837041
 30
0.0
 40
3.0
100
AcDbArc
 50
180.0
 51
270.0
  0
ARC
  5
59F
100
AcDbEntity
  8
001
100
AcDbCircle
 10
198.5
 20
670.837041
 30
0.0
 40
3.0
100
AcDbArc
 50
270.0
 51
0.0
  0
LINE
  5
5A0
100
AcDbEntity
  8
001
100
AcDbLine
 10
169.5
 20
686.937766
 30
0.0
 11
159.0
 21
686.937766
 31
0.0
  0
ARC
  5
5A1
100
AcDbEntity
  8
001
100
AcDbCircle
 10
169.5
 20
683.937766
 30
0.0
 40
3.0
100
AcDbArc
 50
0.0
 51
90.0
  0
LINE
  5
5A2
100
AcDbEntity
  8
001
100
AcDbLine
 10
162.0
 20
692.599465
 30
0.0
 11
176.0
 21
692.599465
 31
0.0
  0
ARC
  5
5A3
100
AcDbEntity
  8
001
100
AcDbCircle
 10
176.0
 20
689.599465
 30
0.0
 40
3.0
100
AcDbArc
 50
0.0
 51
90.0
  0
ARC
  5
5A4
100
AcDbEntity
  8
001
100
AcDbCircle
 10
162.0
 20
695.599465
 30
0.0
 40
3.0
100
AcDbArc
 50
180.0
 51
270.0
  0
LINE
  5
5A5
100
AcDbEntity
  8
001
100
AcDbLine
 10
179.0
 20
686.467451
 30
0.0
 11
179.0
 21
708.436826
 31
0.0
  0
LINE
  5
5A6
100
AcDbEntity
  8
001
100
AcDbLine
 10
173.840966
 20
727.936826
 30
0.0
 11
135.0
 21
727.936826
 31
0.0
  0
LINE
  5
5A7
100
AcDbEntity
  8
001
100
AcDbLine
 10
172.5
 20
674.702109
 30
0.0
 11
149.026474
 21
688.559398
 31
0.0
  0
ARC
  5
5A8
100
AcDbEntity
  8
001
100
AcDbCircle
 10
169.5
 20
724.936826
 30
0.0
 40
3.0
100
AcDbArc
 50
0.0
 51
90.0
  0
LINE
  5
5A9
100
AcDbEntity
  8
001
100
AcDbLine
 10
230.0
 20
771.936826
 30
0.0
 11
290.302311
 21
771.936826
 31
0.0
  0
LINE
  5
5AA
100
AcDbEntity
  8
001
100
AcDbLine
 10
228.267949
 20
772.936826
 30
0.0
 11
209.353882
 21
772.936826
 31
0.0
  0
ARC
  5
5AB
100
AcDbEntity
  8
001
100
AcDbCircle
 10
230.0
 20
772.936826
 30
0.0
 40
1.0
100
AcDbArc
 50
210.0
 51
270.0
  0
ARC
  5
5AC
100
AcDbEntity
  8
001
100
AcDbCircle
 10
228.267949
 20
771.936826
 30
0.0
 40
1.0
100
AcDbArc
 50
30.0
 51
90.0
  0
LINE
  5
5AD
100
AcDbEntity
  8
001
100
AcDbLine
 10
159.0
 20
775.936826
 30
0.0
 11
137.329872
 21
770.970755
 31
0.0
  0
ARC
  5
5AE
100
AcDbEntity
  8
001
100
AcDbCircle
 10
138.0
 20
768.046558
 30
0.0
 40
3.0
100
AcDbArc
 50
102.907409
 51
180.0
  0
LINE
  5
5AF
100
AcDbEntity
  8
001
100
AcDbLine
 10
162.0
 20
754.436826
 30
0.0
 11
198.5
 21
754.436826
 31
0.0
  0
ARC
  5
5B0
100
AcDbEntity
  8
001
100
AcDbCircle
 10
198.5
 20
751.436826
 30
0.0
 40
3.0
100
AcDbArc
 50
0.0
 51
90.0
  0
ARC
  5
5B1
100
AcDbEntity
  8
001
100
AcDbCircle
 10
175.5
 20
751.436826
 30
0.0
 40
3.0
100
AcDbArc
 50
90.0
 51
180.0
  0
LINE
  5
5B2
100
AcDbEntity
  8
001
100
AcDbLine
 10
159.0
 20
757.436826
 30
0.0
 11
159.0
 21
775.936826
 31
0.0
  0
ARC
  5
5B3
100
AcDbEntity
  8
001
100
AcDbCircle
 10
162.0
 20
757.436826
 30
0.0
 40
3.0
100
AcDbArc
 50
180.0
 51
270.0
  0
ARC
  5
5B4
100
AcDbEntity
  8
001
100
AcDbCircle
 10
209.242641
 20
775.936826
 30
0.0
 40
3.0
100
AcDbArc
 50
225.0
 51
270.0
  0
LINE
  5
5B5
100
AcDbEntity
  8
001
100
AcDbLine
 10
206.007359
 20
774.929467
 30
0.0
 11
207.12132
 21
773.815506
 31
0.0
  0
ARC
  5
5B6
100
AcDbEntity
  8
001
100
AcDbCircle
 10
201.764719
 20
770.686826
 30
0.0
 40
6.0
100
AcDbArc
 50
45.0
 51
100.504554
  0
LINE
  5
5B7
100
AcDbEntity
  8
001
100
AcDbLine
 10
189.546941
 20
774.523662
 30
0.0
 11
200.670837
 21
776.586269
 31
0.0
  0
ARC
  5
5B8
100
AcDbEntity
  8
001
100
AcDbCircle
 10
190.0
 20
772.573578
 30
0.0
 40
2.0
100
AcDbArc
 50
100.504554
 51
180.0
  0
LINE
  5
5B9
100
AcDbEntity
  8
001
100
AcDbLine
 10
188.0
 20
772.573578
 30
0.0
 11
188.0
 21
754.436826
 31
0.0
  0
ARC
  5
5BA
100
AcDbEntity
  8
001
100
AcDbCircle
 10
185.0
 20
771.436826
 30
0.0
 40
3.0
100
AcDbArc
 50
270.0
 51
0.0
  0
LINE
  5
5BB
100
AcDbEntity
  8
001
100
AcDbLine
 10
185.0
 20
768.436826
 30
0.0
 11
180.0
 21
768.436826
 31
0.0
  0
ARC
  5
5BC
100
AcDbEntity
  8
001
100
AcDbCircle
 10
180.0
 20
767.436826
 30
0.0
 40
1.0
100
AcDbArc
 50
90.0
 51
180.0
  0
LINE
  5
5BD
100
AcDbEntity
  8
001
100
AcDbLine
 10
219.541754
 20
775.253786
 30
0.0
 11
224.6566
 21
797.128826
 31
0.0
  0
LINE
  5
5BE
100
AcDbEntity
  8
001
100
AcDbLine
 10
278.474029
 20
774.279684
 30
0.0
 11
273.392855
 21
796.913013
 31
0.0
  0
ARC
  5
5BF
100
AcDbEntity
  8
001
100
AcDbCircle
 10
249.0
 20
791.436826
 30
0.0
 40
25.0
100
AcDbArc
 50
12.653093
 51
166.839477
  0
LINE
  5
5C0
100
AcDbEntity
  8
001
  6
CENTER
100
AcDbLine
 10
249.0
 20
775.186826
 30
0.0
 11
249.0
 21
807.686826
 31
0.0
  0
LINE
  5
5C1
100
AcDbEntity
  8
001
  6
CENTER
100
AcDbLine
 10
265.25
 20
791.436826
 30
0.0
 11
232.75
 21
791.436826
 31
0.0
  0
ARC
  5
5C2
100
AcDbEntity
  8
001
100
AcDbCircle
 10
216.620546
 20
775.936826
 30
0.0
 40
3.0
100
AcDbArc
 50
270.0
 51
346.839477
  0
ARC
  5
5C3
100
AcDbEntity
  8
001
100
AcDbCircle
 10
281.401172
 20
774.936826
 30
0.0
 40
3.0
100
AcDbArc
 50
192.653093
 51
270.0
  0
CIRCLE
  5
5C4
100
AcDbEntity
  8
001
100
AcDbCircle
 10
249.0
 20
791.436826
 30
0.0
 40
12.5
  0
LINE
  5
5C5
100
AcDbEntity
  8
001
100
AcDbLine
 10
172.5
 20
737.936826
 30
0.0
 11
172.5
 21
751.436826
 31
0.0
  0
LINE
  5
5C6
100
AcDbEntity
  8
001
100
AcDbLine
 10
159.0
 20
737.936826
 30
0.0
 11
159.0
 21
751.436826
 31
0.0
  0
LINE
  5
5C7
100
AcDbEntity
  8
001
100
AcDbLine
 10
201.5
 20
776.680983
 30
0.0
 11
201.5
 21
792.036611
 31
0.0
  0
LINE
  5
5C8
100
AcDbEntity
  8
001
100
AcDbLine
 10
172.5
 20
778.935886
 30
0.0
 11
172.5
 21
792.036611
 31
0.0
  0
LINE
  5
5C9
100
AcDbEntity
  8
001
100
AcDbLine
 10
198.5
 20
795.036611
 30
0.0
 11
175.5
 21
795.036611
 31
0.0
  0
ARC
  5
5CA
100
AcDbEntity
  8
001
100
AcDbCircle
 10
175.5
 20
792.036611
 30
0.0
 40
3.0
100
AcDbArc
 50
90.0
 51
180.0
  0
ARC
  5
5CB
100
AcDbEntity
  8
001
100
AcDbCircle
 10
198.5
 20
792.036611
 30
0.0
 40
3.0
100
AcDbArc
 50
0.0
 51
90.0
  0
LINE
  5
5CC
100
AcDbEntity
  8
001
100
AcDbLine
 10
169.5
 20
775.935886
 30
0.0
 11
159.0
 21
775.935886
 31
0.0
  0
ARC
  5
5CD
100
AcDbEntity
  8
001
100
AcDbCircle
 10
169.5
 20
778.935886
 30
0.0
 40
3.0
100
AcDbArc
 50
270.0
 51
0.0
  0
LINE
  5
5CE
100
AcDbEntity
  8
001
100
AcDbLine
 10
162.0
 20
770.274187
 30
0.0
 11
176.0
 21
770.274187
 31
0.0
  0
ARC
  5
5CF
100
AcDbEntity
  8
001
100
AcDbCircle
 10
176.0
 20
773.274187
 30
0.0
 40
3.0
100
AcDbArc
 50
270.0
 51
0.0
  0
ARC
  5
5D0
100
AcDbEntity
  8
001
100
AcDbCircle
 10
162.0
 20
767.274187
 30
0.0
 40
3.0
100
AcDbArc
 50
90.0
 51
180.0
  0
LINE
  5
5D1
100
AcDbEntity
  8
001
100
AcDbLine
 10
179.0
 20
754.436826
 30
0.0
 11
179.0
 21
785.982749
 31
0.0
  0
LINE
  5
5D2
100
AcDbEntity
  8
001
100
AcDbLine
 10
173.840966
 20
734.936826
 30
0.0
 11
135.0
 21
734.936826
 31
0.0
  0
LINE
  5
5D3
100
AcDbEntity
  8
001
100
AcDbLine
 10
172.5
 20
788.171543
 30
0.0
 11
147.190696
 21
773.230527
 31
0.0
  0
ARC
  5
5D4
100
AcDbEntity
  8
001
100
AcDbCircle
 10
169.5
 20
737.936826
 30
0.0
 40
3.0
100
AcDbArc
 50
270.0
 51
0.0
  0
LINE
  5
5D5
100
AcDbEntity
  8
001
100
AcDbLine
 10
135.0
 20
768.046558
 30
0.0
 11
135.0
 21
694.827094
 31
0.0
  0
LINE
  5
5D6
100
AcDbEntity
  8
001
100
AcDbLine
 10
201.5
 20
751.436826
 30
0.0
 11
201.5
 21
711.436826
 31
0.0
  0
LINE
  5
5D7
100
AcDbEntity
  8
001
100
AcDbLine
 10
229.133975
 20
771.13405
 30
0.0
 11
229.133975
 21
691.739602
 31
0.0
  0
LINE
  5
5D8
100
AcDbEntity
  8
001
100
AcDbLine
 10
209.5
 20
715.686826
 30
0.0
 11
209.5
 21
720.686826
 31
0.0
  0
LINE
  5
5D9
100
AcDbEntity
  8
001
100
AcDbLine
 10
209.5
 20
715.686826
 30
0.0
 11
201.5
 21
715.686826
 31
0.0
  0
LINE
  5
5DA
100
AcDbEntity
  8
001
100
AcDbLine
 10
209.5
 20
720.686826
 30
0.0
 11
201.5
 21
720.686826
 31
0.0
  0
LINE
  5
5DB
100
AcDbEntity
  8
001
  6
CENTER
100
AcDbLine
 10
165.75
 20
718.186826
 30
0.0
 11
213.25
 21
718.186826
 31
0.0
  0
LINE
  5
5DC
100
AcDbEntity
  8
001
100
AcDbLine
 10
172.5
 20
722.686826
 30
0.0
 11
169.5
 21
722.686826
 31
0.0
  0
LINE
  5
5DD
100
AcDbEntity
  8
001
100
AcDbLine
 10
169.5
 20
713.686826
 30
0.0
 11
169.5
 21
722.686826
 31
0.0
  0
LINE
  5
5DE
100
AcDbEntity
  8
001
100
AcDbLine
 10
172.5
 20
713.686826
 30
0.0
 11
169.5
 21
713.686826
 31
0.0
  0
LINE
  5
5DF
100
AcDbEntity
  8
001
100
AcDbLine
 10
208.0
 20
772.134742
 30
0.0
 11
208.0
 21
720.686826
 31
0.0
  0
LINE
  5
5E0
100
AcDbEntity
  8
001
100
AcDbLine
 10
208.0
 20
715.686826
 30
0.0
 11
208.0
 21
690.73891
 31
0.0
  0
LINE
  5
5E1
100
AcDbEntity
  8
001
100
AcDbLine
 10
143.151606
 20
699.014669
 30
0.0
 11
143.151606
 21
691.553706
 31
0.0
  0
LINE
  5
5E2
100
AcDbEntity
  8
001
100
AcDbLine
 10
154.848394
 20
696.661629
 30
0.0
 11
154.848394
 21
689.196169
 31
0.0
  0
POLYLINE
  5
5E3
100
AcDbEntity
  8
001
100
AcDb2dPolyline
 66
     1
 10
0.0
 20
0.0
 30
0.0
  0
VERTEX
  5
5E4
100
AcDbEntity
  8
001
100
AcDbVertex
100
AcDb2dVertex
 10
154.848394
 20
696.661629
 30
0.0
  0
VERTEX
  5
5E5
100
AcDbEntity
  8
001
100
AcDbVertex
100
AcDb2dVertex
 10
154.826139
 20
697.044444
 30
0.0
  0
VERTEX
  5
5E6
100
AcDbEntity
  8
001
100
AcDbVertex
100
AcDb2dVertex
 10
154.759544
 20
697.424344
 30
0.0
  0
VERTEX
  5
5E7
100
AcDbEntity
  8
001
100
AcDbVertex
100
AcDb2dVertex
 10
154.649115
 20
697.79844
 30
0.0
  0
VERTEX
  5
5E8
100
AcDbEntity
  8
001
100
AcDbVertex
100
AcDb2dVertex
 10
154.495693
 20
698.163885
 30
0.0
  0
VERTEX
  5
5E9
100
AcDbEntity
  8
001
100
AcDbVertex
100
AcDb2dVertex
 10
154.300445
 20
698.517896
 30
0.0
  0
VERTEX
  5
5EA
100
AcDbEntity
  8
001
100
AcDbVertex
100
AcDb2dVertex
 10
154.064858
 20
698.85778
 30
0.0
  0
VERTEX
  5
5EB
100
AcDbEntity
  8
001
100
AcDbVertex
100
AcDb2dVertex
 10
153.790724
 20
699.18095
 30
0.0
  0
VERTEX
  5
5EC
100
AcDbEntity
  8
001
100
AcDbVertex
100
AcDb2dVertex
 10
153.48013
 20
699.484946
 30
0.0
  0
VERTEX
  5
5ED
100
AcDbEntity
  8
001
100
AcDbVertex
100
AcDb2dVertex
 10
153.135439
 20
699.767455
 30
0.0
  0
VERTEX
  5
5EE
100
AcDbEntity
  8
001
100
AcDbVertex
100
AcDb2dVertex
 10
152.759275
 20
700.026327
 30
0.0
  0
VERTEX
  5
5EF
100
AcDbEntity
  8
001
100
AcDbVertex
100
AcDb2dVertex
 10
152.354501
 20
700.259592
 30
0.0
  0
VERTEX
  5
5F0
100
AcDbEntity
  8
001
100
AcDbVertex
100
AcDb2dVertex
 10
151.924197
 20
700.465474
 30
0.0
  0
VERTEX
  5
5F1
100
AcDbEntity
  8
001
100
AcDbVertex
100
AcDb2dVertex
 10
151.471638
 20
700.642406
 30
0.0
  0
VERTEX
  5
5F2
100
AcDbEntity
  8
001
100
AcDbVertex
100
AcDb2dVertex
 10
151.000269
 20
700.789042
 30
0.0
  0
VERTEX
  5
5F3
100
AcDbEntity
  8
001
100
AcDbVertex
100
AcDb2dVertex
 10
150.513676
 20
700.904266
 30
0.0
  0
VERTEX
  5
5F4
100
AcDbEntity
  8
001
100
AcDbVertex
100
AcDb2dVertex
 10
150.015563
 20
700.987202
 30
0.0
  0
VERTEX
  5
5F5
100
AcDbEntity
  8
001
100
AcDbVertex
100
AcDb2dVertex
 10
149.509721
 20
701.037217
 30
0.0
  0
VERTEX
  5
5F6
100
AcDbEntity
  8
001
100
AcDbVertex
100
AcDb2dVertex
 10
149.0
 20
701.053931
 30
0.0
  0
SEQEND
  5
5F7
100
AcDbEntity
  8
001
  0
POLYLINE
  5
5F8
100
AcDbEntity
  8
001
100
AcDb2dPolyline
 66
     1
 10
0.0
 20
0.0
 30
0.0
  0
VERTEX
  5
5F9
100
AcDbEntity
  8
001
100
AcDbVertex
100
AcDb2dVertex
 10
143.151606
 20
691.553706
 30
0.0
  0
VERTEX
  5
5FA
100
AcDbEntity
  8
001
100
AcDbVertex
100
AcDb2dVertex
 10
143.173861
 20
691.292735
 30
0.0
  0
VERTEX
  5
5FB
100
AcDbEntity
  8
001
100
AcDbVertex
100
AcDb2dVertex
 10
143.240456
 20
691.033749
 30
0.0
  0
VERTEX
  5
5FC
100
AcDbEntity
  8
001
100
AcDbVertex
100
AcDb2dVertex
 10
143.350885
 20
690.778721
 30
0.0
  0
VERTEX
  5
5FD
100
AcDbEntity
  8
001
100
AcDbVertex
100
AcDb2dVertex
 10
143.504307
 20
690.52959
 30
0.0
  0
VERTEX
  5
5FE
100
AcDbEntity
  8
001
100
AcDbVertex
100
AcDb2dVertex
 10
143.699555
 20
690.288254
 30
0.0
  0
VERTEX
  5
5FF
100
AcDbEntity
  8
001
100
AcDbVertex
100
AcDb2dVertex
 10
143.935142
 20
690.056549
 30
0.0
  0
VERTEX
  5
600
100
AcDbEntity
  8
001
100
AcDbVertex
100
AcDb2dVertex
 10
144.209276
 20
689.836238
 30
0.0
  0
VERTEX
  5
601
100
AcDbEntity
  8
001
100
AcDbVertex
100
AcDb2dVertex
 10
144.51987
 20
689.628998
 30
0.0
  0
VERTEX
  5
602
100
AcDbEntity
  8
001
100
AcDbVertex
100
AcDb2dVertex
 10
144.864561
 20
689.436406
 30
0.0
  0
VERTEX
  5
603
100
AcDbEntity
  8
001
100
AcDbVertex
100
AcDb2dVertex
 10
145.240725
 20
689.259928
 30
0.0
  0
VERTEX
  5
604
100
AcDbEntity
  8
001
100
AcDbVertex
100
AcDb2dVertex
 10
145.645499
 20
689.100907
 30
0.0
  0
VERTEX
  5
605
100
AcDbEntity
  8
001
100
AcDbVertex
100
AcDb2dVertex
 10
146.075803
 20
688.960553
 30
0.0
  0
VERTEX
  5
606
100
AcDbEntity
  8
001
100
AcDbVertex
100
AcDb2dVertex
 10
146.528362
 20
688.839935
 30
0.0
  0
VERTEX
  5
607
100
AcDbEntity
  8
001
100
AcDbVertex
100
AcDb2dVertex
 10
146.999731
 20
688.73997
 30
0.0
  0
VERTEX
  5
608
100
AcDbEntity
  8
001
100
AcDbVertex
100
AcDb2dVertex
 10
147.486324
 20
688.66142
 30
0.0
  0
VERTEX
  5
609
100
AcDbEntity
  8
001
100
AcDbVertex
100
AcDb2dVertex
 10
147.984437
 20
688.604882
 30
0.0
  0
VERTEX
  5
60A
100
AcDbEntity
  8
001
100
AcDbVertex
100
AcDb2dVertex
 10
148.490279
 20
688.570785
 30
0.0
  0
VERTEX
  5
60B
100
AcDbEntity
  8
001
100
AcDbVertex
100
AcDb2dVertex
 10
149.0
 20
688.559391
 30
0.0
  0
SEQEND
  5
60C
100
AcDbEntity
  8
001
  0
LINE
  5
60D
100
AcDbEntity
  8
001
100
AcDbLine
 10
155.183458
 20
697.944644
 30
0.0
 11
155.183458
 21
690.481535
 31
0.0
  0
POLYLINE
  5
60E
100
AcDbEntity
  8
001
100
AcDb2dPolyline
 66
     1
 10
0.0
 20
0.0
 30
0.0
  0
VERTEX
  5
60F
100
AcDbEntity
  8
001
100
AcDbVertex
100
AcDb2dVertex
 10
155.183458
 20
697.944644
 30
0.0
  0
VERTEX
  5
610
100
AcDbEntity
  8
001
100
AcDbVertex
100
AcDb2dVertex
 10
155.161203
 20
698.329459
 30
0.0
  0
VERTEX
  5
611
100
AcDbEntity
  8
001
100
AcDbVertex
100
AcDb2dVertex
 10
155.094608
 20
698.711345
 30
0.0
  0
VERTEX
  5
612
100
AcDbEntity
  8
001
100
AcDbVertex
100
AcDb2dVertex
 10
154.984179
 20
699.087395
 30
0.0
  0
VERTEX
  5
613
100
AcDbEntity
  8
001
100
AcDbVertex
100
AcDb2dVertex
 10
154.830757
 20
699.454749
 30
0.0
  0
VERTEX
  5
614
100
AcDbEntity
  8
001
100
AcDbVertex
100
AcDb2dVertex
 10
154.635509
 20
699.81061
 30
0.0
  0
VERTEX
  5
615
100
AcDbEntity
  8
001
100
AcDbVertex
100
AcDb2dVertex
 10
154.399922
 20
700.15227
 30
0.0
  0
VERTEX
  5
616
100
AcDbEntity
  8
001
100
AcDbVertex
100
AcDb2dVertex
 10
154.125788
 20
700.477128
 30
0.0
  0
VERTEX
  5
617
100
AcDbEntity
  8
001
100
AcDbVertex
100
AcDb2dVertex
 10
153.815194
 20
700.782713
 30
0.0
  0
VERTEX
  5
618
100
AcDbEntity
  8
001
100
AcDbVertex
100
AcDb2dVertex
 10
153.470503
 20
701.066698
 30
0.0
  0
VERTEX
  5
619
100
AcDbEntity
  8
001
100
AcDbVertex
100
AcDb2dVertex
 10
153.094339
 20
701.326923
 30
0.0
  0
VERTEX
  5
61A
100
AcDbEntity
  8
001
100
AcDbVertex
100
AcDb2dVertex
 10
152.689565
 20
701.561406
 30
0.0
  0
VERTEX
  5
61B
100
AcDbEntity
  8
001
100
AcDbVertex
100
AcDb2dVertex
 10
152.259261
 20
701.768364
 30
0.0
  0
VERTEX
  5
61C
100
AcDbEntity
  8
001
100
AcDbVertex
100
AcDb2dVertex
 10
151.806702
 20
701.946221
 30
0.0
  0
VERTEX
  5
61D
100
AcDbEntity
  8
001
100
AcDbVertex
100
AcDb2dVertex
 10
151.335333
 20
702.093623
 30
0.0
  0
VERTEX
  5
61E
100
AcDbEntity
  8
001
100
AcDbVertex
100
AcDb2dVertex
 10
150.84874
 20
702.209449
 30
0.0
  0
VERTEX
  5
61F
100
AcDbEntity
  8
001
100
AcDbVertex
100
AcDb2dVertex
 10
150.350627
 20
702.292818
 30
0.0
  0
VERTEX
  5
620
100
AcDbEntity
  8
001
100
AcDbVertex
100
AcDb2dVertex
 10
149.844785
 20
702.343094
 30
0.0
  0
VERTEX
  5
621
100
AcDbEntity
  8
001
100
AcDbVertex
100
AcDb2dVertex
 10
149.335064
 20
702.359895
 30
0.0
  0
SEQEND
  5
622
100
AcDbEntity
  8
001
  0
POLYLINE
  5
623
100
AcDbEntity
  8
001
100
AcDb2dPolyline
 66
     1
 10
0.0
 20
0.0
 30
0.0
  0
VERTEX
  5
624
100
AcDbEntity
  8
001
100
AcDbVertex
100
AcDb2dVertex
 10
149.0
 20
701.053931
 30
0.0
  0
VERTEX
  5
625
100
AcDbEntity
  8
001
100
AcDbVertex
100
AcDb2dVertex
 10
148.490279
 20
701.046171
 30
0.0
  0
VERTEX
  5
626
100
AcDbEntity
  8
001
100
AcDbVertex
100
AcDb2dVertex
 10
147.984437
 20
701.02295
 30
0.0
  0
VERTEX
  5
627
100
AcDbEntity
  8
001
100
AcDbVertex
100
AcDb2dVertex
 10
147.486324
 20
700.984444
 30
0.0
  0
VERTEX
  5
628
100
AcDbEntity
  8
001
100
AcDbVertex
100
AcDb2dVertex
 10
146.999731
 20
700.930948
 30
0.0
  0
VERTEX
  5
629
100
AcDbEntity
  8
001
100
AcDbVertex
100
AcDb2dVertex
 10
146.528362
 20
700.862868
 30
0.0
  0
VERTEX
  5
62A
100
AcDbEntity
  8
001
100
AcDbVertex
100
AcDb2dVertex
 10
146.075803
 20
700.780721
 30
0.0
  0
VERTEX
  5
62B
100
AcDbEntity
  8
001
100
AcDbVertex
100
AcDb2dVertex
 10
145.645499
 20
700.685134
 30
0.0
  0
VERTEX
  5
62C
100
AcDbEntity
  8
001
100
AcDbVertex
100
AcDb2dVertex
 10
145.240725
 20
700.576834
 30
0.0
  0
VERTEX
  5
62D
100
AcDbEntity
  8
001
100
AcDbVertex
100
AcDb2dVertex
 10
144.864561
 20
700.456645
 30
0.0
  0
VERTEX
  5
62E
100
AcDbEntity
  8
001
100
AcDbVertex
100
AcDb2dVertex
 10
144.51987
 20
700.325481
 30
0.0
  0
VERTEX
  5
62F
100
AcDbEntity
  8
001
100
AcDbVertex
100
AcDb2dVertex
 10
144.209276
 20
700.184341
 30
0.0
  0
VERTEX
  5
630
100
AcDbEntity
  8
001
100
AcDbVertex
100
AcDb2dVertex
 10
143.935142
 20
700.0343
 30
0.0
  0
VERTEX
  5
631
100
AcDbEntity
  8
001
100
AcDbVertex
100
AcDb2dVertex
 10
143.699555
 20
699.876498
 30
0.0
  0
VERTEX
  5
632
100
AcDbEntity
  8
001
100
AcDbVertex
100
AcDb2dVertex
 10
143.504307
 20
699.712138
 30
0.0
  0
VERTEX
  5
633
100
AcDbEntity
  8
001
100
AcDbVertex
100
AcDb2dVertex
 10
143.350885
 20
699.542469
 30
0.0
  0
VERTEX
  5
634
100
AcDbEntity
  8
001
100
AcDbVertex
100
AcDb2dVertex
 10
143.240456
 20
699.368783
 30
0.0
  0
VERTEX
  5
635
100
AcDbEntity
  8
001
100
AcDbVertex
100
AcDb2dVertex
 10
143.173861
 20
699.192403
 30
0.0
  0
VERTEX
  5
636
100
AcDbEntity
  8
001
100
AcDbVertex
100
AcDb2dVertex
 10
143.151606
 20
699.014669
 30
0.0
  0
SEQEND
  5
637
100
AcDbEntity
  8
001
  0
POLYLINE
  5
638
100
AcDbEntity
  8
001
100
AcDb2dPolyline
 66
     1
 10
0.0
 20
0.0
 30
0.0
  0
VERTEX
  5
639
100
AcDbEntity
  8
001
100
AcDbVertex
100
AcDb2dVertex
 10
149.335064
 20
702.359895
 30
0.0
  0
VERTEX
  5
63A
100
AcDbEntity
  8
001
100
AcDbVertex
100
AcDb2dVertex
 10
148.795096
 20
702.351096
 30
0.0
  0
VERTEX
  5
63B
100
AcDbEntity
  8
001
100
AcDbVertex
100
AcDb2dVertex
 10
148.259741
 20
702.324773
 30
0.0
  0
VERTEX
  5
63C
100
AcDbEntity
  8
001
100
AcDbVertex
100
AcDb2dVertex
 10
147.733571
 20
702.281152
 30
0.0
  0
VERTEX
  5
63D
100
AcDbEntity
  8
001
100
AcDbVertex
100
AcDb2dVertex
 10
147.221083
 20
702.220605
 30
0.0
  0
VERTEX
  5
63E
100
AcDbEntity
  8
001
100
AcDbVertex
100
AcDb2dVertex
 10
146.726653
 20
702.14365
 30
0.0
  0
VERTEX
  5
63F
100
AcDbEntity
  8
001
100
AcDbVertex
100
AcDb2dVertex
 10
146.254507
 20
702.050943
 30
0.0
  0
VERTEX
  5
640
100
AcDbEntity
  8
001
100
AcDbVertex
100
AcDb2dVertex
 10
145.808676
 20
701.943277
 30
0.0
  0
VERTEX
  5
641
100
AcDbEntity
  8
001
100
AcDbVertex
100
AcDb2dVertex
 10
145.39297
 20
701.821571
 30
0.0
  0
VERTEX
  5
642
100
AcDbEntity
  8
001
100
AcDbVertex
100
AcDb2dVertex
 10
145.01094
 20
701.686865
 30
0.0
  0
VERTEX
  5
643
100
AcDbEntity
  8
001
100
AcDbVertex
100
AcDb2dVertex
 10
144.665849
 20
701.540311
 30
0.0
  0
VERTEX
  5
644
100
AcDbEntity
  8
001
100
AcDbVertex
100
AcDb2dVertex
 10
144.360646
 20
701.383159
 30
0.0
  0
VERTEX
  5
645
100
AcDbEntity
  8
001
100
AcDbVertex
100
AcDb2dVertex
 10
144.097937
 20
701.216753
 30
0.0
  0
VERTEX
  5
646
100
AcDbEntity
  8
001
100
AcDbVertex
100
AcDb2dVertex
 10
143.879967
 20
701.042513
 30
0.0
  0
VERTEX
  5
647
100
AcDbEntity
  8
001
100
AcDbVertex
100
AcDb2dVertex
 10
143.708598
 20
700.861929
 30
0.0
  0
VERTEX
  5
648
100
AcDbEntity
  8
001
100
AcDbVertex
100
AcDb2dVertex
 10
143.585294
 20
700.676543
 30
0.0
  0
VERTEX
  5
649
100
AcDbEntity
  8
001
100
AcDbVertex
100
AcDb2dVertex
 10
143.511107
 20
700.487939
 30
0.0
  0
SEQEND
  5
64A
100
AcDbEntity
  8
001
  0
POLYLINE
  5
64B
100
AcDbEntity
  8
001
100
AcDb2dPolyline
 66
     1
 10
0.0
 20
0.0
 30
0.0
  0
VERTEX
  5
64C
100
AcDbEntity
  8
001
100
AcDbVertex
100
AcDb2dVertex
 10
155.181285
 20
690.464853
 30
0.0
  0
VERTEX
  5
64D
100
AcDbEntity
  8
001
100
AcDbVertex
100
AcDb2dVertex
 10
155.183458
 20
690.481535
 30
0.0
  0
SEQEND
  5
64E
100
AcDbEntity
  8
001
  0
POLYLINE
  5
64F
100
AcDbEntity
  8
001
100
AcDb2dPolyline
 66
     1
 10
0.0
 20
0.0
 30
0.0
  0
VERTEX
  5
650
100
AcDbEntity
  8
001
100
AcDbVertex
100
AcDb2dVertex
 10
149.0
 20
688.559391
 30
0.0
  0
VERTEX
  5
651
100
AcDbEntity
  8
001
100
AcDbVertex
100
AcDb2dVertex
 10
149.539622
 20
688.562108
 30
0.0
  0
VERTEX
  5
652
100
AcDbEntity
  8
001
100
AcDbVertex
100
AcDb2dVertex
 10
150.07464
 20
688.570234
 30
0.0
  0
VERTEX
  5
653
100
AcDbEntity
  8
001
100
AcDbVertex
100
AcDb2dVertex
 10
150.600489
 20
688.5837
 30
0.0
  0
VERTEX
  5
654
100
AcDbEntity
  8
001
100
AcDbVertex
100
AcDb2dVertex
 10
151.112684
 20
688.602391
 30
0.0
  0
VERTEX
  5
655
100
AcDbEntity
  8
001
100
AcDbVertex
100
AcDb2dVertex
 10
151.606853
 20
688.626149
 30
0.0
  0
VERTEX
  5
656
100
AcDbEntity
  8
001
100
AcDbVertex
100
AcDb2dVertex
 10
152.078783
 20
688.65477
 30
0.0
  0
VERTEX
  5
657
100
AcDbEntity
  8
001
100
AcDbVertex
100
AcDb2dVertex
 10
152.524445
 20
688.688009
 30
0.0
  0
VERTEX
  5
658
100
AcDbEntity
  8
001
100
AcDbVertex
100
AcDb2dVertex
 10
152.940038
 20
688.725585
 30
0.0
  0
VERTEX
  5
659
100
AcDbEntity
  8
001
100
AcDbVertex
100
AcDb2dVertex
 10
153.322015
 20
688.767175
 30
0.0
  0
VERTEX
  5
65A
100
AcDbEntity
  8
001
100
AcDbVertex
100
AcDb2dVertex
 10
153.667119
 20
688.812425
 30
0.0
  0
VERTEX
  5
65B
100
AcDbEntity
  8
001
100
AcDbVertex
100
AcDb2dVertex
 10
153.972405
 20
688.860949
 30
0.0
  0
VERTEX
  5
65C
100
AcDbEntity
  8
001
100
AcDbVertex
100
AcDb2dVertex
 10
154.235268
 20
688.912333
 30
0.0
  0
VERTEX
  5
65D
100
AcDbEntity
  8
001
100
AcDbVertex
100
AcDb2dVertex
 10
154.453465
 20
688.966138
 30
0.0
  0
VERTEX
  5
65E
100
AcDbEntity
  8
001
100
AcDbVertex
100
AcDb2dVertex
 10
154.625135
 20
689.021906
 30
0.0
  0
VERTEX
  5
65F
100
AcDbEntity
  8
001
100
AcDbVertex
100
AcDb2dVertex
 10
154.748814
 20
689.079161
 30
0.0
  0
VERTEX
  5
660
100
AcDbEntity
  8
001
100
AcDbVertex
100
AcDb2dVertex
 10
154.823446
 20
689.137415
 30
0.0
  0
VERTEX
  5
661
100
AcDbEntity
  8
001
100
AcDbVertex
100
AcDb2dVertex
 10
154.848394
 20
689.196169
 30
0.0
  0
SEQEND
  5
662
100
AcDbEntity
  8
001
  0
LINE
  5
663
100
AcDbEntity
  8
001
100
AcDbLine
 10
154.846042
 20
689.178113
 30
0.0
 11
155.181285
 21
690.464853
 31
0.0
  0
LINE
  5
664
100
AcDbEntity
  8
001
100
AcDbLine
 10
143.175555
 20
699.199029
 30
0.0
 11
143.511107
 21
700.487939
 31
0.0
  0
LINE
  5
665
100
AcDbEntity
  8
001
100
AcDbLine
 10
159.0
 20
686.936826
 30
0.0
 11
151.624271
 21
688.627097
 31
0.0
  0
LINE
  5
666
100
AcDbEntity
  8
001
100
AcDbLine
 10
143.540878
 20
690.479541
 30
0.0
 11
137.329872
 21
691.902897
 31
0.0
  0
LINE
  5
667
100
AcDbEntity
  8
001
100
AcDbLine
 10
192.0
 20
788.982749
 30
0.0
 11
182.0
 21
788.982749
 31
0.0
  0
LINE
  5
668
100
AcDbEntity
  8
001
100
AcDbLine
 10
195.0
 20
775.534775
 30
0.0
 11
195.0
 21
785.982749
 31
0.0
  0
ARC
  5
669
100
AcDbEntity
  8
001
100
AcDbCircle
 10
182.0
 20
785.982749
 30
0.0
 40
3.0
100
AcDbArc
 50
90.0
 51
180.0
  0
ARC
  5
66A
100
AcDbEntity
  8
001
100
AcDbCircle
 10
192.0
 20
785.982749
 30
0.0
 40
3.0
100
AcDbArc
 50
0.0
 51
90.0
  0
LINE
  5
66B
100
AcDbEntity
  8
001
100
AcDbLine
 10
186.0
 20
784.436826
 30
0.0
 11
186.0
 21
777.473383
 31
0.0
  0
ARC
  5
66C
100
AcDbEntity
  8
001
100
AcDbCircle
 10
189.0
 20
777.473383
 30
0.0
 40
3.0
100
AcDbArc
 50
180.0
 51
280.504554
  0
LINE
  5
66D
100
AcDbEntity
  8
001
100
AcDbLine
 10
184.0
 20
786.436826
 30
0.0
 11
181.0
 21
786.436826
 31
0.0
  0
ARC
  5
66E
100
AcDbEntity
  8
001
100
AcDbCircle
 10
181.0
 20
784.436826
 30
0.0
 40
2.0
100
AcDbArc
 50
90.0
 51
180.0
  0
ARC
  5
66F
100
AcDbEntity
  8
001
100
AcDbCircle
 10
184.0
 20
784.436826
 30
0.0
 40
2.0
100
AcDbArc
 50
0.0
 51
90.0
  0
ARC
  5
670
100
AcDbEntity
  8
001
100
AcDbCircle
 10
529.0
 20
777.473383
 30
0.0
 40
3.0
100
AcDbArc
 50
259.495446
 51
0.0
  0
LINE
  5
671
100
AcDbEntity
  8
001
100
AcDbLine
 10
532.0
 20
779.406201
 30
0.0
 11
532.0
 21
777.473383
 31
0.0
  0
LINE
  5
672
100
AcDbEntity
  8
001
100
AcDbLine
 10
186.0
 20
683.467451
 30
0.0
 11
186.0
 21
685.400269
 31
0.0
  0
ARC
  5
673
100
AcDbEntity
  8
001
100
AcDbCircle
 10
189.0
 20
685.400269
 30
0.0
 40
3.0
100
AcDbArc
 50
79.495446
 51
180.0
  0
LINE
  5
674
100
AcDbEntity
  8
001
100
AcDbLine
 10
536.0
 20
259.130749
 30
0.0
 11
517.5
 21
259.130749
 31
0.0
  0
ARC
  5
675
100
AcDbEntity
  8
001
100
AcDbCircle
 10
517.5
 20
260.130749
 30
0.0
 40
1.0
100
AcDbArc
 50
180.0
 51
270.0
  0
ARC
  5
676
100
AcDbEntity
  8
001
100
AcDbCircle
 10
536.0
 20
256.130749
 30
0.0
 40
3.0
100
AcDbArc
 50
0.0
 51
90.0
  0
LINE
  5
677
100
AcDbEntity
  8
001
100
AcDbLine
 10
196.0
 20
259.130749
 30
0.0
 11
200.5
 21
259.130749
 31
0.0
  0
ARC
  5
678
100
AcDbEntity
  8
001
100
AcDbCircle
 10
200.5
 20
260.130749
 30
0.0
 40
1.0
100
AcDbArc
 50
270.0
 51
0.0
  0
ARC
  5
679
100
AcDbEntity
  8
001
100
AcDbCircle
 10
196.0
 20
260.130749
 30
0.0
 40
1.0
100
AcDbArc
 50
180.0
 51
270.0
  0
LINE
  5
67A
100
AcDbEntity
  8
001
100
AcDbLine
 10
517.5
 20
215.285631
 30
0.0
 11
522.0
 21
215.285631
 31
0.0
  0
ARC
  5
67B
100
AcDbEntity
  8
001
100
AcDbCircle
 10
522.0
 20
214.285631
 30
0.0
 40
1.0
100
AcDbArc
 50
0.0
 51
90.0
  0
ARC
  5
67C
100
AcDbEntity
  8
001
100
AcDbCircle
 10
517.5
 20
214.285631
 30
0.0
 40
1.0
100
AcDbArc
 50
90.0
 51
180.0
  0
LINE
  5
67D
100
AcDbEntity
  8
001
100
AcDbLine
 10
182.026171
 20
215.285631
 30
0.0
 11
200.5
 21
215.285631
 31
0.0
  0
ARC
  5
67E
100
AcDbEntity
  8
001
100
AcDbCircle
 10
200.5
 20
214.285631
 30
0.0
 40
1.0
100
AcDbArc
 50
0.0
 51
90.0
  0
ARC
  5
67F
100
AcDbEntity
  8
001
100
AcDbCircle
 10
182.026171
 20
218.285631
 30
0.0
 40
3.0
100
AcDbArc
 50
186.965494
 51
270.0
  0
LINE
  5
680
100
AcDbEntity
  8
001
100
AcDbLine
 10
186.0
 20
263.036557
 30
0.0
 11
186.0
 21
265.817029
 31
0.0
  0
LINE
  5
681
100
AcDbEntity
  8
001
100
AcDbLine
 10
536.0
 20
779.406201
 30
0.0
 11
517.5
 21
779.406201
 31
0.0
  0
ARC
  5
682
100
AcDbEntity
  8
001
100
AcDbCircle
 10
517.5
 20
780.406201
 30
0.0
 40
1.0
100
AcDbArc
 50
180.0
 51
270.0
  0
ARC
  5
683
100
AcDbEntity
  8
001
100
AcDbCircle
 10
536.0
 20
776.406201
 30
0.0
 40
3.0
100
AcDbArc
 50
0.0
 51
90.0
  0
LINE
  5
684
100
AcDbEntity
  8
001
100
AcDbLine
 10
196.0
 20
779.406201
 30
0.0
 11
200.5
 21
779.406201
 31
0.0
  0
ARC
  5
685
100
AcDbEntity
  8
001
100
AcDbCircle
 10
200.5
 20
780.406201
 30
0.0
 40
1.0
100
AcDbArc
 50
270.0
 51
0.0
  0
ARC
  5
686
100
AcDbEntity
  8
001
100
AcDbCircle
 10
196.0
 20
780.406201
 30
0.0
 40
1.0
100
AcDbArc
 50
180.0
 51
270.0
  0
LINE
  5
687
100
AcDbEntity
  8
001
100
AcDbLine
 10
517.5
 20
683.467451
 30
0.0
 11
522.0
 21
683.467451
 31
0.0
  0
ARC
  5
688
100
AcDbEntity
  8
001
100
AcDbCircle
 10
522.0
 20
682.467451
 30
0.0
 40
1.0
100
AcDbArc
 50
0.0
 51
90.0
  0
ARC
  5
689
100
AcDbEntity
  8
001
100
AcDbCircle
 10
517.5
 20
682.467451
 30
0.0
 40
1.0
100
AcDbArc
 50
90.0
 51
180.0
  0
LINE
  5
68A
100
AcDbEntity
  8
001
100
AcDbLine
 10
182.0
 20
683.467451
 30
0.0
 11
200.5
 21
683.467451
 31
0.0
  0
ARC
  5
68B
100
AcDbEntity
  8
001
100
AcDbCircle
 10
200.5
 20
682.467451
 30
0.0
 40
1.0
100
AcDbArc
 50
0.0
 51
90.0
  0
ARC
  5
68C
100
AcDbEntity
  8
001
100
AcDbCircle
 10
182.0
 20
686.467451
 30
0.0
 40
3.0
100
AcDbArc
 50
180.0
 51
270.0
  0
ARC
  5
68D
100
AcDbEntity
  8
001
100
AcDbCircle
 10
169.5
 20
264.5
 30
0.0
 40
3.0
100
AcDbArc
 50
270.0
 51
346.840838
  0
LINE
  5
68E
100
AcDbEntity
  8
001
100
AcDbLine
 10
807.0
 20
406.6
 30
0.0
 11
829.0
 21
406.6
 31
0.0
  0
LINE
  5
68F
100
AcDbEntity
  8
001
100
AcDbLine
 10
807.0
 20
406.6
 30
0.0
 11
808.962991
 21
410.0
 31
0.0
  0
LINE
  5
690
100
AcDbEntity
  8
001
100
AcDbLine
 10
829.0
 20
406.6
 30
0.0
 11
827.037009
 21
410.0
 31
0.0
  0
LINE
  5
691
100
AcDbEntity
  8
001
100
AcDbLine
 10
370.0
 20
406.6
 30
0.0
 11
368.037009
 21
410.0
 31
0.0
  0
LINE
  5
692
100
AcDbEntity
  8
001
100
AcDbLine
 10
370.0
 20
406.6
 30
0.0
 11
348.0
 21
406.6
 31
0.0
  0
LINE
  5
693
100
AcDbEntity
  8
001
100
AcDbLine
 10
348.0
 20
406.6
 30
0.0
 11
349.962991
 21
410.0
 31
0.0
  0
CIRCLE
  5
694
100
AcDbEntity
  8
001
100
AcDbCircle
 10
408.0
 20
681.436826
 30
0.0
 40
12.0
  0
CIRCLE
  5
695
100
AcDbEntity
  8
001
100
AcDbCircle
 10
310.0
 20
681.436826
 30
0.0
 40
6.0
  0
CIRCLE
  5
696
100
AcDbEntity
  8
001
100
AcDbCircle
 10
310.0
 20
681.436826
 30
0.0
 40
9.0
  0
LINE
  5
697
100
AcDbEntity
  8
001
100
AcDbLine
 10
315.484828
 20
671.936826
 30
0.0
 11
304.515172
 21
671.936826
 31
0.0
  0
LINE
  5
698
100
AcDbEntity
  8
001
100
AcDbLine
 10
315.484828
 20
690.936826
 30
0.0
 11
304.515172
 21
690.936826
 31
0.0
  0
LINE
  5
699
100
AcDbEntity
  8
001
100
AcDbLine
 10
299.030345
 20
681.436826
 30
0.0
 11
304.515172
 21
671.936826
 31
0.0
  0
LINE
  5
69A
100
AcDbEntity
  8
001
100
AcDbLine
 10
320.969655
 20
681.436826
 30
0.0
 11
315.484828
 21
690.936826
 31
0.0
  0
LINE
  5
69B
100
AcDbEntity
  8
001
100
AcDbLine
 10
304.515172
 20
690.936826
 30
0.0
 11
299.030345
 21
681.436826
 31
0.0
  0
LINE
  5
69C
100
AcDbEntity
  8
001
100
AcDbLine
 10
315.484828
 20
671.936826
 30
0.0
 11
320.969655
 21
681.436826
 31
0.0
  0
CIRCLE
  5
69D
100
AcDbEntity
  8
001
100
AcDbCircle
 10
310.0
 20
681.436826
 30
0.0
 40
5.055
  0
ARC
  5
69E
100
AcDbEntity
  8
001
  6
CENTER
100
AcDbCircle
 10
330.745559
 20
691.951314
 30
0.0
 40
23.25796
100
AcDbArc
 50
190.837621
 51
246.015408
  0
LINE
  5
69F
100
AcDbEntity
  8
001
  6
CENTER
100
AcDbLine
 10
324.048634
 20
688.557106
 30
0.0
 11
295.951366
 21
674.316546
 31
0.0
  0
ARC
  5
6A0
100
AcDbEntity
  8
001
  6
CENTER
100
AcDbCircle
 10
537.0
 20
731.436826
 30
0.0
 40
233.25796
100
AcDbArc
 50
188.554495
 51
190.837621
  0
CIRCLE
  5
6A1
100
AcDbEntity
  8
001
100
AcDbCircle
 10
310.0
 20
681.436826
 30
0.0
 40
12.0
  0
CIRCLE
  5
6A2
100
AcDbEntity
  8
001
100
AcDbCircle
 10
408.0
 20
781.436826
 30
0.0
 40
6.0
  0
CIRCLE
  5
6A3
100
AcDbEntity
  8
001
100
AcDbCircle
 10
408.0
 20
781.436826
 30
0.0
 40
9.0
  0
LINE
  5
6A4
100
AcDbEntity
  8
001
100
AcDbLine
 10
402.515172
 20
790.936826
 30
0.0
 11
413.484828
 21
790.936826
 31
0.0
  0
LINE
  5
6A5
100
AcDbEntity
  8
001
100
AcDbLine
 10
402.515172
 20
771.936826
 30
0.0
 11
413.484828
 21
771.936826
 31
0.0
  0
LINE
  5
6A6
100
AcDbEntity
  8
001
100
AcDbLine
 10
418.969655
 20
781.436826
 30
0.0
 11
413.484828
 21
790.936826
 31
0.0
  0
LINE
  5
6A7
100
AcDbEntity
  8
001
100
AcDbLine
 10
397.030345
 20
781.436826
 30
0.0
 11
402.515172
 21
771.936826
 31
0.0
  0
LINE
  5
6A8
100
AcDbEntity
  8
001
100
AcDbLine
 10
413.484828
 20
771.936826
 30
0.0
 11
418.969655
 21
781.436826
 31
0.0
  0
LINE
  5
6A9
100
AcDbEntity
  8
001
100
AcDbLine
 10
402.515172
 20
790.936826
 30
0.0
 11
397.030345
 21
781.436826
 31
0.0
  0
CIRCLE
  5
6AA
100
AcDbEntity
  8
001
100
AcDbCircle
 10
408.0
 20
781.436826
 30
0.0
 40
5.055
  0
ARC
  5
6AB
100
AcDbEntity
  8
001
  6
CENTER
100
AcDbCircle
 10
387.254441
 20
770.922338
 30
0.0
 40
23.25796
100
AcDbArc
 50
10.837621
 51
66.015408
  0
LINE
  5
6AC
100
AcDbEntity
  8
001
  6
CENTER
100
AcDbLine
 10
393.951366
 20
774.316546
 30
0.0
 11
422.048634
 21
788.557106
 31
0.0
  0
ARC
  5
6AD
100
AcDbEntity
  8
001
  6
CENTER
100
AcDbCircle
 10
181.0
 20
731.436826
 30
0.0
 40
233.25796
100
AcDbArc
 50
8.554495
 51
10.837621
  0
CIRCLE
  5
6AE
100
AcDbEntity
  8
001
100
AcDbCircle
 10
408.0
 20
781.436826
 30
0.0
 40
12.0
  0
CIRCLE
  5
6AF
100
AcDbEntity
  8
001
100
AcDbCircle
 10
310.0
 20
781.436826
 30
0.0
 40
6.0
  0
CIRCLE
  5
6B0
100
AcDbEntity
  8
001
100
AcDbCircle
 10
310.0
 20
781.436826
 30
0.0
 40
9.0
  0
LINE
  5
6B1
100
AcDbEntity
  8
001
100
AcDbLine
 10
315.484828
 20
790.936826
 30
0.0
 11
304.515172
 21
790.936826
 31
0.0
  0
LINE
  5
6B2
100
AcDbEntity
  8
001
100
AcDbLine
 10
315.484828
 20
771.936826
 30
0.0
 11
304.515172
 21
771.936826
 31
0.0
  0
LINE
  5
6B3
100
AcDbEntity
  8
001
100
AcDbLine
 10
299.030345
 20
781.436826
 30
0.0
 11
304.515172
 21
790.936826
 31
0.0
  0
LINE
  5
6B4
100
AcDbEntity
  8
001
100
AcDbLine
 10
320.969655
 20
781.436826
 30
0.0
 11
315.484828
 21
771.936826
 31
0.0
  0
LINE
  5
6B5
100
AcDbEntity
  8
001
100
AcDbLine
 10
304.515172
 20
771.936826
 30
0.0
 11
299.030345
 21
781.436826
 31
0.0
  0
LINE
  5
6B6
100
AcDbEntity
  8
001
100
AcDbLine
 10
315.484828
 20
790.936826
 30
0.0
 11
320.969655
 21
781.436826
 31
0.0
  0
CIRCLE
  5
6B7
100
AcDbEntity
  8
001
100
AcDbCircle
 10
310.0
 20
781.436826
 30
0.0
 40
5.055
  0
ARC
  5
6B8
100
AcDbEntity
  8
001
  6
CENTER
100
AcDbCircle
 10
330.745559
 20
770.922338
 30
0.0
 40
23.25796
100
AcDbArc
 50
113.984592
 51
169.162379
  0
LINE
  5
6B9
100
AcDbEntity
  8
001
  6
CENTER
100
AcDbLine
 10
324.048634
 20
774.316546
 30
0.0
 11
295.951366
 21
788.557106
 31
0.0
  0
ARC
  5
6BA
100
AcDbEntity
  8
001
  6
CENTER
100
AcDbCircle
 10
537.0
 20
731.436826
 30
0.0
 40
233.25796
100
AcDbArc
 50
169.162379
 51
171.445505
  0
CIRCLE
  5
6BB
100
AcDbEntity
  8
001
100
AcDbCircle
 10
310.0
 20
781.436826
 30
0.0
 40
12.0
  0
LINE
  5
6BC
100
AcDbEntity
  8
001
100
AcDbLine
 10
322.0
 20
301.0
 30
0.0
 11
322.0
 21
298.7
 31
0.0
  0
LINE
  5
6BD
100
AcDbEntity
  8
001
100
AcDbLine
 10
298.0
 20
301.0
 30
0.0
 11
298.0
 21
298.7
 31
0.0
  0
LINE
  5
6BE
100
AcDbEntity
  8
001
100
AcDbLine
 10
298.0
 20
328.0
 30
0.0
 11
298.0
 21
330.3
 31
0.0
  0
LINE
  5
6BF
100
AcDbEntity
  8
001
100
AcDbLine
 10
322.0
 20
328.0
 30
0.0
 11
322.0
 21
330.3
 31
0.0
  0
LINE
  5
6C0
100
AcDbEntity
  8
001
100
AcDbLine
 10
298.0
 20
298.7
 30
0.0
 11
322.0
 21
298.7
 31
0.0
  0
LINE
  5
6C1
100
AcDbEntity
  8
001
100
AcDbLine
 10
298.0
 20
330.3
 30
0.0
 11
322.0
 21
330.3
 31
0.0
  0
ARC
  5
6C2
100
AcDbEntity
  8
001
100
AcDbCircle
 10
416.227224
 20
295.844745
 30
0.0
 40
4.856074
100
AcDbArc
 50
235.615874
 51
295.615745
  0
ARC
  5
6C3
100
AcDbEntity
  8
001
100
AcDbCircle
 10
407.99999
 20
309.140186
 30
0.0
 40
18.151531
100
AcDbArc
 50
252.412085
 51
287.587927
  0
LINE
  5
6C4
100
AcDbEntity
  8
001
100
AcDbLine
 10
416.999998
 20
290.7
 30
0.0
 11
418.969648
 21
291.837177
 31
0.0
  0
LINE
  5
6C5
100
AcDbEntity
  8
001
100
AcDbLine
 10
418.969648
 20
298.7
 30
0.0
 11
418.969648
 21
291.837177
 31
0.0
  0
LINE
  5
6C6
100
AcDbEntity
  8
001
100
AcDbLine
 10
413.484823
 20
298.7
 30
0.0
 11
413.484823
 21
291.837177
 31
0.0
  0
LINE
  5
6C7
100
AcDbEntity
  8
001
100
AcDbLine
 10
416.999998
 20
290.7
 30
0.0
 11
398.999987
 21
290.7
 31
0.0
  0
LINE
  5
6C8
100
AcDbEntity
  8
001
  6
CENTER
100
AcDbLine
 10
408.0
 20
286.95
 30
0.0
 11
408.0
 21
352.45
 31
0.0
  0
LINE
  5
6C9
100
AcDbEntity
  8
001
100
AcDbLine
 10
420.0
 20
301.0
 30
0.0
 11
420.0
 21
298.7
 31
0.0
  0
LINE
  5
6CA
100
AcDbEntity
  8
001
100
AcDbLine
 10
420.0
 20
298.7
 30
0.0
 11
396.0
 21
298.7
 31
0.0
  0
ARC
  5
6CB
100
AcDbEntity
  8
001
100
AcDbCircle
 10
399.772768
 20
295.844745
 30
0.0
 40
4.856074
100
AcDbArc
 50
244.384255
 51
304.3842
  0
LINE
  5
6CC
100
AcDbEntity
  8
001
100
AcDbLine
 10
399.000002
 20
290.7
 30
0.0
 11
397.030352
 21
291.837177
 31
0.0
  0
LINE
  5
6CD
100
AcDbEntity
  8
001
100
AcDbLine
 10
402.515169
 20
298.7
 30
0.0
 11
402.515169
 21
291.837177
 31
0.0
  0
LINE
  5
6CE
100
AcDbEntity
  8
001
100
AcDbLine
 10
397.030352
 20
298.7
 30
0.0
 11
397.030352
 21
291.837177
 31
0.0
  0
LINE
  5
6CF
100
AcDbEntity
  8
001
100
AcDbLine
 10
396.0
 20
301.0
 30
0.0
 11
396.0
 21
298.7
 31
0.0
  0
ARC
  5
6D0
100
AcDbEntity
  8
001
100
AcDbCircle
 10
416.227234
 20
335.155255
 30
0.0
 40
4.856074
100
AcDbArc
 50
64.384418
 51
124.3842
  0
ARC
  5
6D1
100
AcDbEntity
  8
001
100
AcDbCircle
 10
408.0
 20
321.859814
 30
0.0
 40
18.151531
100
AcDbArc
 50
72.412096
 51
107.58795
  0
ARC
  5
6D2
100
AcDbEntity
  8
001
100
AcDbCircle
 10
399.772766
 20
335.155255
 30
0.0
 40
4.856074
100
AcDbArc
 50
55.6158
 51
115.615582
  0
LINE
  5
6D3
100
AcDbEntity
  8
001
100
AcDbLine
 10
417.0
 20
340.3
 30
0.0
 11
418.96965
 21
339.162823
 31
0.0
  0
LINE
  5
6D4
100
AcDbEntity
  8
001
100
AcDbLine
 10
417.0
 20
340.3
 30
0.0
 11
399.0
 21
340.3
 31
0.0
  0
LINE
  5
6D5
100
AcDbEntity
  8
001
100
AcDbLine
 10
418.96965
 20
330.3
 30
0.0
 11
418.96965
 21
339.162823
 31
0.0
  0
LINE
  5
6D6
100
AcDbEntity
  8
001
100
AcDbLine
 10
413.484833
 20
330.3
 30
0.0
 11
413.484833
 21
339.162823
 31
0.0
  0
LINE
  5
6D7
100
AcDbEntity
  8
001
100
AcDbLine
 10
402.515167
 20
330.3
 30
0.0
 11
402.515167
 21
339.162823
 31
0.0
  0
LINE
  5
6D8
100
AcDbEntity
  8
001
100
AcDbLine
 10
414.0
 20
340.3
 30
0.0
 11
414.0
 21
346.7
 31
0.0
  0
LINE
  5
6D9
100
AcDbEntity
  8
001
100
AcDbLine
 10
402.0
 20
340.3
 30
0.0
 11
402.0
 21
346.7
 31
0.0
  0
LINE
  5
6DA
100
AcDbEntity
  8
001
100
AcDbLine
 10
402.945
 20
340.3
 30
0.0
 11
402.945
 21
347.328266
 31
0.0
  0
LINE
  5
6DB
100
AcDbEntity
  8
001
100
AcDbLine
 10
413.055
 20
340.3
 30
0.0
 11
413.055
 21
347.328266
 31
0.0
  0
LINE
  5
6DC
100
AcDbEntity
  8
001
100
AcDbLine
 10
420.0
 20
328.0
 30
0.0
 11
420.0
 21
330.3
 31
0.0
  0
LINE
  5
6DD
100
AcDbEntity
  8
001
100
AcDbLine
 10
420.0
 20
330.3
 30
0.0
 11
396.0
 21
330.3
 31
0.0
  0
LINE
  5
6DE
100
AcDbEntity
  8
001
100
AcDbLine
 10
399.0
 20
340.3
 30
0.0
 11
397.03035
 21
339.162823
 31
0.0
  0
LINE
  5
6DF
100
AcDbEntity
  8
001
100
AcDbLine
 10
397.03035
 20
330.3
 30
0.0
 11
397.03035
 21
339.162823
 31
0.0
  0
LINE
  5
6E0
100
AcDbEntity
  8
001
100
AcDbLine
 10
396.0
 20
328.0
 30
0.0
 11
396.0
 21
330.3
 31
0.0
  0
LINE
  5
6E1
100
AcDbEntity
  8
001
100
AcDbLine
 10
414.0
 20
346.7
 30
0.0
 11
402.0
 21
346.7
 31
0.0
  0
ARC
  5
6E2
100
AcDbEntity
  8
001
100
AcDbCircle
 10
408.0
 20
338.7
 30
0.0
 40
10.0
100
AcDbArc
 50
53.130102
 51
126.869898
  0
LINE
  5
6E3
100
AcDbEntity
  8
001
100
AcDbLine
 10
780.0
 20
328.0
 30
0.0
 11
780.0
 21
330.3
 31
0.0
  0
LINE
  5
6E4
100
AcDbEntity
  8
001
100
AcDbLine
 10
756.0
 20
328.0
 30
0.0
 11
756.0
 21
330.3
 31
0.0
  0
LINE
  5
6E5
100
AcDbEntity
  8
001
100
AcDbLine
 10
756.0
 20
330.3
 30
0.0
 11
780.0
 21
330.3
 31
0.0
  0
LINE
  5
6E6
100
AcDbEntity
  8
001
100
AcDbLine
 10
756.0
 20
298.7
 30
0.0
 11
780.0
 21
298.7
 31
0.0
  0
LINE
  5
6E7
100
AcDbEntity
  8
001
100
AcDbLine
 10
756.0
 20
301.0
 30
0.0
 11
756.0
 21
298.7
 31
0.0
  0
LINE
  5
6E8
100
AcDbEntity
  8
001
100
AcDbLine
 10
780.0
 20
301.0
 30
0.0
 11
780.0
 21
298.7
 31
0.0
  0
LINE
  5
6E9
100
AcDbEntity
  8
001
100
AcDbLine
 10
774.0
 20
340.3
 30
0.0
 11
774.0
 21
346.7
 31
0.0
  0
LINE
  5
6EA
100
AcDbEntity
  8
001
100
AcDbLine
 10
773.055
 20
340.3
 30
0.0
 11
773.055
 21
347.328266
 31
0.0
  0
LINE
  5
6EB
100
AcDbEntity
  8
001
100
AcDbLine
 10
762.0
 20
340.3
 30
0.0
 11
762.0
 21
346.7
 31
0.0
  0
LINE
  5
6EC
100
AcDbEntity
  8
001
100
AcDbLine
 10
762.945
 20
340.3
 30
0.0
 11
762.945
 21
347.328266
 31
0.0
  0
LINE
  5
6ED
100
AcDbEntity
  8
001
  6
CENTER
100
AcDbLine
 10
868.0
 20
286.95
 30
0.0
 11
868.0
 21
352.45
 31
0.0
  0
ARC
  5
6EE
100
AcDbEntity
  8
001
100
AcDbCircle
 10
872.75
 20
326.291608
 30
0.0
 40
13.719723
100
AcDbArc
 50
69.743897
 51
110.256103
  0
ARC
  5
6EF
100
AcDbEntity
  8
001
100
AcDbCircle
 10
863.25
 20
326.291608
 30
0.0
 40
13.719723
100
AcDbArc
 50
69.743897
 51
110.256103
  0
LINE
  5
6F0
100
AcDbEntity
  8
001
100
AcDbLine
 10
877.5
 20
340.011334
 30
0.0
 11
877.0
 21
340.3
 31
0.0
  0
LINE
  5
6F1
100
AcDbEntity
  8
001
100
AcDbLine
 10
858.5
 20
340.011334
 30
0.0
 11
859.0
 21
340.3
 31
0.0
  0
LINE
  5
6F2
100
AcDbEntity
  8
001
100
AcDbLine
 10
877.0
 20
340.3
 30
0.0
 11
859.0
 21
340.3
 31
0.0
  0
LINE
  5
6F3
100
AcDbEntity
  8
001
100
AcDbLine
 10
877.5
 20
330.3
 30
0.0
 11
877.5
 21
340.011334
 31
0.0
  0
LINE
  5
6F4
100
AcDbEntity
  8
001
100
AcDbLine
 10
868.0
 20
330.3
 30
0.0
 11
868.0
 21
339.162823
 31
0.0
  0
LINE
  5
6F5
100
AcDbEntity
  8
001
100
AcDbLine
 10
874.0
 20
346.7
 30
0.0
 11
862.0
 21
346.7
 31
0.0
  0
ARC
  5
6F6
100
AcDbEntity
  8
001
100
AcDbCircle
 10
868.0
 20
338.7
 30
0.0
 40
10.0
100
AcDbArc
 50
53.130102
 51
126.869898
  0
LINE
  5
6F7
100
AcDbEntity
  8
001
100
AcDbLine
 10
862.0
 20
340.3
 30
0.0
 11
862.0
 21
346.7
 31
0.0
  0
LINE
  5
6F8
100
AcDbEntity
  8
001
100
AcDbLine
 10
862.945
 20
340.3
 30
0.0
 11
862.945
 21
347.328266
 31
0.0
  0
LINE
  5
6F9
100
AcDbEntity
  8
001
100
AcDbLine
 10
874.0
 20
340.3
 30
0.0
 11
874.0
 21
346.7
 31
0.0
  0
LINE
  5
6FA
100
AcDbEntity
  8
001
100
AcDbLine
 10
873.055
 20
340.3
 30
0.0
 11
873.055
 21
347.328266
 31
0.0
  0
LINE
  5
6FB
100
AcDbEntity
  8
001
100
AcDbLine
 10
858.5
 20
330.3
 30
0.0
 11
858.5
 21
340.011334
 31
0.0
  0
LINE
  5
6FC
100
AcDbEntity
  8
001
100
AcDbLine
 10
856.0
 20
328.0
 30
0.0
 11
856.0
 21
330.3
 31
0.0
  0
LINE
  5
6FD
100
AcDbEntity
  8
001
100
AcDbLine
 10
880.0
 20
328.0
 30
0.0
 11
880.0
 21
330.3
 31
0.0
  0
LINE
  5
6FE
100
AcDbEntity
  8
001
100
AcDbLine
 10
880.0
 20
330.3
 30
0.0
 11
856.0
 21
330.3
 31
0.0
  0
ARC
  5
6FF
100
AcDbEntity
  8
001
100
AcDbCircle
 10
872.75
 20
304.708392
 30
0.0
 40
13.719723
100
AcDbArc
 50
249.743897
 51
290.256103
  0
LINE
  5
700
100
AcDbEntity
  8
001
100
AcDbLine
 10
877.5
 20
290.988666
 30
0.0
 11
877.0
 21
290.7
 31
0.0
  0
LINE
  5
701
100
AcDbEntity
  8
001
100
AcDbLine
 10
877.0
 20
290.7
 30
0.0
 11
858.999985
 21
290.7
 31
0.0
  0
LINE
  5
702
100
AcDbEntity
  8
001
100
AcDbLine
 10
877.5
 20
298.7
 30
0.0
 11
877.5
 21
290.988666
 31
0.0
  0
LINE
  5
703
100
AcDbEntity
  8
001
100
AcDbLine
 10
880.0
 20
298.7
 30
0.0
 11
856.0
 21
298.7
 31
0.0
  0
LINE
  5
704
100
AcDbEntity
  8
001
100
AcDbLine
 10
880.0
 20
301.0
 30
0.0
 11
880.0
 21
298.7
 31
0.0
  0
ARC
  5
705
100
AcDbEntity
  8
001
100
AcDbCircle
 10
863.25
 20
304.708392
 30
0.0
 40
13.719723
100
AcDbArc
 50
249.743897
 51
290.256103
  0
LINE
  5
706
100
AcDbEntity
  8
001
100
AcDbLine
 10
858.5
 20
290.988666
 30
0.0
 11
859.0
 21
290.7
 31
0.0
  0
LINE
  5
707
100
AcDbEntity
  8
001
100
AcDbLine
 10
858.5
 20
298.7
 30
0.0
 11
858.5
 21
290.988666
 31
0.0
  0
LINE
  5
708
100
AcDbEntity
  8
001
100
AcDbLine
 10
868.0
 20
298.7
 30
0.0
 11
868.0
 21
291.837177
 31
0.0
  0
LINE
  5
709
100
AcDbEntity
  8
001
100
AcDbLine
 10
856.0
 20
301.0
 30
0.0
 11
856.0
 21
298.7
 31
0.0
  0
INSERT
  5
75E
100
AcDbEntity
  8
0
  6
CONTINUOUS
100
AcDbBlockReference
  2
A$C4D0D3218
 10
329.0
 20
440.356109
 30
0.0
  0
INSERT
  5
75F
100
AcDbEntity
  8
0
  6
CONTINUOUS
100
AcDbBlockReference
  2
A$C4D0D3218
 10
848.0
 20
440.356109
 30
0.0
 41
-1.0
  0
ARC
  5
760
100
AcDbEntity
  8
001
100
AcDbCircle
 10
794.0
 20
445.0
 30
0.0
 40
1.0
100
AcDbArc
 50
90.0
 51
180.0
  0
ARC
  5
761
100
AcDbEntity
  8
001
100
AcDbCircle
 10
842.0
 20
445.0
 30
0.0
 40
1.0
100
AcDbArc
 50
0.0
 51
90.0
  0
LINE
  5
762
100
AcDbEntity
  8
001
100
AcDbLine
 10
818.0
 20
497.0
 30
0.0
 11
802.206012
 21
497.0
 31
0.0
  0
ARC
  5
763
100
AcDbEntity
  8
001
100
AcDbCircle
 10
335.0
 20
445.0
 30
0.0
 40
1.0
100
AcDbArc
 50
90.0
 51
180.0
  0
ARC
  5
764
100
AcDbEntity
  8
001
100
AcDbCircle
 10
383.0
 20
445.0
 30
0.0
 40
1.0
100
AcDbArc
 50
0.0
 51
90.0
  0
ENDSEC
  0
SECTION
  2
OBJECTS
  0
DICTIONARY
  5
C
100
AcDbDictionary
  3
ACAD_GROUP
350
D
  3
ACAD_MLINESTYLE
350
1B
  0
DICTIONARY
  5
D
102
{ACAD_REACTORS
330
C
102
}
100
AcDbDictionary
  0
DICTIONARY
  5
1B
102
{ACAD_REACTORS
330
C
102
}
100
AcDbDictionary
  3
STANDARD
350
1C
  0
MLINESTYLE
  5
1C
102
{ACAD_REACTORS
330
1B
102
}
100
AcDbMlineStyle
  2
STANDARD
 70
     0
  3

 62
   256
 51
90.0
 52
90.0
 71
     2
 49
0.5
 62
   256
  6
BYLAYER
 49
-0.5
 62
   256
  6
BYLAYER
  0
ENDSEC
  0
EOF
