  0
SECTION
  2
HEADER
  9
$ACADVER
  1
AC1014
  9
$ACADMAINTVER
 70
     0
  9
$DWGCODEPAGE
  3
ANSI_932
  9
$INSBASE
 10
0.0
 20
0.0
 30
0.0
  9
$EXTMIN
 10
214.0
 20
40.0
 30
0.0
  9
$EXTMAX
 10
1620.0
 20
1006.329229
 30
0.0
  9
$LIMMIN
 10
213.999
 20
39.999
  9
$LIMMAX
 10
1620.001
 20
960.501
  9
$ORTHOMODE
 70
     1
  9
$REGENMODE
 70
     1
  9
$FILLMODE
 70
     1
  9
$QTEXTMODE
 70
     0
  9
$MIRRTEXT
 70
     1
  9
$DRAGMODE
 70
     2
  9
$LTSCALE
 40
23.433333
  9
$OSMODE
 70
     0
  9
$ATTMODE
 70
     1
  9
$TEXTSIZE
 40
3.2
  9
$TRACEWID
 40
0.05
  9
$TEXTSTYLE
  7
STANDARD
  9
$CLAYER
  8
0
  9
$CELTYPE
  6
CONTINUOUS
  9
$CECOLOR
 62
   256
  9
$CELTSCALE
 40
1.0
  9
$DELOBJ
 70
     1
  9
$DISPSILH
 70
     0
  9
$DIMSCALE
 40
1.0
  9
$DIMASZ
 40
0.18
  9
$DIMEXO
 40
0.0625
  9
$DIMDLI
 40
0.38
  9
$DIMRND
 40
0.0
  9
$DIMDLE
 40
0.0
  9
$DIMEXE
 40
0.18
  9
$DIMTP
 40
0.0
  9
$DIMTM
 40
0.0
  9
$DIMTXT
 40
0.18
  9
$DIMCEN
 40
0.09
  9
$DIMTSZ
 40
0.0
  9
$DIMTOL
 70
     0
  9
$DIMLIM
 70
     0
  9
$DIMTIH
 70
     1
  9
$DIMTOH
 70
     1
  9
$DIMSE1
 70
     0
  9
$DIMSE2
 70
     0
  9
$DIMTAD
 70
     0
  9
$DIMZIN
 70
     0
  9
$DIMBLK
  1

  9
$DIMASO
 70
     1
  9
$DIMSHO
 70
     1
  9
$DIMPOST
  1

  9
$DIMAPOST
  1

  9
$DIMALT
 70
     0
  9
$DIMALTD
 70
     2
  9
$DIMALTF
 40
25.4
  9
$DIMLFAC
 40
1.0
  9
$DIMTOFL
 70
     0
  9
$DIMTVP
 40
0.0
  9
$DIMTIX
 70
     0
  9
$DIMSOXD
 70
     0
  9
$DIMSAH
 70
     0
  9
$DIMBLK1
  1

  9
$DIMBLK2
  1

  9
$DIMSTYLE
  2
STANDARD
  9
$DIMCLRD
 70
     0
  9
$DIMCLRE
 70
     0
  9
$DIMCLRT
 70
     0
  9
$DIMTFAC
 40
1.0
  9
$DIMGAP
 40
0.09
  9
$DIMJUST
 70
     0
  9
$DIMSD1
 70
     0
  9
$DIMSD2
 70
     0
  9
$DIMTOLJ
 70
     1
  9
$DIMTZIN
 70
     0
  9
$DIMALTZ
 70
     0
  9
$DIMALTTZ
 70
     0
  9
$DIMFIT
 70
     3
  9
$DIMUPT
 70
     0
  9
$DIMUNIT
 70
     2
  9
$DIMDEC
 70
     4
  9
$DIMTDEC
 70
     4
  9
$DIMALTU
 70
     2
  9
$DIMALTTD
 70
     2
  9
$DIMTXSTY
  7
STANDARD
  9
$DIMAUNIT
 70
     0
  9
$LUNITS
 70
     2
  9
$LUPREC
 70
     4
  9
$SKETCHINC
 40
0.1
  9
$FILLETRAD
 40
1.0
  9
$AUNITS
 70
     0
  9
$AUPREC
 70
     0
  9
$MENU
  1
acad
  9
$ELEVATION
 40
0.0
  9
$PELEVATION
 40
0.0
  9
$THICKNESS
 40
0.0
  9
$LIMCHECK
 70
     0
  9
$BLIPMODE
 70
     0
  9
$CHAMFERA
 40
0.0
  9
$CHAMFERB
 40
0.0
  9
$CHAMFERC
 40
0.0
  9
$CHAMFERD
 40
0.0
  9
$SKPOLY
 70
     0
  9
$TDCREATE
 40
0.0000000000
  9
$TDUPDATE
 40
0.0000000000
  9
$TDINDWG
 40
0.0000000000
  9
$TDUSRTIMER
 40
0.0000000000
  9
$USRTIMER
 70
     1
  9
$ANGBASE
 50
0.0
  9
$ANGDIR
 70
     0
  9
$PDMODE
 70
     0
  9
$PDSIZE
 40
0.0
  9
$PLINEWID
 40
0.0
  9
$COORDS
 70
     1
  9
$SPLFRAME
 70
     0
  9
$SPLINETYPE
 70
     6
  9
$SPLINESEGS
 70
     8
  9
$ATTDIA
 70
     0
  9
$ATTREQ
 70
     1
  9
$HANDLING
 70
     1
  9
$HANDSEED
  5
835
  9
$SURFTAB1
 70
     6
  9
$SURFTAB2
 70
     6
  9
$SURFTYPE
 70
     6
  9
$SURFU
 70
     6
  9
$SURFV
 70
     6
  9
$UCSNAME
  2

  9
$UCSORG
 10
0.0
 20
0.0
 30
0.0
  9
$UCSXDIR
 10
1.0
 20
0.0
 30
0.0
  9
$UCSYDIR
 10
0.0
 20
1.0
 30
0.0
  9
$PUCSNAME
  2

  9
$PUCSORG
 10
0.0
 20
0.0
 30
0.0
  9
$PUCSXDIR
 10
1.0
 20
0.0
 30
0.0
  9
$PUCSYDIR
 10
0.0
 20
1.0
 30
0.0
  9
$USERI1
 70
     0
  9
$USERI2
 70
     0
  9
$USERI3
 70
     0
  9
$USERI4
 70
     0
  9
$USERI5
 70
     0
  9
$USERR1
 40
0.0
  9
$USERR2
 40
0.0
  9
$USERR3
 40
0.0
  9
$USERR4
 40
0.0
  9
$USERR5
 40
0.0
  9
$WORLDVIEW
 70
     1
  9
$SHADEDGE
 70
     3
  9
$SHADEDIF
 70
    70
  9
$TILEMODE
 70
     1
  9
$MAXACTVP
 70
    48
  9
$PINSBASE
 10
0.0
 20
0.0
 30
0.0
  9
$PLIMCHECK
 70
     0
  9
$PEXTMIN
 10
1.000000E+20
 20
1.000000E+20
 30
1.000000E+20
  9
$PEXTMAX
 10
-1.000000E+20
 20
-1.000000E+20
 30
-1.000000E+20
  9
$PLIMMIN
 10
0.0
 20
0.0
  9
$PLIMMAX
 10
12.0
 20
9.0
  9
$UNITMODE
 70
     0
  9
$VISRETAIN
 70
     1
  9
$PLINEGEN
 70
     0
  9
$PSLTSCALE
 70
     1
  9
$TREEDEPTH
 70
  3020
  9
$PICKSTYLE
 70
     1
  9
$CMLSTYLE
  2
STANDARD
  9
$CMLJUST
 70
     0
  9
$CMLSCALE
 40
1.0
  9
$PROXYGRAPHICS
 70
     1
  9
$MEASUREMENT
 70
     0
  0
ENDSEC
  0
SECTION
  2
CLASSES
  0
CLASS
  1
LWPOLYLINE
  2
AcDbPolyline
  3
"AutoCAD"
 90
        0
280
     0
281
     1
  0
ENDSEC
  0
SECTION
  2
TABLES
  0
TABLE
  2
VPORT
  5
8
100
AcDbSymbolTable
 70
     2
  0
VPORT
  5
834
100
AcDbSymbolTableRecord
100
AcDbViewportTableRecord
  2
*ACTIVE
 70
     0
 10
0.0
 20
0.0
 11
1.0
 21
1.0
 12
938.325049
 22
501.111424
 13
0.0
 23
0.0
 14
1.0
 24
1.0
 15
0.0
 25
0.0
 16
0.0
 26
0.0
 36
1.0
 17
0.0
 27
0.0
 37
0.0
 40
1239.901628
 41
1.724907
 42
50.0
 43
0.0
 44
0.0
 50
0.0
 51
0.0
 71
     0
 72
   100
 73
     1
 74
     1
 75
     0
 76
     0
 77
     0
 78
     0
  0
ENDTAB
  0
TABLE
  2
LTYPE
  5
5
100
AcDbSymbolTable
 70
     6
  0
LTYPE
  5
12
100
AcDbSymbolTableRecord
100
AcDbLinetypeTableRecord
  2
BYBLOCK
 70
     0
  3

 72
    65
 73
     0
 40
0.0
  0
LTYPE
  5
13
100
AcDbSymbolTableRecord
100
AcDbLinetypeTableRecord
  2
BYLAYER
 70
     0
  3

 72
    65
 73
     0
 40
0.0
  0
LTYPE
  5
14
100
AcDbSymbolTableRecord
100
AcDbLinetypeTableRecord
  2
CONTINUOUS
 70
     0
  3
Solid-Line
 72
    65
 73
     0
 40
0.0
  0
LTYPE
  5
1F
100
AcDbSymbolTableRecord
100
AcDbLinetypeTableRecord
  2
DASHED
 70
     0
  3
DASHED
 72
    65
 73
     2
 40
0.75
 49
0.5
 74
     0
 49
-0.25
 74
     0
  0
LTYPE
  5
20
100
AcDbSymbolTableRecord
100
AcDbLinetypeTableRecord
  2
HIDDEN
 70
     0
  3
HIDDEN
 72
    65
 73
     2
 40
0.375
 49
0.25
 74
     0
 49
-0.125
 74
     0
  0
LTYPE
  5
21
100
AcDbSymbolTableRecord
100
AcDbLinetypeTableRecord
  2
CENTER
 70
     0
  3
CENTER
 72
    65
 73
     4
 40
2.0
 49
1.25
 74
     0
 49
-0.25
 74
     0
 49
0.25
 74
     0
 49
-0.25
 74
     0
  0
LTYPE
  5
22
100
AcDbSymbolTableRecord
100
AcDbLinetypeTableRecord
  2
PHANTOM
 70
     0
  3
PHANTOM
 72
    65
 73
     6
 40
2.5
 49
1.25
 74
     0
 49
-0.25
 74
     0
 49
0.25
 74
     0
 49
-0.25
 74
     0
 49
0.25
 74
     0
 49
-0.25
 74
     0
  0
LTYPE
  5
822
100
AcDbSymbolTableRecord
100
AcDbLinetypeTableRecord
  2
CENTER2
 70
     0
  3
___ _ ___ _ ___ _ ___ _ ___ _ ___ _ ___ _ ___ _
 72
    65
 73
     4
 40
1.125
 49
0.75
 74
     0
 49
-0.125
 74
     0
 49
0.125
 74
     0
 49
-0.125
 74
     0
  0
ENDTAB
  0
TABLE
  2
LAYER
  5
2
100
AcDbSymbolTable
 70
     5
  0
LAYER
  5
E
100
AcDbSymbolTableRecord
100
AcDbLayerTableRecord
  2
0
 70
     0
 62
     7
  6
CONTINUOUS
  0
LAYER
  5
23
100
AcDbSymbolTableRecord
100
AcDbLayerTableRecord
  2
001
 70
     0
 62
     7
  6
CONTINUOUS
  0
LAYER
  5
823
100
AcDbSymbolTableRecord
100
AcDbLayerTableRecord
  2
BODY
 70
     0
 62
     7
  6
CONTINUOUS
  0
LAYER
  5
824
100
AcDbSymbolTableRecord
100
AcDbLayerTableRecord
  2
SHAFT
 70
     0
 62
     6
  6
CONTINUOUS
  0
LAYER
  5
825
100
AcDbSymbolTableRecord
100
AcDbLayerTableRecord
  2
CENTER
 70
     0
 62
   144
  6
CENTER2
  0
ENDTAB
  0
TABLE
  2
STYLE
  5
3
100
AcDbSymbolTable
 70
     2
  0
STYLE
  5
F
100
AcDbSymbolTableRecord
100
AcDbTextStyleTableRecord
  2
STANDARD
 70
     0
 40
0.0
 41
1.0
 50
0.0
 71
     0
 42
0.2
  3
TXT
  4
BIGFONT
  0
STYLE
  5
24
100
AcDbSymbolTableRecord
100
AcDbTextStyleTableRecord
  2
TATEGAKI
 70
     4
 40
1.0
 41
1.0
 50
0.0
 71
     0
 42
0.2
  3
TXT
  4
BIGFONT
  0
ENDTAB
  0
TABLE
  2
VIEW
  5
6
100
AcDbSymbolTable
 70
     0
  0
ENDTAB
  0
TABLE
  2
UCS
  5
7
100
AcDbSymbolTable
 70
     0
  0
ENDTAB
  0
TABLE
  2
APPID
  5
9
100
AcDbSymbolTable
 70
     1
  0
APPID
  5
10
100
AcDbSymbolTableRecord
100
AcDbRegAppTableRecord
  2
ACAD
 70
     0
  0
ENDTAB
  0
TABLE
  2
DIMSTYLE
  5
A
100
AcDbSymbolTable
 70
     1
  0
DIMSTYLE
105
7D8
100
AcDbSymbolTableRecord
100
AcDbDimStyleTableRecord
  2
STANDARD
 70
     0
  3

  4

  5

  6

  7

 40
1.0
 41
0.18
 42
0.0625
 43
0.38
 44
0.18
 45
0.0
 46
0.0
 47
0.0
 48
0.0
140
0.18
141
0.09
142
0.0
143
25.4
144
1.0
145
0.0
146
1.0
147
0.09
 71
     0
 72
     0
 73
     1
 74
     1
 75
     0
 76
     0
 77
     0
 78
     0
170
     0
171
     2
172
     0
173
     0
174
     0
175
     0
176
     0
177
     0
178
     0
270
     2
271
     4
272
     4
273
     2
274
     2
340
F
275
     0
280
     0
281
     0
282
     0
283
     1
284
     0
285
     0
286
     0
287
     3
288
     0
  0
ENDTAB
  0
TABLE
  2
BLOCK_RECORD
  5
1
100
AcDbSymbolTable
 70
     2
  0
BLOCK_RECORD
  5
18
100
AcDbSymbolTableRecord
100
AcDbBlockTableRecord
  2
*MODEL_SPACE
  0
BLOCK_RECORD
  5
15
100
AcDbSymbolTableRecord
100
AcDbBlockTableRecord
  2
*PAPER_SPACE
  0
BLOCK_RECORD
  5
7D9
100
AcDbSymbolTableRecord
100
AcDbBlockTableRecord
  2
A$C4D0D3218
  0
BLOCK_RECORD
  5
826
100
AcDbSymbolTableRecord
100
AcDbBlockTableRecord
  2
A$C3D2E53C4
  0
ENDTAB
  0
ENDSEC
  0
SECTION
  2
BLOCKS
  0
BLOCK
  5
19
100
AcDbEntity
  8
0
100
AcDbBlockBegin
  2
*MODEL_SPACE
 70
     0
 10
0.0
 20
0.0
 30
0.0
  3
*MODEL_SPACE
  1

  0
ENDBLK
  5
1A
100
AcDbEntity
  8
0
100
AcDbBlockEnd
  0
BLOCK
  5
16
100
AcDbEntity
 67
     1
  8
0
100
AcDbBlockBegin
  2
*PAPER_SPACE
 70
     0
 10
0.0
 20
0.0
 30
0.0
  3
*PAPER_SPACE
  1

  0
ENDBLK
  5
17
100
AcDbEntity
 67
     1
  8
0
100
AcDbBlockEnd
  0
BLOCK
  5
820
100
AcDbEntity
  8
0
100
AcDbBlockBegin
  2
A$C4D0D3218
 70
     0
 10
0.0
 20
0.0
 30
0.0
  3
A$C4D0D3218
  1

  0
LINE
  5
7DA
100
AcDbEntity
  8
BODY
100
AcDbLine
 10
47.298566
 20
58.50411
 30
0.0
 11
30.0
 21
33.988262
 31
0.0
  0
LINE
  5
7DB
100
AcDbEntity
  8
BODY
100
AcDbLine
 10
47.830578
 20
57.227929
 30
0.0
 11
48.758497
 21
35.164071
 31
0.0
  0
LINE
  5
7DC
100
AcDbEntity
  8
BODY
100
AcDbLine
 10
60.0
 20
62.643891
 30
0.0
 11
60.0
 21
35.143891
 31
0.0
  0
LINE
  5
7DD
100
AcDbEntity
  8
BODY
100
AcDbLine
 10
0.0
 20
8.643891
 30
0.0
 11
0.0
 21
62.643891
 31
0.0
  0
LINE
  5
7DE
100
AcDbEntity
  8
CENTER
100
AcDbLine
 10
30.0
 20
0.0
 30
0.0
 11
30.0
 21
136.35376
 31
0.0
  0
LINE
  5
7DF
100
AcDbEntity
  8
BODY
100
AcDbLine
 10
57.0
 20
5.643891
 30
0.0
 11
3.0
 21
5.643891
 31
0.0
  0
ARC
  5
7E0
100
AcDbEntity
  8
BODY
100
AcDbCircle
 10
3.0
 20
8.643891
 30
0.0
 40
3.0
100
AcDbArc
 50
180.0
 51
270.0
  0
ARC
  5
7E1
100
AcDbEntity
  8
BODY
100
AcDbCircle
 10
51.917656
 20
7.643891
 30
0.0
 40
2.0
100
AcDbArc
 50
182.408216
 51
270.0
  0
LINE
  5
7E2
100
AcDbEntity
  8
BODY
100
AcDbLine
 10
30.0
 20
33.988262
 30
0.0
 11
50.0
 21
5.643891
 31
0.0
  0
LINE
  5
7E3
100
AcDbEntity
  8
CENTER
100
AcDbLine
 10
45.826748
 20
30.643891
 30
0.0
 11
72.990715
 21
30.643891
 31
0.0
  0
LINE
  5
7E4
100
AcDbEntity
  8
BODY
100
AcDbLine
 10
69.138318
 20
35.643891
 30
0.0
 11
48.738318
 21
35.643891
 31
0.0
  0
LINE
  5
7E5
100
AcDbEntity
  8
BODY
100
AcDbLine
 10
63.238318
 20
35.143891
 30
0.0
 11
48.738318
 21
35.143891
 31
0.0
  0
LINE
  5
7E6
100
AcDbEntity
  8
BODY
100
AcDbLine
 10
49.158879
 20
25.643891
 30
0.0
 11
69.138318
 21
25.643891
 31
0.0
  0
LINE
  5
7E7
100
AcDbEntity
  8
BODY
100
AcDbLine
 10
49.155391
 20
25.726818
 30
0.0
 11
49.919423
 21
7.559853
 31
0.0
  0
LINE
  5
7E8
100
AcDbEntity
  8
BODY
100
AcDbLine
 10
48.738318
 20
26.143891
 30
0.0
 11
63.238318
 21
26.143891
 31
0.0
  0
LWPOLYLINE
  5
7E9
100
AcDbEntity
  8
BODY
100
AcDbPolyline
 90
        4
 70
     0
 43
0.0
 10
30.0
 20
39.881496
 10
22.0
 20
35.262693
 10
22.0
 20
26.025089
 10
30.0
 20
21.406287
  0
ARC
  5
7EA
100
AcDbEntity
  8
BODY
100
AcDbCircle
 10
30.0
 20
30.643891
 30
0.0
 40
8.0
100
AcDbArc
 50
90.0
 51
270.0
  0
LINE
  5
7EB
100
AcDbEntity
  8
CENTER
100
AcDbLine
 10
20.361507
 20
30.643891
 30
0.0
 11
31.763323
 21
30.643891
 31
0.0
  0
LINE
  5
7EC
100
AcDbEntity
  8
BODY
100
AcDbLine
 10
49.238318
 20
35.643891
 30
0.0
 11
49.238318
 21
25.643891
 31
0.0
  0
LINE
  5
7ED
100
AcDbEntity
  8
BODY
100
AcDbLine
 10
48.738318
 20
35.143891
 30
0.0
 11
48.738318
 21
26.143891
 31
0.0
  0
LINE
  5
7EE
100
AcDbEntity
  8
BODY
100
AcDbLine
 10
48.738318
 20
26.143891
 30
0.0
 11
49.238318
 21
25.643891
 31
0.0
  0
LINE
  5
7EF
100
AcDbEntity
  8
BODY
100
AcDbLine
 10
48.738318
 20
35.143891
 30
0.0
 11
49.238318
 21
35.643891
 31
0.0
  0
LINE
  5
7F0
100
AcDbEntity
  8
BODY
100
AcDbLine
 10
60.0
 20
26.143891
 30
0.0
 11
60.0
 21
8.643891
 31
0.0
  0
ARC
  5
7F1
100
AcDbEntity
  8
BODY
100
AcDbCircle
 10
57.0
 20
8.643891
 30
0.0
 40
3.0
100
AcDbArc
 50
270.0
 51
0.0
  0
LINE
  5
7F2
100
AcDbEntity
  8
BODY
100
AcDbLine
 10
69.138318
 20
21.406287
 30
0.0
 11
63.738318
 21
21.406287
 31
0.0
  0
LINE
  5
7F3
100
AcDbEntity
  8
BODY
100
AcDbLine
 10
69.138318
 20
39.881496
 30
0.0
 11
63.738318
 21
39.881496
 31
0.0
  0
LINE
  5
7F4
100
AcDbEntity
  8
BODY
100
AcDbLine
 10
63.238318
 20
35.143891
 30
0.0
 11
63.238318
 21
26.143891
 31
0.0
  0
LINE
  5
7F5
100
AcDbEntity
  8
BODY
100
AcDbLine
 10
63.738318
 20
39.881496
 30
0.0
 11
63.738318
 21
21.406287
 31
0.0
  0
LINE
  5
7F6
100
AcDbEntity
  8
BODY
100
AcDbLine
 10
63.238318
 20
26.143891
 30
0.0
 11
63.738318
 21
25.643891
 31
0.0
  0
LINE
  5
7F7
100
AcDbEntity
  8
BODY
100
AcDbLine
 10
63.238318
 20
35.143891
 30
0.0
 11
63.738318
 21
35.643891
 31
0.0
  0
ARC
  5
7F8
100
AcDbEntity
  8
BODY
100
AcDbCircle
 10
57.138318
 20
30.643891
 30
0.0
 40
13.0
100
AcDbArc
 50
337.380135
 51
22.619865
  0
LINE
  5
7F9
100
AcDbEntity
  8
BODY
100
AcDbLine
 10
70.138318
 20
37.781496
 30
0.0
 11
70.138318
 21
23.506287
 31
0.0
  0
ARC
  5
7FA
100
AcDbEntity
  8
BODY
100
AcDbCircle
 10
67.393834
 20
23.525089
 30
0.0
 40
2.744549
100
AcDbArc
 50
309.465831
 51
50.534169
  0
ARC
  5
7FB
100
AcDbEntity
  8
BODY
100
AcDbCircle
 10
67.393834
 20
37.762693
 30
0.0
 40
2.744549
100
AcDbArc
 50
309.465831
 51
50.534169
  0
LINE
  5
7FC
100
AcDbEntity
  8
BODY
100
AcDbLine
 10
15.25
 20
65.643891
 30
0.0
 11
30.0
 21
65.643891
 31
0.0
  0
LINE
  5
7FD
100
AcDbEntity
  8
SHAFT
100
AcDbLine
 10
30.0
 20
123.315647
 30
0.0
 11
13.25
 21
115.643891
 31
0.0
  0
LINE
  5
7FE
100
AcDbEntity
  8
SHAFT
100
AcDbLine
 10
14.0
 20
130.643891
 30
0.0
 11
30.0
 21
123.315647
 31
0.0
  0
LINE
  5
7FF
100
AcDbEntity
  8
BODY
100
AcDbLine
 10
30.0
 20
115.643891
 30
0.0
 11
13.25
 21
115.643891
 31
0.0
  0
LINE
  5
800
100
AcDbEntity
  8
SHAFT
100
AcDbLine
 10
14.0
 20
130.643891
 30
0.0
 11
46.0
 21
130.643891
 31
0.0
  0
LINE
  5
801
100
AcDbEntity
  8
SHAFT
100
AcDbLine
 10
13.25
 20
115.643891
 30
0.0
 11
30.0
 21
115.643891
 31
0.0
  0
LINE
  5
802
100
AcDbEntity
  8
BODY
100
AcDbLine
 10
30.0
 20
90.643891
 30
0.0
 11
13.723903
 21
66.351209
 31
0.0
  0
LINE
  5
803
100
AcDbEntity
  8
BODY
100
AcDbLine
 10
13.25
 20
115.643891
 30
0.0
 11
30.0
 21
90.643891
 31
0.0
  0
LINE
  5
804
100
AcDbEntity
  8
BODY
100
AcDbLine
 10
13.25
 20
115.643891
 30
0.0
 11
13.25
 21
67.643891
 31
0.0
  0
LINE
  5
805
100
AcDbEntity
  8
BODY
100
AcDbLine
 10
13.25
 20
115.643891
 30
0.0
 11
11.085954
 21
67.553982
 31
0.0
  0
ARC
  5
806
100
AcDbEntity
  8
BODY
100
AcDbCircle
 10
15.25
 20
67.643891
 30
0.0
 40
2.0
100
AcDbArc
 50
180.0
 51
270.0
  0
ARC
  5
807
100
AcDbEntity
  8
BODY
100
AcDbCircle
 10
9.087976
 20
67.643891
 30
0.0
 40
2.0
100
AcDbArc
 50
270.0
 51
357.423428
  0
ARC
  5
808
100
AcDbEntity
  8
BODY
100
AcDbCircle
 10
3.0
 20
62.643891
 30
0.0
 40
3.0
100
AcDbArc
 50
90.0
 51
180.0
  0
LINE
  5
809
100
AcDbEntity
  8
BODY
100
AcDbLine
 10
3.0
 20
65.643891
 30
0.0
 11
9.087976
 21
65.643891
 31
0.0
  0
LINE
  5
80A
100
AcDbEntity
  8
SHAFT
100
AcDbLine
 10
14.0
 20
130.643891
 30
0.0
 11
13.25
 21
115.643891
 31
0.0
  0
LINE
  5
80B
100
AcDbEntity
  8
BODY
100
AcDbLine
 10
46.75
 20
115.643891
 30
0.0
 11
48.914046
 21
67.553982
 31
0.0
  0
ARC
  5
80C
100
AcDbEntity
  8
BODY
100
AcDbCircle
 10
50.912024
 20
67.643891
 30
0.0
 40
2.0
100
AcDbArc
 50
182.576572
 51
270.0
  0
LINE
  5
80D
100
AcDbEntity
  8
BODY
100
AcDbLine
 10
30.0
 20
59.143891
 30
0.0
 11
45.832345
 21
59.143891
 31
0.0
  0
ARC
  5
80E
100
AcDbEntity
  8
BODY
100
AcDbCircle
 10
45.832345
 20
57.143891
 30
0.0
 40
2.0
100
AcDbArc
 50
2.408216
 51
90.0
  0
ARC
  5
80F
100
AcDbEntity
  8
BODY
100
AcDbCircle
 10
57.0
 20
62.643891
 30
0.0
 40
3.0
100
AcDbArc
 50
0.0
 51
90.0
  0
LINE
  5
810
100
AcDbEntity
  8
BODY
100
AcDbLine
 10
50.912024
 20
65.643891
 30
0.0
 11
57.0
 21
65.643891
 31
0.0
  0
LINE
  5
811
100
AcDbEntity
  8
BODY
100
AcDbLine
 10
32.0
 20
126.893891
 30
0.0
 11
32.0
 21
106.343891
 31
0.0
  0
LINE
  5
812
100
AcDbEntity
  8
BODY
100
AcDbLine
 10
32.5
 20
127.393891
 30
0.0
 11
32.5
 21
106.643891
 31
0.0
  0
LINE
  5
813
100
AcDbEntity
  8
BODY
100
AcDbLine
 10
32.5
 20
106.643891
 30
0.0
 11
30.0
 21
105.143891
 31
0.0
  0
LINE
  5
814
100
AcDbEntity
  8
BODY
100
AcDbLine
 10
32.5
 20
106.643891
 30
0.0
 11
30.0
 21
106.643891
 31
0.0
  0
LINE
  5
815
100
AcDbEntity
  8
BODY
100
AcDbLine
 10
32.5
 20
111.143891
 30
0.0
 11
32.0
 21
110.643891
 31
0.0
  0
LINE
  5
816
100
AcDbEntity
  8
BODY
100
AcDbLine
 10
30.0
 20
111.143891
 30
0.0
 11
32.5
 21
111.143891
 31
0.0
  0
LINE
  5
817
100
AcDbEntity
  8
BODY
100
AcDbLine
 10
30.0
 20
110.643891
 30
0.0
 11
32.5
 21
110.643891
 31
0.0
  0
LINE
  5
818
100
AcDbEntity
  8
SHAFT
100
AcDbLine
 10
32.0
 20
115.643891
 30
0.0
 11
46.75
 21
115.643891
 31
0.0
  0
LINE
  5
819
100
AcDbEntity
  8
BODY
100
AcDbLine
 10
35.75
 20
130.643891
 30
0.0
 11
32.0
 21
126.893891
 31
0.0
  0
LINE
  5
81A
100
AcDbEntity
  8
SHAFT
100
AcDbLine
 10
32.75
 20
127.643891
 30
0.0
 11
35.75
 21
130.643891
 31
0.0
  0
LINE
  5
81B
100
AcDbEntity
  8
BODY
100
AcDbLine
 10
46.75
 20
115.643891
 30
0.0
 11
32.0
 21
115.643891
 31
0.0
  0
LINE
  5
81C
100
AcDbEntity
  8
SHAFT
100
AcDbLine
 10
32.75
 20
127.643891
 30
0.0
 11
32.75
 21
115.643891
 31
0.0
  0
LINE
  5
81D
100
AcDbEntity
  8
BODY
100
AcDbLine
 10
32.0
 20
126.893891
 30
0.0
 11
30.0
 21
126.893891
 31
0.0
  0
LINE
  5
81E
100
AcDbEntity
  8
BODY
100
AcDbLine
 10
32.5
 20
127.393891
 30
0.0
 11
30.0
 21
127.393891
 31
0.0
  0
LINE
  5
81F
100
AcDbEntity
  8
SHAFT
100
AcDbLine
 10
46.0
 20
130.643891
 30
0.0
 11
46.75
 21
115.643891
 31
0.0
  0
ENDBLK
  5
821
100
AcDbEntity
  8
0
100
AcDbBlockEnd
  0
BLOCK
  5
829
100
AcDbEntity
  8
0
100
AcDbBlockBegin
  2
A$C3D2E53C4
 70
     0
 10
0.0
 20
0.0
 30
0.0
  3
A$C3D2E53C4
  1

  0
INSERT
  5
827
100
AcDbEntity
  8
0
  6
CONTINUOUS
100
AcDbBlockReference
  2
A$C4D0D3218
 10
-0.000001
 20
0.000001
 30
0.0
  0
INSERT
  5
828
100
AcDbEntity
  8
0
  6
CONTINUOUS
100
AcDbBlockReference
  2
A$C4D0D3218
 10
558.499999
 20
0.000001
 30
0.0
 41
-1.0
  0
ENDBLK
  5
82A
100
AcDbEntity
  8
0
100
AcDbBlockEnd
  0
ENDSEC
  0
SECTION
  2
ENTITIES
  0
LINE
  5
26
100
AcDbEntity
  8
001
100
AcDbLine
 10
570.482491
 20
283.654419
 30
0.0
 11
574.771439
 21
277.582798
 31
0.0
  0
LINE
  5
27
100
AcDbEntity
  8
001
100
AcDbLine
 10
570.482466
 20
383.345564
 30
0.0
 11
574.771439
 21
389.417202
 31
0.0
  0
LINE
  5
28
100
AcDbEntity
  8
001
100
AcDbLine
 10
515.545
 20
597.5
 30
0.0
 11
513.292977
 21
647.544955
 31
0.0
  0
LINE
  5
29
100
AcDbEntity
  8
001
100
AcDbLine
 10
510.5
 20
600.5
 30
0.0
 11
510.5
 21
648.5
 31
0.0
  0
ARC
  5
2B
100
AcDbEntity
  8
001
100
AcDbCircle
 10
512.293988
 20
647.5
 30
0.0
 40
1.0
100
AcDbArc
 50
2.576572
 51
90.0
  0
ARC
  5
2D
100
AcDbEntity
  8
001
100
AcDbCircle
 10
508.5
 20
600.5
 30
0.0
 40
2.0
100
AcDbArc
 50
270.0
 51
0.0
  0
LINE
  5
31
100
AcDbEntity
  8
001
100
AcDbLine
 10
521.5
 20
563.5
 30
0.0
 11
521.5
 21
596.5
 31
0.0
  0
LINE
  5
3C
100
AcDbEntity
  8
001
100
AcDbLine
 10
471.5
 20
563.5
 30
0.0
 11
471.5
 21
596.5
 31
0.0
  0
ARC
  5
3E
100
AcDbEntity
  8
001
100
AcDbCircle
 10
473.5
 20
563.5
 30
0.0
 40
2.0
100
AcDbArc
 50
180.0
 51
270.0
  0
LINE
  5
40
100
AcDbEntity
  8
001
100
AcDbLine
 10
496.5
 20
598.5
 30
0.0
 11
508.5
 21
598.5
 31
0.0
  0
LINE
  5
41
100
AcDbEntity
  8
001
100
AcDbLine
 10
472.5
 20
597.5
 30
0.0
 11
520.5
 21
597.5
 31
0.0
  0
LINE
  5
43
100
AcDbEntity
  8
001
100
AcDbLine
 10
510.5
 20
648.5
 30
0.0
 11
496.5
 21
623.5
 31
0.0
  0
LINE
  5
44
100
AcDbEntity
  8
001
100
AcDbLine
 10
496.5
 20
623.5
 30
0.0
 11
510.072242
 21
599.263854
 31
0.0
  0
CIRCLE
  5
45
100
AcDbEntity
  8
001
100
AcDbCircle
 10
496.5
 20
575.5
 30
0.0
 40
4.19
  0
LINE
  5
46
100
AcDbEntity
  8
001
100
AcDbLine
 10
499.0
 20
576.943376
 30
0.0
 11
499.0
 21
574.056624
 31
0.0
  0
LINE
  5
47
100
AcDbEntity
  8
001
100
AcDbLine
 10
496.5
 20
578.386751
 30
0.0
 11
499.0
 21
576.943376
 31
0.0
  0
LINE
  5
48
100
AcDbEntity
  8
001
100
AcDbLine
 10
494.0
 20
576.943376
 30
0.0
 11
496.5
 21
578.386751
 31
0.0
  0
LINE
  5
49
100
AcDbEntity
  8
001
100
AcDbLine
 10
494.0
 20
574.056624
 30
0.0
 11
494.0
 21
576.943376
 31
0.0
  0
LINE
  5
4A
100
AcDbEntity
  8
001
100
AcDbLine
 10
496.5
 20
572.613249
 30
0.0
 11
494.0
 21
574.056624
 31
0.0
  0
LINE
  5
4B
100
AcDbEntity
  8
001
100
AcDbLine
 10
496.5
 20
572.613249
 30
0.0
 11
499.0
 21
574.056624
 31
0.0
  0
CIRCLE
  5
4C
100
AcDbEntity
  8
001
100
AcDbCircle
 10
496.5
 20
575.5
 30
0.0
 40
5.0
  0
ARC
  5
4D
100
AcDbEntity
  8
001
100
AcDbCircle
 10
519.5
 20
563.5
 30
0.0
 40
2.0
100
AcDbArc
 50
270.0
 51
0.0
  0
LINE
  5
4E
100
AcDbEntity
  8
001
100
AcDbLine
 10
473.5
 20
561.5
 30
0.0
 11
519.5
 21
561.5
 31
0.0
  0
LINE
  5
58
100
AcDbEntity
  8
001
100
AcDbLine
 10
1080.0
 20
563.5
 30
0.0
 11
1080.0
 21
596.5
 31
0.0
  0
ARC
  5
5A
100
AcDbEntity
  8
001
100
AcDbCircle
 10
1078.0
 20
563.5
 30
0.0
 40
2.0
100
AcDbArc
 50
270.0
 51
0.0
  0
LINE
  5
5B
100
AcDbEntity
  8
001
  6
CENTER
100
AcDbLine
 10
1055.0
 20
575.5
 30
0.0
 11
1025.0
 21
575.5
 31
0.0
  0
LINE
  5
5C
100
AcDbEntity
  8
001
100
AcDbLine
 10
1035.955
 20
597.5
 30
0.0
 11
1038.207023
 21
647.544955
 31
0.0
  0
LINE
  5
5D
100
AcDbEntity
  8
001
100
AcDbLine
 10
1041.0
 20
600.5
 30
0.0
 11
1041.0
 21
648.5
 31
0.0
  0
ARC
  5
5F
100
AcDbEntity
  8
001
100
AcDbCircle
 10
1039.206012
 20
647.5
 30
0.0
 40
1.0
100
AcDbArc
 50
90.0
 51
177.423428
  0
ARC
  5
61
100
AcDbEntity
  8
001
100
AcDbCircle
 10
1043.0
 20
600.5
 30
0.0
 40
2.0
100
AcDbArc
 50
180.0
 51
270.0
  0
LINE
  5
65
100
AcDbEntity
  8
001
100
AcDbLine
 10
1030.0
 20
563.5
 30
0.0
 11
1030.0
 21
596.5
 31
0.0
  0
ARC
  5
67
100
AcDbEntity
  8
001
100
AcDbCircle
 10
1032.0
 20
563.5
 30
0.0
 40
2.0
100
AcDbArc
 50
180.0
 51
270.0
  0
LINE
  5
68
100
AcDbEntity
  8
001
100
AcDbLine
 10
1039.206012
 20
648.5
 30
0.0
 11
1055.0
 21
648.5
 31
0.0
  0
LINE
  5
69
100
AcDbEntity
  8
001
100
AcDbLine
 10
1043.0
 20
598.5
 30
0.0
 11
1055.0
 21
598.5
 31
0.0
  0
LINE
  5
6A
100
AcDbEntity
  8
001
100
AcDbLine
 10
1031.0
 20
597.5
 30
0.0
 11
1079.0
 21
597.5
 31
0.0
  0
LINE
  5
6C
100
AcDbEntity
  8
001
100
AcDbLine
 10
1055.0
 20
623.5
 30
0.0
 11
1041.427758
 21
599.263854
 31
0.0
  0
LINE
  5
6D
100
AcDbEntity
  8
001
100
AcDbLine
 10
1041.0
 20
648.5
 30
0.0
 11
1055.0
 21
623.5
 31
0.0
  0
LINE
  5
6E
100
AcDbEntity
  8
001
100
AcDbLine
 10
1032.0
 20
561.5
 30
0.0
 11
1078.0
 21
561.5
 31
0.0
  0
LINE
  5
6F
100
AcDbEntity
  8
001
100
AcDbLine
 10
508.5
 20
555.5
 30
0.0
 11
508.5
 21
558.1
 31
0.0
  0
POLYLINE
  5
70
100
AcDbEntity
  8
001
100
AcDb2dPolyline
 66
     1
 10
0.0
 20
0.0
 30
0.0
  0
VERTEX
  5
71
100
AcDbEntity
  8
001
100
AcDbVertex
100
AcDb2dVertex
 10
521.52967
 20
327.0
 30
0.0
  0
VERTEX
  5
72
100
AcDbEntity
  8
001
100
AcDbVertex
100
AcDb2dVertex
 10
520.544423
 20
327.63933
 30
0.0
  0
VERTEX
  5
73
100
AcDbEntity
  8
001
100
AcDbVertex
100
AcDb2dVertex
 10
519.373598
 20
328.250572
 30
0.0
  0
VERTEX
  5
74
100
AcDbEntity
  8
001
100
AcDbVertex
100
AcDb2dVertex
 10
518.026229
 20
328.829007
 30
0.0
  0
VERTEX
  5
75
100
AcDbEntity
  8
001
100
AcDbVertex
100
AcDb2dVertex
 10
516.512718
 20
329.37017
 30
0.0
  0
VERTEX
  5
76
100
AcDbEntity
  8
001
100
AcDbVertex
100
AcDb2dVertex
 10
514.844745
 20
329.869886
 30
0.0
  0
VERTEX
  5
77
100
AcDbEntity
  8
001
100
AcDbVertex
100
AcDb2dVertex
 10
513.035183
 20
330.324297
 30
0.0
  0
VERTEX
  5
78
100
AcDbEntity
  8
001
100
AcDbVertex
100
AcDb2dVertex
 10
511.098001
 20
330.729895
 30
0.0
  0
VERTEX
  5
79
100
AcDbEntity
  8
001
100
AcDbVertex
100
AcDb2dVertex
 10
509.048148
 20
331.083551
 30
0.0
  0
VERTEX
  5
7A
100
AcDbEntity
  8
001
100
AcDbVertex
100
AcDb2dVertex
 10
506.901446
 20
331.382536
 30
0.0
  0
VERTEX
  5
7B
100
AcDbEntity
  8
001
100
AcDbVertex
100
AcDb2dVertex
 10
504.674464
 20
331.62454
 30
0.0
  0
VERTEX
  5
7C
100
AcDbEntity
  8
001
100
AcDbVertex
100
AcDb2dVertex
 10
502.38439
 20
331.807697
 30
0.0
  0
VERTEX
  5
7D
100
AcDbEntity
  8
001
100
AcDbVertex
100
AcDb2dVertex
 10
500.0489
 20
331.930592
 30
0.0
  0
VERTEX
  5
7E
100
AcDbEntity
  8
001
100
AcDbVertex
100
AcDb2dVertex
 10
497.686018
 20
331.992278
 30
0.0
  0
VERTEX
  5
7F
100
AcDbEntity
  8
001
100
AcDbVertex
100
AcDb2dVertex
 10
495.313982
 20
331.992278
 30
0.0
  0
VERTEX
  5
80
100
AcDbEntity
  8
001
100
AcDbVertex
100
AcDb2dVertex
 10
492.9511
 20
331.930592
 30
0.0
  0
VERTEX
  5
81
100
AcDbEntity
  8
001
100
AcDbVertex
100
AcDb2dVertex
 10
490.61561
 20
331.807697
 30
0.0
  0
VERTEX
  5
82
100
AcDbEntity
  8
001
100
AcDbVertex
100
AcDb2dVertex
 10
488.325536
 20
331.62454
 30
0.0
  0
VERTEX
  5
83
100
AcDbEntity
  8
001
100
AcDbVertex
100
AcDb2dVertex
 10
486.098554
 20
331.382536
 30
0.0
  0
VERTEX
  5
84
100
AcDbEntity
  8
001
100
AcDbVertex
100
AcDb2dVertex
 10
483.951852
 20
331.083551
 30
0.0
  0
VERTEX
  5
85
100
AcDbEntity
  8
001
100
AcDbVertex
100
AcDb2dVertex
 10
481.901999
 20
330.729895
 30
0.0
  0
VERTEX
  5
86
100
AcDbEntity
  8
001
100
AcDbVertex
100
AcDb2dVertex
 10
479.964817
 20
330.324297
 30
0.0
  0
VERTEX
  5
87
100
AcDbEntity
  8
001
100
AcDbVertex
100
AcDb2dVertex
 10
478.155255
 20
329.869886
 30
0.0
  0
VERTEX
  5
88
100
AcDbEntity
  8
001
100
AcDbVertex
100
AcDb2dVertex
 10
476.487282
 20
329.37017
 30
0.0
  0
VERTEX
  5
89
100
AcDbEntity
  8
001
100
AcDbVertex
100
AcDb2dVertex
 10
474.973771
 20
328.829007
 30
0.0
  0
VERTEX
  5
8A
100
AcDbEntity
  8
001
100
AcDbVertex
100
AcDb2dVertex
 10
473.626402
 20
328.250572
 30
0.0
  0
VERTEX
  5
8B
100
AcDbEntity
  8
001
100
AcDbVertex
100
AcDb2dVertex
 10
472.455577
 20
327.63933
 30
0.0
  0
VERTEX
  5
8C
100
AcDbEntity
  8
001
100
AcDbVertex
100
AcDb2dVertex
 10
471.47033
 20
327.0
 30
0.0
  0
SEQEND
  5
8D
100
AcDbEntity
  8
001
  0
LINE
  5
8E
100
AcDbEntity
  8
001
  6
CENTER
100
AcDbLine
 10
496.5
 20
270.0
 30
0.0
 11
496.5
 21
668.5
 31
0.0
  0
LINE
  5
8F
100
AcDbEntity
  8
001
100
AcDbLine
 10
558.230906
 20
377.0
 30
0.0
 11
545.622031
 21
377.0
 31
0.0
  0
ARC
  5
90
100
AcDbEntity
  8
001
100
AcDbCircle
 10
545.622031
 20
387.0
 30
0.0
 40
10.0
100
AcDbArc
 50
167.500002
 51
270.0
  0
ARC
  5
91
100
AcDbEntity
  8
001
100
AcDbCircle
 10
558.230906
 20
392.0
 30
0.0
 40
15.0
100
AcDbArc
 50
270.0
 51
324.762823
  0
ARC
  5
92
100
AcDbEntity
  8
001
100
AcDbCircle
 10
558.230918
 20
275.0
 30
0.0
 40
15.0
100
AcDbArc
 50
35.237098
 51
90.0
  0
LINE
  5
93
100
AcDbEntity
  8
001
100
AcDbLine
 10
535.515869
 20
518.5
 30
0.0
 11
537.522598
 21
489.802433
 31
0.0
  0
ARC
  5
94
100
AcDbEntity
  8
001
100
AcDbCircle
 10
538.397232
 20
520.301411
 30
0.0
 40
3.0
100
AcDbArc
 50
216.903528
 51
265.79537
  0
LINE
  5
95
100
AcDbEntity
  8
001
100
AcDbLine
 10
538.177277
 20
517.309498
 30
0.0
 11
558.472443
 21
515.817524
 31
0.0
  0
ARC
  5
96
100
AcDbEntity
  8
001
100
AcDbCircle
 10
558.105865
 20
510.830967
 30
0.0
 40
5.0
100
AcDbArc
 50
4.000032
 51
85.795574
  0
LINE
  5
97
100
AcDbEntity
  8
001
100
AcDbLine
 10
563.093689
 20
511.179752
 30
0.0
 11
564.035629
 21
497.709263
 31
0.0
  0
ARC
  5
98
100
AcDbEntity
  8
001
100
AcDbCircle
 10
546.868896
 20
499.500004
 30
0.0
 40
10.0
100
AcDbArc
 50
3.890952
 51
184.000038
  0
ARC
  5
99
100
AcDbEntity
  8
001
100
AcDbCircle
 10
561.042938
 20
497.500004
 30
0.0
 40
3.0
100
AcDbArc
 50
324.986871
 51
3.999804
  0
ARC
  5
9A
100
AcDbEntity
  8
001
100
AcDbCircle
 10
547.498245
 20
490.500004
 30
0.0
 40
10.0
100
AcDbArc
 50
184.000032
 51
258.473302
  0
LINE
  5
9B
100
AcDbEntity
  8
001
100
AcDbLine
 10
540.0
 20
407.842922
 30
0.0
 11
516.69944
 21
302.740871
 31
0.0
  0
LINE
  5
9C
100
AcDbEntity
  8
001
100
AcDbLine
 10
559.186401
 20
373.48104
 30
0.0
 11
559.186401
 21
293.852337
 31
0.0
  0
ARC
  5
9D
100
AcDbEntity
  8
001
100
AcDbCircle
 10
587.02301
 20
380.762766
 30
0.0
 40
15.0
100
AcDbArc
 50
85.486052
 51
144.762848
  0
LINE
  5
9E
100
AcDbEntity
  8
001
100
AcDbLine
 10
588.203537
 20
395.71624
 30
0.0
 11
648.043701
 21
390.992016
 31
0.0
  0
LINE
  5
9F
100
AcDbEntity
  8
001
100
AcDbLine
 10
584.322662
 20
390.360857
 30
0.0
 11
584.322662
 21
276.605572
 31
0.0
  0
ARC
  5
A0
100
AcDbEntity
  8
001
100
AcDbCircle
 10
648.122391
 20
391.988914
 30
0.0
 40
1.0
100
AcDbArc
 50
265.486751
 51
339.851514
  0
LINE
  5
A1
100
AcDbEntity
  8
001
100
AcDbLine
 10
649.089783
 20
390.909431
 30
0.0
 11
649.089783
 21
342.5
 31
0.0
  0
ARC
  5
A2
100
AcDbEntity
  8
001
100
AcDbCircle
 10
650.0
 20
391.300001
 30
0.0
 40
1.0
100
AcDbArc
 50
90.0
 51
159.851316
  0
LINE
  5
A3
100
AcDbEntity
  8
001
100
AcDbLine
 10
650.0
 20
392.300001
 30
0.0
 11
671.0
 21
392.300001
 31
0.0
  0
ARC
  5
A4
100
AcDbEntity
  8
001
100
AcDbCircle
 10
671.0
 20
395.300001
 30
0.0
 40
3.0
100
AcDbArc
 50
270.0
 51
0.0
  0
ARC
  5
A5
100
AcDbEntity
  8
001
100
AcDbCircle
 10
676.0
 20
396.75
 30
0.0
 40
2.0
100
AcDbArc
 50
90.0
 51
180.0
  0
LINE
  5
A6
100
AcDbEntity
  8
001
100
AcDbLine
 10
676.0
 20
398.75
 30
0.0
 11
680.0
 21
398.75
 31
0.0
  0
ARC
  5
A7
100
AcDbEntity
  8
001
100
AcDbCircle
 10
696.0
 20
395.099831
 30
0.0
 40
2.0
100
AcDbArc
 50
0.0
 51
20.176161
  0
ARC
  5
A8
100
AcDbEntity
  8
001
100
AcDbCircle
 10
700.0
 20
389.0
 30
0.0
 40
1.999999
100
AcDbArc
 50
180.0
 51
270.0
  0
LINE
  5
A9
100
AcDbEntity
  8
001
100
AcDbLine
 10
700.0
 20
387.0
 30
0.0
 11
707.0
 21
387.0
 31
0.0
  0
ARC
  5
AA
100
AcDbEntity
  8
001
100
AcDbCircle
 10
707.0
 20
385.000002
 30
0.0
 40
1.999999
100
AcDbArc
 50
0.0
 51
90.0
  0
LINE
  5
AB
100
AcDbEntity
  8
001
100
AcDbLine
 10
674.0
 20
396.75
 30
0.0
 11
674.0
 21
270.250004
 31
0.0
  0
ARC
  5
AC
100
AcDbEntity
  8
001
100
AcDbCircle
 10
656.0
 20
342.5
 30
0.0
 40
3.0
100
AcDbArc
 50
270.0
 51
0.0
  0
LINE
  5
AD
100
AcDbEntity
  8
001
100
AcDbLine
 10
659.0
 20
327.5
 30
0.0
 11
659.0
 21
339.5
 31
0.0
  0
ARC
  5
AE
100
AcDbEntity
  8
001
100
AcDbCircle
 10
656.0
 20
324.5
 30
0.0
 40
3.0
100
AcDbArc
 50
0.0
 51
90.0
  0
LINE
  5
AF
100
AcDbEntity
  8
001
100
AcDbLine
 10
656.0
 20
327.5
 30
0.0
 11
602.0
 21
327.5
 31
0.0
  0
LINE
  5
B0
100
AcDbEntity
  8
001
100
AcDbLine
 10
656.0
 20
339.5
 30
0.0
 11
602.0
 21
339.5
 31
0.0
  0
ARC
  5
B1
100
AcDbEntity
  8
001
100
AcDbCircle
 10
646.089783
 20
342.5
 30
0.0
 40
3.0
100
AcDbArc
 50
322.856806
 51
0.0
  0
ARC
  5
B2
100
AcDbEntity
  8
001
100
AcDbCircle
 10
602.0
 20
342.5
 30
0.0
 40
3.0
100
AcDbArc
 50
180.0
 51
270.0
  0
LINE
  5
B3
100
AcDbEntity
  8
001
100
AcDbLine
 10
599.0
 20
327.5
 30
0.0
 11
599.0
 21
339.5
 31
0.0
  0
ARC
  5
B4
100
AcDbEntity
  8
001
100
AcDbCircle
 10
602.0
 20
324.5
 30
0.0
 40
3.0
100
AcDbArc
 50
90.0
 51
180.0
  0
ARC
  5
B5
100
AcDbEntity
  8
001
100
AcDbCircle
 10
646.089783
 20
324.5
 30
0.0
 40
3.0
100
AcDbArc
 50
0.0
 51
33.19074
  0
LINE
  5
B6
100
AcDbEntity
  8
001
100
AcDbLine
 10
649.089783
 20
324.5
 30
0.0
 11
649.089783
 21
276.090572
 31
0.0
  0
ARC
  5
B7
100
AcDbEntity
  8
001
100
AcDbCircle
 10
587.02301
 20
286.237232
 30
0.0
 40
15.0
100
AcDbArc
 50
215.237146
 51
274.513949
  0
LINE
  5
B8
100
AcDbEntity
  8
001
100
AcDbLine
 10
603.263893
 20
272.472737
 30
0.0
 11
588.203537
 21
271.283764
 31
0.0
  0
LINE
  5
B9
100
AcDbEntity
  8
001
100
AcDbLine
 10
624.263893
 20
274.130635
 30
0.0
 11
648.043701
 21
276.007984
 31
0.0
  0
ARC
  5
BA
100
AcDbEntity
  8
001
100
AcDbCircle
 10
648.122391
 20
275.011089
 30
0.0
 40
1.0
100
AcDbArc
 50
20.148178
 51
94.513266
  0
ARC
  5
BB
100
AcDbEntity
  8
001
100
AcDbCircle
 10
650.0
 20
275.700001
 30
0.0
 40
1.0
100
AcDbArc
 50
200.148889
 51
270.0
  0
LINE
  5
BC
100
AcDbEntity
  8
001
100
AcDbLine
 10
650.0
 20
274.700001
 30
0.0
 11
671.0
 21
274.700001
 31
0.0
  0
ARC
  5
BD
100
AcDbEntity
  8
001
100
AcDbCircle
 10
671.0
 20
271.700001
 30
0.0
 40
3.0
100
AcDbArc
 50
0.0
 51
90.0
  0
ARC
  5
BE
100
AcDbEntity
  8
001
100
AcDbCircle
 10
676.0
 20
270.250004
 30
0.0
 40
2.0
100
AcDbArc
 50
180.0
 51
270.0
  0
LINE
  5
BF
100
AcDbEntity
  8
001
100
AcDbLine
 10
676.0
 20
268.250004
 30
0.0
 11
686.015897
 21
268.250004
 31
0.0
  0
ARC
  5
C0
100
AcDbEntity
  8
001
100
AcDbCircle
 10
686.0
 20
301.375
 30
0.0
 40
33.125
100
AcDbArc
 50
269.972503
 51
288.740665
  0
ARC
  5
C1
100
AcDbEntity
  8
001
100
AcDbCircle
 10
696.0
 20
271.900173
 30
0.0
 40
2.0
100
AcDbArc
 50
288.74086
 51
0.0
  0
ARC
  5
C2
100
AcDbEntity
  8
001
100
AcDbCircle
 10
697.0
 20
266.965473
 30
0.0
 40
3.0
100
AcDbArc
 50
0.0
 51
107.727774
  0
LINE
  5
C3
100
AcDbEntity
  8
001
100
AcDbLine
 10
700.0
 20
259.5
 30
0.0
 11
700.0
 21
266.965473
 31
0.0
  0
ARC
  5
C4
100
AcDbEntity
  8
001
100
AcDbCircle
 10
700.0
 20
278.000004
 30
0.0
 40
1.999999
100
AcDbArc
 50
90.0
 51
180.0
  0
LINE
  5
C5
100
AcDbEntity
  8
001
100
AcDbLine
 10
700.0
 20
280.000004
 30
0.0
 11
707.0
 21
280.000004
 31
0.0
  0
ARC
  5
C6
100
AcDbEntity
  8
001
100
AcDbCircle
 10
707.0
 20
281.999996
 30
0.0
 40
1.999999
100
AcDbArc
 50
270.0
 51
0.0
  0
LINE
  5
C7
100
AcDbEntity
  8
001
100
AcDbLine
 10
575.0
 20
455.5
 30
0.0
 11
575.0
 21
465.5
 31
0.0
  0
LINE
  5
C8
100
AcDbEntity
  8
001
100
AcDbLine
 10
575.0
 20
471.5
 30
0.0
 11
575.0
 21
477.5
 31
0.0
  0
ARC
  5
C9
100
AcDbEntity
  8
001
100
AcDbCircle
 10
572.0
 20
477.5
 30
0.0
 40
3.0
100
AcDbArc
 50
0.0
 51
90.0
  0
ARC
  5
CA
100
AcDbEntity
  8
001
100
AcDbCircle
 10
572.0
 20
471.5
 30
0.0
 40
3.0
100
AcDbArc
 50
270.0
 51
0.0
  0
ARC
  5
CB
100
AcDbEntity
  8
001
100
AcDbCircle
 10
572.0
 20
465.5
 30
0.0
 40
3.0
100
AcDbArc
 50
0.0
 51
90.0
  0
ARC
  5
CC
100
AcDbEntity
  8
001
100
AcDbCircle
 10
572.0
 20
455.5
 30
0.0
 40
3.0
100
AcDbArc
 50
270.0
 51
0.0
  0
LINE
  5
CD
100
AcDbEntity
  8
001
100
AcDbLine
 10
540.0
 20
407.842922
 30
0.0
 11
540.0
 21
434.5
 31
0.0
  0
LINE
  5
CE
100
AcDbEntity
  8
001
100
AcDbLine
 10
544.632456
 20
448.397367
 30
0.0
 11
540.0
 21
434.5
 31
0.0
  0
ARC
  5
CF
100
AcDbEntity
  8
001
100
AcDbCircle
 10
550.324555
 20
446.5
 30
0.0
 40
6.0
100
AcDbArc
 50
141.926877
 51
161.565051
  0
LINE
  5
D0
100
AcDbEntity
  8
001
100
AcDbLine
 10
621.5
 20
250.5
 30
0.0
 11
621.5
 21
292.663809
 31
0.0
  0
LINE
  5
D1
100
AcDbEntity
  8
001
100
AcDbLine
 10
606.5
 20
250.5
 30
0.0
 11
606.5
 21
290.40435
 31
0.0
  0
LINE
  5
D2
100
AcDbEntity
  8
001
100
AcDbLine
 10
618.5
 20
247.5
 30
0.0
 11
609.5
 21
247.5
 31
0.0
  0
LINE
  5
D3
100
AcDbEntity
  8
001
100
AcDbLine
 10
619.823962
 20
294.24075
 30
0.0
 11
607.703691
 21
292.799421
 31
0.0
  0
ARC
  5
D4
100
AcDbEntity
  8
001
100
AcDbCircle
 10
604.5
 20
290.40435
 30
0.0
 40
2.0
100
AcDbArc
 50
0.0
 51
96.781703
  0
ARC
  5
D5
100
AcDbEntity
  8
001
100
AcDbCircle
 10
623.5
 20
292.663809
 30
0.0
 40
2.0
100
AcDbArc
 50
96.781703
 51
180.0
  0
ARC
  5
D6
100
AcDbEntity
  8
001
100
AcDbCircle
 10
603.5
 20
269.482042
 30
0.0
 40
3.0
100
AcDbArc
 50
0.0
 51
94.513979
  0
ARC
  5
D7
100
AcDbEntity
  8
001
100
AcDbCircle
 10
624.5
 20
271.13994
 30
0.0
 40
3.0
100
AcDbArc
 50
94.513979
 51
180.0
  0
ARC
  5
D8
100
AcDbEntity
  8
001
100
AcDbCircle
 10
609.5
 20
250.5
 30
0.0
 40
3.0
100
AcDbArc
 50
180.0
 51
270.0
  0
ARC
  5
D9
100
AcDbEntity
  8
001
100
AcDbCircle
 10
618.5
 20
250.5
 30
0.0
 40
3.0
100
AcDbArc
 50
270.0
 51
0.0
  0
LINE
  5
DA
100
AcDbEntity
  8
001
  6
CENTER
100
AcDbLine
 10
629.0
 20
322.5
 30
0.0
 11
629.0
 21
344.5
 31
0.0
  0
LINE
  5
DB
100
AcDbEntity
  8
001
100
AcDbLine
 10
1067.0
 20
549.5
 30
0.0
 11
1067.0
 21
558.1
 31
0.0
  0
LINE
  5
DC
100
AcDbEntity
  8
001
100
AcDbLine
 10
1108.152344
 20
518.500004
 30
0.0
 11
1109.142334
 21
490.151005
 31
0.0
  0
ARC
  5
DD
100
AcDbEntity
  8
001
100
AcDbCircle
 10
1069.153687
 20
512.659458
 30
0.0
 40
5.0
100
AcDbArc
 50
121.046521
 51
179.515832
  0
LINE
  5
DE
100
AcDbEntity
  8
001
100
AcDbLine
 10
1067.5
 20
498.802433
 30
0.0
 11
1067.5
 21
517.500004
 31
0.0
  0
LINE
  5
DF
100
AcDbEntity
  8
001
100
AcDbLine
 10
1064.153809
 20
512.70171
 30
0.0
 11
1064.016724
 21
496.483097
 31
0.0
  0
POLYLINE
  5
E0
100
AcDbEntity
  8
001
100
AcDb2dPolyline
 66
     1
 10
0.0
 20
0.0
 30
0.0
  0
VERTEX
  5
E1
100
AcDbEntity
  8
001
100
AcDbVertex
100
AcDb2dVertex
 10
1067.5
 20
498.802433
 30
0.0
  0
VERTEX
  5
E2
100
AcDbEntity
  8
001
100
AcDbVertex
100
AcDb2dVertex
 10
1067.444702
 20
499.356419
 30
0.0
  0
VERTEX
  5
E3
100
AcDbEntity
  8
001
100
AcDbVertex
100
AcDb2dVertex
 10
1067.389343
 20
499.909077
 30
0.0
  0
VERTEX
  5
E4
100
AcDbEntity
  8
001
100
AcDbVertex
100
AcDb2dVertex
 10
1067.334045
 20
500.459126
 30
0.0
  0
VERTEX
  5
E5
100
AcDbEntity
  8
001
100
AcDbVertex
100
AcDb2dVertex
 10
1067.278687
 20
501.005192
 30
0.0
  0
VERTEX
  5
E6
100
AcDbEntity
  8
001
100
AcDbVertex
100
AcDb2dVertex
 10
1067.223328
 20
501.546024
 30
0.0
  0
VERTEX
  5
E7
100
AcDbEntity
  8
001
100
AcDbVertex
100
AcDb2dVertex
 10
1067.167969
 20
502.08025
 30
0.0
  0
VERTEX
  5
E8
100
AcDbEntity
  8
001
100
AcDbVertex
100
AcDb2dVertex
 10
1067.112488
 20
502.606556
 30
0.0
  0
VERTEX
  5
E9
100
AcDbEntity
  8
001
100
AcDbVertex
100
AcDb2dVertex
 10
1067.057007
 20
503.123631
 30
0.0
  0
VERTEX
  5
EA
100
AcDbEntity
  8
001
100
AcDbVertex
100
AcDb2dVertex
 10
1067.001526
 20
503.630222
 30
0.0
  0
VERTEX
  5
EB
100
AcDbEntity
  8
001
100
AcDbVertex
100
AcDb2dVertex
 10
1066.945923
 20
504.124897
 30
0.0
  0
VERTEX
  5
EC
100
AcDbEntity
  8
001
100
AcDbVertex
100
AcDb2dVertex
 10
1066.890259
 20
504.606419
 30
0.0
  0
VERTEX
  5
ED
100
AcDbEntity
  8
001
100
AcDbVertex
100
AcDb2dVertex
 10
1066.834595
 20
505.073475
 30
0.0
  0
VERTEX
  5
EE
100
AcDbEntity
  8
001
100
AcDbVertex
100
AcDb2dVertex
 10
1066.778809
 20
505.524677
 30
0.0
  0
VERTEX
  5
EF
100
AcDbEntity
  8
001
100
AcDbVertex
100
AcDb2dVertex
 10
1066.722961
 20
505.95879
 30
0.0
  0
VERTEX
  5
F0
100
AcDbEntity
  8
001
100
AcDbVertex
100
AcDb2dVertex
 10
1066.666992
 20
506.374454
 30
0.0
  0
VERTEX
  5
F1
100
AcDbEntity
  8
001
100
AcDbVertex
100
AcDb2dVertex
 10
1066.610962
 20
506.770344
 30
0.0
  0
VERTEX
  5
F2
100
AcDbEntity
  8
001
100
AcDbVertex
100
AcDb2dVertex
 10
1066.55481
 20
507.14513
 30
0.0
  0
VERTEX
  5
F3
100
AcDbEntity
  8
001
100
AcDbVertex
100
AcDb2dVertex
 10
1066.498596
 20
507.497562
 30
0.0
  0
VERTEX
  5
F4
100
AcDbEntity
  8
001
100
AcDbVertex
100
AcDb2dVertex
 10
1066.4422
 20
507.826237
 30
0.0
  0
VERTEX
  5
F5
100
AcDbEntity
  8
001
100
AcDbVertex
100
AcDb2dVertex
 10
1066.385742
 20
508.129902
 30
0.0
  0
VERTEX
  5
F6
100
AcDbEntity
  8
001
100
AcDbVertex
100
AcDb2dVertex
 10
1066.329163
 20
508.407246
 30
0.0
  0
VERTEX
  5
F7
100
AcDbEntity
  8
001
100
AcDbVertex
100
AcDb2dVertex
 10
1066.272461
 20
508.656864
 30
0.0
  0
VERTEX
  5
F8
100
AcDbEntity
  8
001
100
AcDbVertex
100
AcDb2dVertex
 10
1066.215637
 20
508.877552
 30
0.0
  0
VERTEX
  5
F9
100
AcDbEntity
  8
001
100
AcDbVertex
100
AcDb2dVertex
 10
1066.15863
 20
509.067936
 30
0.0
  0
VERTEX
  5
FA
100
AcDbEntity
  8
001
100
AcDbVertex
100
AcDb2dVertex
 10
1066.101501
 20
509.226673
 30
0.0
  0
VERTEX
  5
FB
100
AcDbEntity
  8
001
100
AcDbVertex
100
AcDb2dVertex
 10
1066.044189
 20
509.352467
 30
0.0
  0
VERTEX
  5
FC
100
AcDbEntity
  8
001
100
AcDbVertex
100
AcDb2dVertex
 10
1065.986755
 20
509.444035
 30
0.0
  0
VERTEX
  5
FD
100
AcDbEntity
  8
001
100
AcDbVertex
100
AcDb2dVertex
 10
1065.929138
 20
509.500004
 30
0.0
  0
VERTEX
  5
FE
100
AcDbEntity
  8
001
100
AcDbVertex
100
AcDb2dVertex
 10
1065.871338
 20
509.519108
 30
0.0
  0
VERTEX
  5
FF
100
AcDbEntity
  8
001
100
AcDbVertex
100
AcDb2dVertex
 10
1065.813354
 20
509.500004
 30
0.0
  0
VERTEX
  5
100
100
AcDbEntity
  8
001
100
AcDbVertex
100
AcDb2dVertex
 10
1065.755249
 20
509.441792
 30
0.0
  0
VERTEX
  5
101
100
AcDbEntity
  8
001
100
AcDbVertex
100
AcDb2dVertex
 10
1065.696899
 20
509.345387
 30
0.0
  0
VERTEX
  5
102
100
AcDbEntity
  8
001
100
AcDbVertex
100
AcDb2dVertex
 10
1065.638428
 20
509.212101
 30
0.0
  0
VERTEX
  5
103
100
AcDbEntity
  8
001
100
AcDbVertex
100
AcDb2dVertex
 10
1065.579773
 20
509.043217
 30
0.0
  0
VERTEX
  5
104
100
AcDbEntity
  8
001
100
AcDbVertex
100
AcDb2dVertex
 10
1065.520935
 20
508.840122
 30
0.0
  0
VERTEX
  5
105
100
AcDbEntity
  8
001
100
AcDbVertex
100
AcDb2dVertex
 10
1065.461975
 20
508.604053
 30
0.0
  0
VERTEX
  5
106
100
AcDbEntity
  8
001
100
AcDbVertex
100
AcDb2dVertex
 10
1065.402832
 20
508.336369
 30
0.0
  0
VERTEX
  5
107
100
AcDbEntity
  8
001
100
AcDbVertex
100
AcDb2dVertex
 10
1065.343567
 20
508.03838
 30
0.0
  0
VERTEX
  5
108
100
AcDbEntity
  8
001
100
AcDbVertex
100
AcDb2dVertex
 10
1065.28418
 20
507.711445
 30
0.0
  0
VERTEX
  5
109
100
AcDbEntity
  8
001
100
AcDbVertex
100
AcDb2dVertex
 10
1065.22467
 20
507.356785
 30
0.0
  0
VERTEX
  5
10A
100
AcDbEntity
  8
001
100
AcDbVertex
100
AcDb2dVertex
 10
1065.165039
 20
506.975819
 30
0.0
  0
VERTEX
  5
10B
100
AcDbEntity
  8
001
100
AcDbVertex
100
AcDb2dVertex
 10
1065.105286
 20
506.569828
 30
0.0
  0
VERTEX
  5
10C
100
AcDbEntity
  8
001
100
AcDbVertex
100
AcDb2dVertex
 10
1065.04541
 20
506.140079
 30
0.0
  0
VERTEX
  5
10D
100
AcDbEntity
  8
001
100
AcDbVertex
100
AcDb2dVertex
 10
1064.985474
 20
505.687977
 30
0.0
  0
VERTEX
  5
10E
100
AcDbEntity
  8
001
100
AcDbVertex
100
AcDb2dVertex
 10
1064.925354
 20
505.214771
 30
0.0
  0
VERTEX
  5
10F
100
AcDbEntity
  8
001
100
AcDbVertex
100
AcDb2dVertex
 10
1064.865234
 20
504.721806
 30
0.0
  0
VERTEX
  5
110
100
AcDbEntity
  8
001
100
AcDbVertex
100
AcDb2dVertex
 10
1064.804932
 20
504.210392
 30
0.0
  0
VERTEX
  5
111
100
AcDbEntity
  8
001
100
AcDbVertex
100
AcDb2dVertex
 10
1064.744629
 20
503.681873
 30
0.0
  0
VERTEX
  5
112
100
AcDbEntity
  8
001
100
AcDbVertex
100
AcDb2dVertex
 10
1064.684204
 20
503.137501
 30
0.0
  0
VERTEX
  5
113
100
AcDbEntity
  8
001
100
AcDbVertex
100
AcDb2dVertex
 10
1064.623779
 20
502.578663
 30
0.0
  0
VERTEX
  5
114
100
AcDbEntity
  8
001
100
AcDbVertex
100
AcDb2dVertex
 10
1064.563232
 20
502.006672
 30
0.0
  0
VERTEX
  5
115
100
AcDbEntity
  8
001
100
AcDbVertex
100
AcDb2dVertex
 10
1064.502625
 20
501.422779
 30
0.0
  0
VERTEX
  5
116
100
AcDbEntity
  8
001
100
AcDbVertex
100
AcDb2dVertex
 10
1064.442017
 20
500.828388
 30
0.0
  0
VERTEX
  5
117
100
AcDbEntity
  8
001
100
AcDbVertex
100
AcDb2dVertex
 10
1064.381348
 20
500.224766
 30
0.0
  0
VERTEX
  5
118
100
AcDbEntity
  8
001
100
AcDbVertex
100
AcDb2dVertex
 10
1064.320618
 20
499.613239
 30
0.0
  0
VERTEX
  5
119
100
AcDbEntity
  8
001
100
AcDbVertex
100
AcDb2dVertex
 10
1064.259888
 20
498.995106
 30
0.0
  0
VERTEX
  5
11A
100
AcDbEntity
  8
001
100
AcDbVertex
100
AcDb2dVertex
 10
1064.199158
 20
498.371723
 30
0.0
  0
VERTEX
  5
11B
100
AcDbEntity
  8
001
100
AcDbVertex
100
AcDb2dVertex
 10
1064.138367
 20
497.744358
 30
0.0
  0
VERTEX
  5
11C
100
AcDbEntity
  8
001
100
AcDbVertex
100
AcDb2dVertex
 10
1064.077576
 20
497.114384
 30
0.0
  0
VERTEX
  5
11D
100
AcDbEntity
  8
001
100
AcDbVertex
100
AcDb2dVertex
 10
1064.016724
 20
496.483097
 30
0.0
  0
SEQEND
  5
11E
100
AcDbEntity
  8
001
  0
ARC
  5
11F
100
AcDbEntity
  8
001
100
AcDbCircle
 10
1062.016846
 20
496.500004
 30
0.0
 40
2.0
100
AcDbArc
 50
270.0
 51
359.51564
  0
LINE
  5
120
100
AcDbEntity
  8
001
100
AcDbLine
 10
1066.575012
 20
516.943211
 30
0.0
 11
1067.5
 21
517.500004
 31
0.0
  0
ARC
  5
121
100
AcDbEntity
  8
001
100
AcDbCircle
 10
1119.13623
 20
490.500004
 30
0.0
 40
10.0
100
AcDbArc
 50
182.000026
 51
270.0
  0
ARC
  5
122
100
AcDbEntity
  8
001
100
AcDbCircle
 10
1058.0
 20
418.447044
 30
0.0
 40
1.0
100
AcDbArc
 50
0.0
 51
87.978275
  0
LINE
  5
123
100
AcDbEntity
  8
001
100
AcDbLine
 10
1059.0
 20
418.447044
 30
0.0
 11
1059.0
 21
388.272257
 31
0.0
  0
ARC
  5
124
100
AcDbEntity
  8
001
100
AcDbCircle
 10
1081.5
 20
413.210415
 30
0.0
 40
1.999999
100
AcDbArc
 50
0.0
 51
71.61129
  0
LINE
  5
125
100
AcDbEntity
  8
001
100
AcDbLine
 10
1083.5
 20
390.858522
 30
0.0
 11
1083.5
 21
413.210415
 31
0.0
  0
ARC
  5
126
100
AcDbEntity
  8
001
100
AcDbCircle
 10
1060.0
 20
397.805912
 30
0.0
 40
1.0
100
AcDbArc
 50
180.0
 51
265.554291
  0
ARC
  5
127
100
AcDbEntity
  8
001
100
AcDbCircle
 10
1060.0
 20
388.272257
 30
0.0
 40
1.0
100
AcDbArc
 50
180.0
 51
264.782192
  0
ARC
  5
128
100
AcDbEntity
  8
001
100
AcDbCircle
 10
1055.0
 20
333.5
 30
0.0
 40
86.0
100
AcDbArc
 50
163.192529
 51
196.807471
  0
ARC
  5
129
100
AcDbEntity
  8
001
100
AcDbCircle
 10
1000.227783
 20
338.5
 30
0.0
 40
1.0
100
AcDbArc
 50
270.0
 51
354.784101
  0
LINE
  5
12A
100
AcDbEntity
  8
001
100
AcDbLine
 10
970.052979
 20
337.5
 30
0.0
 11
1000.227783
 21
337.5
 31
0.0
  0
ARC
  5
12B
100
AcDbEntity
  8
001
100
AcDbCircle
 10
990.694092
 20
338.5
 30
0.0
 40
1.0
100
AcDbArc
 50
270.0
 51
355.55414
  0
ARC
  5
12C
100
AcDbEntity
  8
001
100
AcDbCircle
 10
970.052979
 20
336.5
 30
0.0
 40
1.0
100
AcDbArc
 50
90.0
 51
177.977323
  0
LINE
  5
12D
100
AcDbEntity
  8
001
100
AcDbLine
 10
963.0
 20
339.5
 30
0.0
 11
969.209595
 21
339.5
 31
0.0
  0
ARC
  5
12E
100
AcDbEntity
  8
001
100
AcDbCircle
 10
963.0
 20
336.5
 30
0.0
 40
3.0
100
AcDbArc
 50
90.0
 51
180.0
  0
LINE
  5
12F
100
AcDbEntity
  8
001
100
AcDbLine
 10
960.0
 20
330.5
 30
0.0
 11
960.0
 21
336.5
 31
0.0
  0
ARC
  5
130
100
AcDbEntity
  8
001
100
AcDbCircle
 10
1000.227783
 20
328.5
 30
0.0
 40
1.0
100
AcDbArc
 50
5.216117
 51
90.0
  0
LINE
  5
131
100
AcDbEntity
  8
001
100
AcDbLine
 10
970.052979
 20
329.5
 30
0.0
 11
1000.227783
 21
329.5
 31
0.0
  0
ARC
  5
132
100
AcDbEntity
  8
001
100
AcDbCircle
 10
990.694092
 20
328.5
 30
0.0
 40
1.0
100
AcDbArc
 50
4.44586
 51
90.0
  0
ARC
  5
133
100
AcDbEntity
  8
001
100
AcDbCircle
 10
1055.0
 20
333.5
 30
0.0
 40
63.5
100
AcDbArc
 50
274.445994
 51
355.554004
  0
ARC
  5
134
100
AcDbEntity
  8
001
100
AcDbCircle
 10
970.052979
 20
330.5
 30
0.0
 40
1.0
100
AcDbArc
 50
182.022568
 51
270.0
  0
LINE
  5
135
100
AcDbEntity
  8
001
100
AcDbLine
 10
963.0
 20
327.5
 30
0.0
 11
969.209595
 21
327.5
 31
0.0
  0
ARC
  5
136
100
AcDbEntity
  8
001
100
AcDbCircle
 10
963.0
 20
330.5
 30
0.0
 40
3.0
100
AcDbArc
 50
180.0
 51
270.0
  0
LINE
  5
137
100
AcDbEntity
  8
001
100
AcDbLine
 10
1075.0
 20
252.259617
 30
0.0
 11
1075.0
 21
272.514347
 31
0.0
  0
ARC
  5
138
100
AcDbEntity
  8
001
100
AcDbCircle
 10
1072.0
 20
252.259617
 30
0.0
 40
3.0
100
AcDbArc
 50
281.818596
 51
0.0
  0
ARC
  5
139
100
AcDbEntity
  8
001
100
AcDbCircle
 10
1076.0
 20
272.514347
 30
0.0
 40
1.0
100
AcDbArc
 50
109.003091
 51
180.0
  0
ARC
  5
13A
100
AcDbEntity
  8
001
100
AcDbCircle
 10
1060.0
 20
278.727749
 30
0.0
 40
1.0
100
AcDbArc
 50
95.217818
 51
180.0
  0
LINE
  5
13B
100
AcDbEntity
  8
001
100
AcDbLine
 10
1059.0
 20
248.552959
 30
0.0
 11
1059.0
 21
278.727749
 31
0.0
  0
ARC
  5
13C
100
AcDbEntity
  8
001
100
AcDbCircle
 10
1058.0
 20
248.552959
 30
0.0
 40
1.0
100
AcDbArc
 50
272.021725
 51
0.0
  0
LINE
  5
13D
100
AcDbEntity
  8
001
100
AcDbLine
 10
1151.0
 20
455.5
 30
0.0
 11
1151.0
 21
465.5
 31
0.0
  0
LINE
  5
13E
100
AcDbEntity
  8
001
100
AcDbLine
 10
1151.0
 20
471.5
 30
0.0
 11
1151.0
 21
477.5
 31
0.0
  0
ARC
  5
13F
100
AcDbEntity
  8
001
100
AcDbCircle
 10
1148.0
 20
477.5
 30
0.0
 40
3.0
100
AcDbArc
 50
0.0
 51
90.0
  0
ARC
  5
140
100
AcDbEntity
  8
001
100
AcDbCircle
 10
1148.0
 20
471.5
 30
0.0
 40
3.0
100
AcDbArc
 50
270.0
 51
0.0
  0
ARC
  5
141
100
AcDbEntity
  8
001
100
AcDbCircle
 10
1148.0
 20
465.5
 30
0.0
 40
3.0
100
AcDbArc
 50
0.0
 51
90.0
  0
ARC
  5
142
100
AcDbEntity
  8
001
100
AcDbCircle
 10
1148.0
 20
455.5
 30
0.0
 40
3.0
100
AcDbArc
 50
270.0
 51
0.0
  0
LINE
  5
143
100
AcDbEntity
  8
001
100
AcDbLine
 10
994.0
 20
434.5
 30
0.0
 11
994.0
 21
353.5
 31
0.0
  0
LINE
  5
144
100
AcDbEntity
  8
001
100
AcDbLine
 10
1120.632456
 20
448.397367
 30
0.0
 11
1116.0
 21
434.5
 31
0.0
  0
ARC
  5
145
100
AcDbEntity
  8
001
100
AcDbCircle
 10
1126.324555
 20
446.5
 30
0.0
 40
6.0
100
AcDbArc
 50
112.794425
 51
161.565051
  0
LINE
  5
146
100
AcDbEntity
  8
001
100
AcDbLine
 10
1109.736694
 20
551.662033
 30
0.0
 11
1111.081116
 21
518.5
 31
0.0
  0
LINE
  5
147
100
AcDbEntity
  8
001
100
AcDbLine
 10
1081.919403
 20
546.588226
 30
0.0
 11
1082.978577
 21
520.461609
 31
0.0
  0
ARC
  5
148
100
AcDbEntity
  8
001
100
AcDbCircle
 10
1105.73999
 20
551.5
 30
0.0
 40
4.0
100
AcDbArc
 50
2.321596
 51
90.0
  0
LINE
  5
149
100
AcDbEntity
  8
001
100
AcDbLine
 10
1082.0
 20
555.5
 30
0.0
 11
1105.73999
 21
555.5
 31
0.0
  0
ARC
  5
14A
100
AcDbEntity
  8
001
100
AcDbCircle
 10
1095.5
 20
551.5
 30
0.0
 40
4.0
100
AcDbArc
 50
90.0
 51
180.0
  0
ARC
  5
14B
100
AcDbEntity
  8
001
100
AcDbCircle
 10
1089.5
 20
551.5
 30
0.0
 40
2.0
100
AcDbArc
 50
270.0
 51
0.0
  0
ARC
  5
14C
100
AcDbEntity
  8
001
100
AcDbCircle
 10
1082.0
 20
551.5
 30
0.0
 40
4.0
100
AcDbArc
 50
90.0
 51
180.0
  0
ARC
  5
14D
100
AcDbEntity
  8
001
100
AcDbCircle
 10
1076.0
 20
551.5
 30
0.0
 40
2.0
100
AcDbArc
 50
270.0
 51
0.0
  0
LINE
  5
14E
100
AcDbEntity
  8
001
100
AcDbLine
 10
536.749748
 20
549.5
 30
0.0
 11
532.887097
 21
549.5
 31
0.0
  0
LINE
  5
14F
100
AcDbEntity
  8
001
100
AcDbLine
 10
540.74145
 20
545.757529
 30
0.0
 11
542.5
 21
518.5
 31
0.0
  0
LINE
  5
150
100
AcDbEntity
  8
001
100
AcDbLine
 10
532.74145
 20
551.757529
 30
0.0
 11
534.887097
 21
518.5
 31
0.0
  0
ARC
  5
151
100
AcDbEntity
  8
001
100
AcDbCircle
 10
528.749748
 20
551.5
 30
0.0
 40
4.0
100
AcDbArc
 50
3.691386
 51
90.0
  0
ARC
  5
152
100
AcDbEntity
  8
001
100
AcDbCircle
 10
536.749748
 20
545.5
 30
0.0
 40
4.0
100
AcDbArc
 50
3.691386
 51
90.0
  0
LINE
  5
153
100
AcDbEntity
  8
001
100
AcDbLine
 10
1100.0
 20
288.697656
 30
0.0
 11
1100.0
 21
250.5
 31
0.0
  0
ARC
  5
154
100
AcDbEntity
  8
001
100
AcDbCircle
 10
1097.0
 20
250.5
 30
0.0
 40
3.0
100
AcDbArc
 50
270.0
 51
0.0
  0
ARC
  5
155
100
AcDbEntity
  8
001
100
AcDbCircle
 10
1060.0
 20
269.19409
 30
0.0
 40
1.0
100
AcDbArc
 50
94.445994
 51
180.0
  0
LINE
  5
156
100
AcDbEntity
  8
001
100
AcDbLine
 10
1001.847656
 20
518.500004
 30
0.0
 11
1000.857666
 21
490.151005
 31
0.0
  0
ARC
  5
157
100
AcDbEntity
  8
001
100
AcDbCircle
 10
1040.846313
 20
512.659458
 30
0.0
 40
5.0
100
AcDbArc
 50
0.484168
 51
58.953479
  0
LINE
  5
158
100
AcDbEntity
  8
001
100
AcDbLine
 10
1042.5
 20
498.802433
 30
0.0
 11
1042.5
 21
517.500004
 31
0.0
  0
LINE
  5
159
100
AcDbEntity
  8
001
100
AcDbLine
 10
1045.846191
 20
512.70171
 30
0.0
 11
1045.983276
 21
496.483097
 31
0.0
  0
POLYLINE
  5
15A
100
AcDbEntity
  8
001
100
AcDb2dPolyline
 66
     1
 10
0.0
 20
0.0
 30
0.0
  0
VERTEX
  5
15B
100
AcDbEntity
  8
001
100
AcDbVertex
100
AcDb2dVertex
 10
1042.5
 20
498.802433
 30
0.0
  0
VERTEX
  5
15C
100
AcDbEntity
  8
001
100
AcDbVertex
100
AcDb2dVertex
 10
1042.555298
 20
499.356419
 30
0.0
  0
VERTEX
  5
15D
100
AcDbEntity
  8
001
100
AcDbVertex
100
AcDb2dVertex
 10
1042.610657
 20
499.909077
 30
0.0
  0
VERTEX
  5
15E
100
AcDbEntity
  8
001
100
AcDbVertex
100
AcDb2dVertex
 10
1042.665955
 20
500.459126
 30
0.0
  0
VERTEX
  5
15F
100
AcDbEntity
  8
001
100
AcDbVertex
100
AcDb2dVertex
 10
1042.721313
 20
501.005192
 30
0.0
  0
VERTEX
  5
160
100
AcDbEntity
  8
001
100
AcDbVertex
100
AcDb2dVertex
 10
1042.776672
 20
501.546024
 30
0.0
  0
VERTEX
  5
161
100
AcDbEntity
  8
001
100
AcDbVertex
100
AcDb2dVertex
 10
1042.832031
 20
502.08025
 30
0.0
  0
VERTEX
  5
162
100
AcDbEntity
  8
001
100
AcDbVertex
100
AcDb2dVertex
 10
1042.887512
 20
502.606556
 30
0.0
  0
VERTEX
  5
163
100
AcDbEntity
  8
001
100
AcDbVertex
100
AcDb2dVertex
 10
1042.942993
 20
503.123631
 30
0.0
  0
VERTEX
  5
164
100
AcDbEntity
  8
001
100
AcDbVertex
100
AcDb2dVertex
 10
1042.998474
 20
503.630222
 30
0.0
  0
VERTEX
  5
165
100
AcDbEntity
  8
001
100
AcDbVertex
100
AcDb2dVertex
 10
1043.054077
 20
504.124897
 30
0.0
  0
VERTEX
  5
166
100
AcDbEntity
  8
001
100
AcDbVertex
100
AcDb2dVertex
 10
1043.109741
 20
504.606419
 30
0.0
  0
VERTEX
  5
167
100
AcDbEntity
  8
001
100
AcDbVertex
100
AcDb2dVertex
 10
1043.165405
 20
505.073475
 30
0.0
  0
VERTEX
  5
168
100
AcDbEntity
  8
001
100
AcDbVertex
100
AcDb2dVertex
 10
1043.221191
 20
505.524677
 30
0.0
  0
VERTEX
  5
169
100
AcDbEntity
  8
001
100
AcDbVertex
100
AcDb2dVertex
 10
1043.277039
 20
505.95879
 30
0.0
  0
VERTEX
  5
16A
100
AcDbEntity
  8
001
100
AcDbVertex
100
AcDb2dVertex
 10
1043.333008
 20
506.374454
 30
0.0
  0
VERTEX
  5
16B
100
AcDbEntity
  8
001
100
AcDbVertex
100
AcDb2dVertex
 10
1043.389038
 20
506.770344
 30
0.0
  0
VERTEX
  5
16C
100
AcDbEntity
  8
001
100
AcDbVertex
100
AcDb2dVertex
 10
1043.44519
 20
507.14513
 30
0.0
  0
VERTEX
  5
16D
100
AcDbEntity
  8
001
100
AcDbVertex
100
AcDb2dVertex
 10
1043.501404
 20
507.497562
 30
0.0
  0
VERTEX
  5
16E
100
AcDbEntity
  8
001
100
AcDbVertex
100
AcDb2dVertex
 10
1043.5578
 20
507.826237
 30
0.0
  0
VERTEX
  5
16F
100
AcDbEntity
  8
001
100
AcDbVertex
100
AcDb2dVertex
 10
1043.614258
 20
508.129902
 30
0.0
  0
VERTEX
  5
170
100
AcDbEntity
  8
001
100
AcDbVertex
100
AcDb2dVertex
 10
1043.670837
 20
508.407246
 30
0.0
  0
VERTEX
  5
171
100
AcDbEntity
  8
001
100
AcDbVertex
100
AcDb2dVertex
 10
1043.727539
 20
508.656864
 30
0.0
  0
VERTEX
  5
172
100
AcDbEntity
  8
001
100
AcDbVertex
100
AcDb2dVertex
 10
1043.784363
 20
508.877552
 30
0.0
  0
VERTEX
  5
173
100
AcDbEntity
  8
001
100
AcDbVertex
100
AcDb2dVertex
 10
1043.84137
 20
509.067936
 30
0.0
  0
VERTEX
  5
174
100
AcDbEntity
  8
001
100
AcDbVertex
100
AcDb2dVertex
 10
1043.898499
 20
509.226673
 30
0.0
  0
VERTEX
  5
175
100
AcDbEntity
  8
001
100
AcDbVertex
100
AcDb2dVertex
 10
1043.955811
 20
509.352467
 30
0.0
  0
VERTEX
  5
176
100
AcDbEntity
  8
001
100
AcDbVertex
100
AcDb2dVertex
 10
1044.013245
 20
509.444035
 30
0.0
  0
VERTEX
  5
177
100
AcDbEntity
  8
001
100
AcDbVertex
100
AcDb2dVertex
 10
1044.070862
 20
509.500004
 30
0.0
  0
VERTEX
  5
178
100
AcDbEntity
  8
001
100
AcDbVertex
100
AcDb2dVertex
 10
1044.128662
 20
509.519108
 30
0.0
  0
VERTEX
  5
179
100
AcDbEntity
  8
001
100
AcDbVertex
100
AcDb2dVertex
 10
1044.186646
 20
509.500004
 30
0.0
  0
VERTEX
  5
17A
100
AcDbEntity
  8
001
100
AcDbVertex
100
AcDb2dVertex
 10
1044.244751
 20
509.441792
 30
0.0
  0
VERTEX
  5
17B
100
AcDbEntity
  8
001
100
AcDbVertex
100
AcDb2dVertex
 10
1044.303101
 20
509.345387
 30
0.0
  0
VERTEX
  5
17C
100
AcDbEntity
  8
001
100
AcDbVertex
100
AcDb2dVertex
 10
1044.361572
 20
509.212101
 30
0.0
  0
VERTEX
  5
17D
100
AcDbEntity
  8
001
100
AcDbVertex
100
AcDb2dVertex
 10
1044.420227
 20
509.043217
 30
0.0
  0
VERTEX
  5
17E
100
AcDbEntity
  8
001
100
AcDbVertex
100
AcDb2dVertex
 10
1044.479065
 20
508.840122
 30
0.0
  0
VERTEX
  5
17F
100
AcDbEntity
  8
001
100
AcDbVertex
100
AcDb2dVertex
 10
1044.538025
 20
508.604053
 30
0.0
  0
VERTEX
  5
180
100
AcDbEntity
  8
001
100
AcDbVertex
100
AcDb2dVertex
 10
1044.597168
 20
508.336369
 30
0.0
  0
VERTEX
  5
181
100
AcDbEntity
  8
001
100
AcDbVertex
100
AcDb2dVertex
 10
1044.656433
 20
508.03838
 30
0.0
  0
VERTEX
  5
182
100
AcDbEntity
  8
001
100
AcDbVertex
100
AcDb2dVertex
 10
1044.71582
 20
507.711445
 30
0.0
  0
VERTEX
  5
183
100
AcDbEntity
  8
001
100
AcDbVertex
100
AcDb2dVertex
 10
1044.77533
 20
507.356785
 30
0.0
  0
VERTEX
  5
184
100
AcDbEntity
  8
001
100
AcDbVertex
100
AcDb2dVertex
 10
1044.834961
 20
506.975819
 30
0.0
  0
VERTEX
  5
185
100
AcDbEntity
  8
001
100
AcDbVertex
100
AcDb2dVertex
 10
1044.894714
 20
506.569828
 30
0.0
  0
VERTEX
  5
186
100
AcDbEntity
  8
001
100
AcDbVertex
100
AcDb2dVertex
 10
1044.95459
 20
506.140079
 30
0.0
  0
VERTEX
  5
187
100
AcDbEntity
  8
001
100
AcDbVertex
100
AcDb2dVertex
 10
1045.014526
 20
505.687977
 30
0.0
  0
VERTEX
  5
188
100
AcDbEntity
  8
001
100
AcDbVertex
100
AcDb2dVertex
 10
1045.074646
 20
505.214771
 30
0.0
  0
VERTEX
  5
189
100
AcDbEntity
  8
001
100
AcDbVertex
100
AcDb2dVertex
 10
1045.134766
 20
504.721806
 30
0.0
  0
VERTEX
  5
18A
100
AcDbEntity
  8
001
100
AcDbVertex
100
AcDb2dVertex
 10
1045.195068
 20
504.210392
 30
0.0
  0
VERTEX
  5
18B
100
AcDbEntity
  8
001
100
AcDbVertex
100
AcDb2dVertex
 10
1045.255371
 20
503.681873
 30
0.0
  0
VERTEX
  5
18C
100
AcDbEntity
  8
001
100
AcDbVertex
100
AcDb2dVertex
 10
1045.315796
 20
503.137501
 30
0.0
  0
VERTEX
  5
18D
100
AcDbEntity
  8
001
100
AcDbVertex
100
AcDb2dVertex
 10
1045.376221
 20
502.578663
 30
0.0
  0
VERTEX
  5
18E
100
AcDbEntity
  8
001
100
AcDbVertex
100
AcDb2dVertex
 10
1045.436768
 20
502.006672
 30
0.0
  0
VERTEX
  5
18F
100
AcDbEntity
  8
001
100
AcDbVertex
100
AcDb2dVertex
 10
1045.497375
 20
501.422779
 30
0.0
  0
VERTEX
  5
190
100
AcDbEntity
  8
001
100
AcDbVertex
100
AcDb2dVertex
 10
1045.557983
 20
500.828388
 30
0.0
  0
VERTEX
  5
191
100
AcDbEntity
  8
001
100
AcDbVertex
100
AcDb2dVertex
 10
1045.618652
 20
500.224766
 30
0.0
  0
VERTEX
  5
192
100
AcDbEntity
  8
001
100
AcDbVertex
100
AcDb2dVertex
 10
1045.679382
 20
499.613239
 30
0.0
  0
VERTEX
  5
193
100
AcDbEntity
  8
001
100
AcDbVertex
100
AcDb2dVertex
 10
1045.740112
 20
498.995106
 30
0.0
  0
VERTEX
  5
194
100
AcDbEntity
  8
001
100
AcDbVertex
100
AcDb2dVertex
 10
1045.800842
 20
498.371723
 30
0.0
  0
VERTEX
  5
195
100
AcDbEntity
  8
001
100
AcDbVertex
100
AcDb2dVertex
 10
1045.861633
 20
497.744358
 30
0.0
  0
VERTEX
  5
196
100
AcDbEntity
  8
001
100
AcDbVertex
100
AcDb2dVertex
 10
1045.922424
 20
497.114384
 30
0.0
  0
VERTEX
  5
197
100
AcDbEntity
  8
001
100
AcDbVertex
100
AcDb2dVertex
 10
1045.983276
 20
496.483097
 30
0.0
  0
SEQEND
  5
198
100
AcDbEntity
  8
001
  0
ARC
  5
199
100
AcDbEntity
  8
001
100
AcDbCircle
 10
1047.983154
 20
496.500004
 30
0.0
 40
2.0
100
AcDbArc
 50
180.48436
 51
270.0
  0
LINE
  5
19A
100
AcDbEntity
  8
001
100
AcDbLine
 10
1043.424988
 20
516.943211
 30
0.0
 11
1042.5
 21
517.500004
 31
0.0
  0
ARC
  5
19B
100
AcDbEntity
  8
001
100
AcDbCircle
 10
990.86377
 20
490.500004
 30
0.0
 40
10.0
100
AcDbArc
 50
270.0
 51
357.999974
  0
ARC
  5
19C
100
AcDbEntity
  8
001
100
AcDbCircle
 10
1052.0
 20
418.447044
 30
0.0
 40
1.0
100
AcDbArc
 50
92.021725
 51
180.0
  0
LINE
  5
19D
100
AcDbEntity
  8
001
100
AcDbLine
 10
1051.0
 20
418.447044
 30
0.0
 11
1051.0
 21
388.272257
 31
0.0
  0
ARC
  5
19E
100
AcDbEntity
  8
001
100
AcDbCircle
 10
1028.5
 20
413.210415
 30
0.0
 40
1.999999
100
AcDbArc
 50
108.38871
 51
180.0
  0
LINE
  5
19F
100
AcDbEntity
  8
001
100
AcDbLine
 10
1026.5
 20
390.858522
 30
0.0
 11
1026.5
 21
413.210415
 31
0.0
  0
ARC
  5
1A0
100
AcDbEntity
  8
001
100
AcDbCircle
 10
1050.0
 20
397.805912
 30
0.0
 40
1.0
100
AcDbArc
 50
274.445709
 51
0.0
  0
ARC
  5
1A1
100
AcDbEntity
  8
001
100
AcDbCircle
 10
1055.0
 20
333.5
 30
0.0
 40
63.5
100
AcDbArc
 50
94.445994
 51
175.554004
  0
ARC
  5
1A2
100
AcDbEntity
  8
001
100
AcDbCircle
 10
1050.0
 20
388.272257
 30
0.0
 40
1.0
100
AcDbArc
 50
275.217808
 51
0.0
  0
ARC
  5
1A3
100
AcDbEntity
  8
001
100
AcDbCircle
 10
1055.0
 20
333.5
 30
0.0
 40
86.0
100
AcDbArc
 50
343.192529
 51
16.807472
  0
ARC
  5
1A4
100
AcDbEntity
  8
001
100
AcDbCircle
 10
1109.772217
 20
338.5
 30
0.0
 40
1.0
100
AcDbArc
 50
185.215899
 51
270.0
  0
LINE
  5
1A5
100
AcDbEntity
  8
001
100
AcDbLine
 10
1139.947021
 20
337.5
 30
0.0
 11
1109.772217
 21
337.5
 31
0.0
  0
ARC
  5
1A6
100
AcDbEntity
  8
001
100
AcDbCircle
 10
1119.305908
 20
338.5
 30
0.0
 40
1.0
100
AcDbArc
 50
184.44586
 51
270.0
  0
ARC
  5
1A7
100
AcDbEntity
  8
001
100
AcDbCircle
 10
1139.947021
 20
336.5
 30
0.0
 40
1.0
100
AcDbArc
 50
2.022677
 51
90.0
  0
LINE
  5
1A8
100
AcDbEntity
  8
001
100
AcDbLine
 10
1147.0
 20
339.5
 30
0.0
 11
1140.790405
 21
339.5
 31
0.0
  0
ARC
  5
1A9
100
AcDbEntity
  8
001
100
AcDbCircle
 10
1147.0
 20
336.5
 30
0.0
 40
3.0
100
AcDbArc
 50
0.0
 51
90.0
  0
LINE
  5
1AA
100
AcDbEntity
  8
001
100
AcDbLine
 10
1150.0
 20
330.5
 30
0.0
 11
1150.0
 21
336.5
 31
0.0
  0
ARC
  5
1AB
100
AcDbEntity
  8
001
100
AcDbCircle
 10
1109.772217
 20
328.5
 30
0.0
 40
1.0
100
AcDbArc
 50
90.0
 51
174.783883
  0
LINE
  5
1AC
100
AcDbEntity
  8
001
100
AcDbLine
 10
1139.947021
 20
329.5
 30
0.0
 11
1109.772217
 21
329.5
 31
0.0
  0
ARC
  5
1AD
100
AcDbEntity
  8
001
100
AcDbCircle
 10
1119.305908
 20
328.5
 30
0.0
 40
1.0
100
AcDbArc
 50
90.0
 51
175.55414
  0
ARC
  5
1AE
100
AcDbEntity
  8
001
100
AcDbCircle
 10
1055.0
 20
333.5
 30
0.0
 40
63.5
100
AcDbArc
 50
184.445996
 51
265.554006
  0
ARC
  5
1AF
100
AcDbEntity
  8
001
100
AcDbCircle
 10
1139.947021
 20
330.5
 30
0.0
 40
1.0
100
AcDbArc
 50
270.0
 51
357.977432
  0
LINE
  5
1B0
100
AcDbEntity
  8
001
100
AcDbLine
 10
1147.0
 20
327.5
 30
0.0
 11
1140.790405
 21
327.5
 31
0.0
  0
ARC
  5
1B1
100
AcDbEntity
  8
001
100
AcDbCircle
 10
1147.0
 20
330.5
 30
0.0
 40
3.0
100
AcDbArc
 50
270.0
 51
0.0
  0
ARC
  5
1B2
100
AcDbEntity
  8
001
100
AcDbCircle
 10
1134.454346
 20
357.5
 30
0.0
 40
3.0
100
AcDbArc
 50
16.807239
 51
90.0
  0
LINE
  5
1B3
100
AcDbEntity
  8
001
100
AcDbLine
 10
1134.454346
 20
360.5
 30
0.0
 11
1113.105469
 21
360.5
 31
0.0
  0
ARC
  5
1B4
100
AcDbEntity
  8
001
100
AcDbCircle
 10
1113.105469
 20
361.5
 30
0.0
 40
1.0
100
AcDbArc
 50
205.729655
 51
270.0
  0
LINE
  5
1B5
100
AcDbEntity
  8
001
100
AcDbLine
 10
1035.0
 20
252.259617
 30
0.0
 11
1035.0
 21
272.514347
 31
0.0
  0
ARC
  5
1B6
100
AcDbEntity
  8
001
100
AcDbCircle
 10
1038.0
 20
252.259617
 30
0.0
 40
3.0
100
AcDbArc
 50
180.0
 51
258.181404
  0
ARC
  5
1B7
100
AcDbEntity
  8
001
100
AcDbCircle
 10
1034.0
 20
272.514347
 30
0.0
 40
1.0
100
AcDbArc
 50
0.0
 51
70.996909
  0
ARC
  5
1B8
100
AcDbEntity
  8
001
100
AcDbCircle
 10
1050.0
 20
278.727749
 30
0.0
 40
1.0
100
AcDbArc
 50
0.0
 51
84.782182
  0
LINE
  5
1B9
100
AcDbEntity
  8
001
100
AcDbLine
 10
1051.0
 20
248.552959
 30
0.0
 11
1051.0
 21
278.727749
 31
0.0
  0
ARC
  5
1BA
100
AcDbEntity
  8
001
100
AcDbCircle
 10
1052.0
 20
248.552959
 30
0.0
 40
1.0
100
AcDbArc
 50
180.0
 51
267.978275
  0
LINE
  5
1BB
100
AcDbEntity
  8
001
100
AcDbLine
 10
959.0
 20
455.5
 30
0.0
 11
959.0
 21
465.5
 31
0.0
  0
LINE
  5
1BC
100
AcDbEntity
  8
001
100
AcDbLine
 10
959.0
 20
471.5
 30
0.0
 11
959.0
 21
477.5
 31
0.0
  0
ARC
  5
1BD
100
AcDbEntity
  8
001
100
AcDbCircle
 10
962.0
 20
477.5
 30
0.0
 40
3.0
100
AcDbArc
 50
90.0
 51
180.0
  0
ARC
  5
1BE
100
AcDbEntity
  8
001
100
AcDbCircle
 10
962.0
 20
471.5
 30
0.0
 40
3.0
100
AcDbArc
 50
180.0
 51
270.0
  0
ARC
  5
1BF
100
AcDbEntity
  8
001
100
AcDbCircle
 10
962.0
 20
465.5
 30
0.0
 40
3.0
100
AcDbArc
 50
90.0
 51
180.0
  0
ARC
  5
1C0
100
AcDbEntity
  8
001
100
AcDbCircle
 10
962.0
 20
455.5
 30
0.0
 40
3.0
100
AcDbArc
 50
180.0
 51
270.0
  0
LINE
  5
1C1
100
AcDbEntity
  8
001
100
AcDbLine
 10
1116.0
 20
434.5
 30
0.0
 11
1116.0
 21
360.5
 31
0.0
  0
LINE
  5
1C2
100
AcDbEntity
  8
001
100
AcDbLine
 10
989.367544
 20
448.397367
 30
0.0
 11
994.0
 21
434.5
 31
0.0
  0
ARC
  5
1C3
100
AcDbEntity
  8
001
100
AcDbCircle
 10
983.675445
 20
446.5
 30
0.0
 40
6.0
100
AcDbArc
 50
18.434949
 51
67.205575
  0
LINE
  5
1C4
100
AcDbEntity
  8
001
100
AcDbLine
 10
1000.263306
 20
551.662033
 30
0.0
 11
998.918884
 21
518.5
 31
0.0
  0
LINE
  5
1C5
100
AcDbEntity
  8
001
100
AcDbLine
 10
1028.080597
 20
546.588226
 30
0.0
 11
1027.021423
 21
520.461609
 31
0.0
  0
ARC
  5
1C6
100
AcDbEntity
  8
001
100
AcDbCircle
 10
1004.26001
 20
551.5
 30
0.0
 40
4.0
100
AcDbArc
 50
90.0
 51
177.678404
  0
LINE
  5
1C7
100
AcDbEntity
  8
001
100
AcDbLine
 10
1028.0
 20
555.5
 30
0.0
 11
1004.26001
 21
555.5
 31
0.0
  0
ARC
  5
1C8
100
AcDbEntity
  8
001
100
AcDbCircle
 10
1014.5
 20
551.5
 30
0.0
 40
4.0
100
AcDbArc
 50
0.0
 51
90.0
  0
ARC
  5
1C9
100
AcDbEntity
  8
001
100
AcDbCircle
 10
1020.5
 20
551.5
 30
0.0
 40
2.0
100
AcDbArc
 50
180.0
 51
270.0
  0
ARC
  5
1CA
100
AcDbEntity
  8
001
100
AcDbCircle
 10
1028.0
 20
551.5
 30
0.0
 40
4.0
100
AcDbArc
 50
0.0
 51
90.0
  0
ARC
  5
1CB
100
AcDbEntity
  8
001
100
AcDbCircle
 10
1034.0
 20
551.5
 30
0.0
 40
2.0
100
AcDbArc
 50
180.0
 51
270.0
  0
LINE
  5
1CC
100
AcDbEntity
  8
001
100
AcDbLine
 10
1010.0
 20
288.697656
 30
0.0
 11
1010.0
 21
250.5
 31
0.0
  0
ARC
  5
1CD
100
AcDbEntity
  8
001
100
AcDbCircle
 10
1013.0
 20
250.5
 30
0.0
 40
3.0
100
AcDbArc
 50
180.0
 51
270.0
  0
ARC
  5
1CE
100
AcDbEntity
  8
001
100
AcDbCircle
 10
1050.0
 20
269.19409
 30
0.0
 40
1.0
100
AcDbArc
 50
0.0
 51
85.554006
  0
LINE
  5
1CF
100
AcDbEntity
  8
001
100
AcDbLine
 10
1043.0
 20
549.5
 30
0.0
 11
1043.0
 21
558.1
 31
0.0
  0
LINE
  5
1D0
100
AcDbEntity
  8
001
100
AcDbLine
 10
1089.5
 20
549.5
 30
0.0
 11
1020.5
 21
549.5
 31
0.0
  0
LINE
  5
1D1
100
AcDbEntity
  8
001
100
AcDbLine
 10
1111.081116
 20
518.5
 30
0.0
 11
998.918884
 21
518.5
 31
0.0
  0
LINE
  5
1D2
100
AcDbEntity
  8
001
100
AcDbLine
 10
1042.5
 20
517.500004
 30
0.0
 11
1067.5
 21
517.500004
 31
0.0
  0
LINE
  5
1D3
100
AcDbEntity
  8
001
100
AcDbLine
 10
1064.17749
 20
515.500004
 30
0.0
 11
1045.82251
 21
515.500004
 31
0.0
  0
LINE
  5
1D4
100
AcDbEntity
  8
001
100
AcDbLine
 10
1062.016846
 20
494.500004
 30
0.0
 11
1047.983154
 21
494.500004
 31
0.0
  0
LINE
  5
1D5
100
AcDbEntity
  8
001
100
AcDbLine
 10
1148.0
 20
480.5
 30
0.0
 11
962.0
 21
480.5
 31
0.0
  0
LINE
  5
1D6
100
AcDbEntity
  8
001
100
AcDbLine
 10
1148.0
 20
468.5
 30
0.0
 11
962.0
 21
468.5
 31
0.0
  0
LINE
  5
1D7
100
AcDbEntity
  8
001
100
AcDbLine
 10
1148.0
 20
452.5
 30
0.0
 11
962.0
 21
452.5
 31
0.0
  0
LINE
  5
1D8
100
AcDbEntity
  8
001
100
AcDbLine
 10
1116.0
 20
434.5
 30
0.0
 11
994.0
 21
434.5
 31
0.0
  0
ARC
  5
1D9
100
AcDbEntity
  8
001
100
AcDbCircle
 10
1055.0
 20
333.5
 30
0.0
 40
86.0
100
AcDbArc
 50
71.610457
 51
108.389543
  0
CIRCLE
  5
1DA
100
AcDbEntity
  8
001
100
AcDbCircle
 10
1055.0
 20
333.5
 30
0.0
 40
37.5
  0
CIRCLE
  5
1DB
100
AcDbEntity
  8
001
100
AcDbCircle
 10
1055.0
 20
333.5
 30
0.0
 40
54.0
  0
ARC
  5
1DC
100
AcDbEntity
  8
001
100
AcDbCircle
 10
1055.0
 20
333.5
 30
0.0
 40
86.0
100
AcDbArc
 50
258.181091
 51
281.818909
  0
LINE
  5
1DD
100
AcDbEntity
  8
001
100
AcDbLine
 10
1097.0
 20
247.5
 30
0.0
 11
1013.0
 21
247.5
 31
0.0
  0
LINE
  5
1DE
100
AcDbEntity
  8
001
100
AcDbLine
 10
484.5
 20
555.5
 30
0.0
 11
484.5
 21
558.1
 31
0.0
  0
LINE
  5
1DF
100
AcDbEntity
  8
001
100
AcDbLine
 10
457.484131
 20
518.5
 30
0.0
 11
455.477402
 21
489.802433
 31
0.0
  0
ARC
  5
1E0
100
AcDbEntity
  8
001
100
AcDbCircle
 10
454.602768
 20
520.301411
 30
0.0
 40
3.0
100
AcDbArc
 50
274.20463
 51
323.096472
  0
LINE
  5
1E1
100
AcDbEntity
  8
001
100
AcDbLine
 10
454.822723
 20
517.309498
 30
0.0
 11
434.527557
 21
515.817524
 31
0.0
  0
ARC
  5
1E2
100
AcDbEntity
  8
001
100
AcDbCircle
 10
434.894135
 20
510.830967
 30
0.0
 40
5.0
100
AcDbArc
 50
94.204426
 51
175.999968
  0
LINE
  5
1E3
100
AcDbEntity
  8
001
100
AcDbLine
 10
429.906311
 20
511.179752
 30
0.0
 11
428.964371
 21
497.709263
 31
0.0
  0
ARC
  5
1E4
100
AcDbEntity
  8
001
100
AcDbCircle
 10
446.131104
 20
499.500004
 30
0.0
 40
10.0
100
AcDbArc
 50
355.999962
 51
176.109048
  0
ARC
  5
1E5
100
AcDbEntity
  8
001
100
AcDbCircle
 10
431.957062
 20
497.500004
 30
0.0
 40
3.0
100
AcDbArc
 50
176.000196
 51
215.013129
  0
ARC
  5
1E6
100
AcDbEntity
  8
001
100
AcDbCircle
 10
445.501755
 20
490.500004
 30
0.0
 40
10.0
100
AcDbArc
 50
281.526698
 51
355.999968
  0
LINE
  5
1E7
100
AcDbEntity
  8
001
100
AcDbLine
 10
453.0
 20
407.842922
 30
0.0
 11
476.30056
 21
302.740871
 31
0.0
  0
LINE
  5
1E8
100
AcDbEntity
  8
001
100
AcDbLine
 10
418.0
 20
455.5
 30
0.0
 11
418.0
 21
465.5
 31
0.0
  0
LINE
  5
1E9
100
AcDbEntity
  8
001
100
AcDbLine
 10
418.0
 20
471.5
 30
0.0
 11
418.0
 21
477.5
 31
0.0
  0
ARC
  5
1EA
100
AcDbEntity
  8
001
100
AcDbCircle
 10
421.0
 20
477.5
 30
0.0
 40
3.0
100
AcDbArc
 50
90.0
 51
180.0
  0
ARC
  5
1EB
100
AcDbEntity
  8
001
100
AcDbCircle
 10
421.0
 20
471.5
 30
0.0
 40
3.0
100
AcDbArc
 50
180.0
 51
270.0
  0
ARC
  5
1EC
100
AcDbEntity
  8
001
100
AcDbCircle
 10
421.0
 20
465.5
 30
0.0
 40
3.0
100
AcDbArc
 50
90.0
 51
180.0
  0
ARC
  5
1ED
100
AcDbEntity
  8
001
100
AcDbCircle
 10
421.0
 20
455.5
 30
0.0
 40
3.0
100
AcDbArc
 50
180.0
 51
270.0
  0
LINE
  5
1EE
100
AcDbEntity
  8
001
100
AcDbLine
 10
453.0
 20
407.842922
 30
0.0
 11
453.0
 21
434.5
 31
0.0
  0
LINE
  5
1EF
100
AcDbEntity
  8
001
100
AcDbLine
 10
448.367544
 20
448.397367
 30
0.0
 11
453.0
 21
434.5
 31
0.0
  0
ARC
  5
1F0
100
AcDbEntity
  8
001
100
AcDbCircle
 10
442.675445
 20
446.5
 30
0.0
 40
6.0
100
AcDbArc
 50
18.434949
 51
38.073123
  0
LINE
  5
1F1
100
AcDbEntity
  8
001
100
AcDbLine
 10
456.250252
 20
549.5
 30
0.0
 11
460.112903
 21
549.5
 31
0.0
  0
LINE
  5
1F2
100
AcDbEntity
  8
001
100
AcDbLine
 10
452.25855
 20
545.757529
 30
0.0
 11
450.5
 21
518.5
 31
0.0
  0
LINE
  5
1F3
100
AcDbEntity
  8
001
100
AcDbLine
 10
460.25855
 20
551.757529
 30
0.0
 11
458.112903
 21
518.5
 31
0.0
  0
ARC
  5
1F4
100
AcDbEntity
  8
001
100
AcDbCircle
 10
464.250252
 20
551.5
 30
0.0
 40
4.0
100
AcDbArc
 50
90.0
 51
176.308614
  0
ARC
  5
1F5
100
AcDbEntity
  8
001
100
AcDbCircle
 10
456.250252
 20
545.5
 30
0.0
 40
4.0
100
AcDbArc
 50
90.0
 51
176.308614
  0
LINE
  5
1F6
100
AcDbEntity
  8
001
100
AcDbLine
 10
540.0
 20
434.5
 30
0.0
 11
453.0
 21
434.5
 31
0.0
  0
LINE
  5
1F7
100
AcDbEntity
  8
001
100
AcDbLine
 10
572.0
 20
452.5
 30
0.0
 11
421.0
 21
452.5
 31
0.0
  0
LINE
  5
1F8
100
AcDbEntity
  8
001
100
AcDbLine
 10
572.0
 20
468.5
 30
0.0
 11
421.0
 21
468.5
 31
0.0
  0
LINE
  5
1F9
100
AcDbEntity
  8
001
100
AcDbLine
 10
572.0
 20
480.5
 30
0.0
 11
421.0
 21
480.5
 31
0.0
  0
LINE
  5
1FA
100
AcDbEntity
  8
001
100
AcDbLine
 10
542.5
 20
518.5
 30
0.0
 11
450.5
 21
518.5
 31
0.0
  0
LINE
  5
1FB
100
AcDbEntity
  8
001
100
AcDbLine
 10
528.749748
 20
555.5
 30
0.0
 11
464.250252
 21
555.5
 31
0.0
  0
CIRCLE
  5
1FC
100
AcDbEntity
  8
001
100
AcDbCircle
 10
1055.0
 20
333.5
 30
0.0
 40
45.45
  0
LINE
  5
1FD
100
AcDbEntity
  8
001
  6
CENTER
100
AcDbLine
 10
214.0
 20
333.5
 30
0.0
 11
779.0
 21
333.5
 31
0.0
  0
LINE
  5
1FE
100
AcDbEntity
  8
001
  6
CENTER
100
AcDbLine
 10
486.5
 20
575.5
 30
0.0
 11
506.5
 21
575.5
 31
0.0
  0
CIRCLE
  5
1FF
100
AcDbEntity
  8
001
100
AcDbCircle
 10
1071.25
 20
405.437473
 30
0.0
 40
5.0
  0
ARC
  5
200
100
AcDbEntity
  8
001
100
AcDbCircle
 10
430.5
 20
897.563665
 30
0.0
 40
2.0
100
AcDbArc
 50
97.124366
 51
180.0
  0
LINE
  5
201
100
AcDbEntity
  8
001
100
AcDbLine
 10
428.5
 20
897.563665
 30
0.0
 11
428.5
 21
883.094793
 31
0.0
  0
ARC
  5
202
100
AcDbEntity
  8
001
100
AcDbCircle
 10
430.5
 20
883.094824
 30
0.0
 40
2.0
100
AcDbArc
 50
180.000874
 51
262.875634
  0
LINE
  5
203
100
AcDbEntity
  8
001
100
AcDbLine
 10
430.5
 20
897.563665
 30
0.0
 11
430.5
 21
883.094793
 31
0.0
  0
LINE
  5
204
100
AcDbEntity
  8
001
100
AcDbLine
 10
452.078613
 20
878.381933
 30
0.0
 11
430.251953
 21
881.110266
 31
0.0
  0
LINE
  5
205
100
AcDbEntity
  8
001
100
AcDbLine
 10
452.078613
 20
902.276556
 30
0.0
 11
430.251953
 21
899.548224
 31
0.0
  0
ARC
  5
206
100
AcDbEntity
  8
001
100
AcDbCircle
 10
463.5
 20
850.791296
 30
0.0
 40
3.0
100
AcDbArc
 50
180.0
 51
230.150773
  0
ARC
  5
207
100
AcDbEntity
  8
001
100
AcDbCircle
 10
463.5
 20
851.444799
 30
0.0
 40
5.0
100
AcDbArc
 50
180.0
 51
229.679775
  0
LINE
  5
208
100
AcDbEntity
  8
001
100
AcDbLine
 10
458.5
 20
863.496435
 30
0.0
 11
458.5
 21
851.444799
 31
0.0
  0
ARC
  5
209
100
AcDbEntity
  8
001
100
AcDbCircle
 10
455.5
 20
863.496405
 30
0.0
 40
3.0
100
AcDbArc
 50
0.000583
 51
33.203653
  0
ARC
  5
20A
100
AcDbEntity
  8
001
100
AcDbCircle
 10
455.5
 20
917.162085
 30
0.0
 40
3.0
100
AcDbArc
 50
326.796347
 51
359.999417
  0
ARC
  5
20B
100
AcDbEntity
  8
001
100
AcDbCircle
 10
496.5
 20
890.329229
 30
0.0
 40
46.0
100
AcDbArc
 50
146.796896
 51
213.203072
  0
ARC
  5
20C
100
AcDbEntity
  8
001
100
AcDbCircle
 10
463.5
 20
929.867193
 30
0.0
 40
3.0
100
AcDbArc
 50
129.849227
 51
180.0
  0
ARC
  5
20D
100
AcDbEntity
  8
001
100
AcDbCircle
 10
529.5
 20
929.867193
 30
0.0
 40
3.0
100
AcDbArc
 50
0.0
 51
50.150773
  0
ARC
  5
20E
100
AcDbEntity
  8
001
100
AcDbCircle
 10
496.5
 20
890.329229
 30
0.0
 40
54.5
100
AcDbArc
 50
50.150274
 51
129.849726
  0
ARC
  5
20F
100
AcDbEntity
  8
001
100
AcDbCircle
 10
537.5
 20
917.162085
 30
0.0
 40
3.0
100
AcDbArc
 50
180.000583
 51
213.203653
  0
ARC
  5
210
100
AcDbEntity
  8
001
100
AcDbCircle
 10
537.5
 20
863.496405
 30
0.0
 40
3.0
100
AcDbArc
 50
146.796347
 51
179.999417
  0
ARC
  5
211
100
AcDbEntity
  8
001
100
AcDbCircle
 10
496.5
 20
890.329229
 30
0.0
 40
46.0
100
AcDbArc
 50
326.796928
 51
33.203104
  0
ARC
  5
212
100
AcDbEntity
  8
001
100
AcDbCircle
 10
529.5
 20
850.791296
 30
0.0
 40
3.0
100
AcDbArc
 50
309.849227
 51
0.0
  0
ARC
  5
213
100
AcDbEntity
  8
001
100
AcDbCircle
 10
496.5
 20
890.32926
 30
0.0
 40
54.5
100
AcDbArc
 50
230.150274
 51
309.849726
  0
LINE
  5
214
100
AcDbEntity
  8
001
100
AcDbLine
 10
534.5
 20
863.496435
 30
0.0
 11
534.5
 21
851.444799
 31
0.0
  0
ARC
  5
215
100
AcDbEntity
  8
001
100
AcDbCircle
 10
529.5
 20
851.444799
 30
0.0
 40
5.0
100
AcDbArc
 50
310.320225
 51
0.0
  0
ARC
  5
216
100
AcDbEntity
  8
001
100
AcDbCircle
 10
496.5
 20
890.32926
 30
0.0
 40
56.0
100
AcDbArc
 50
229.679795
 51
310.320205
  0
LINE
  5
217
100
AcDbEntity
  8
001
100
AcDbLine
 10
532.5
 20
863.496435
 30
0.0
 11
532.5
 21
850.791296
 31
0.0
  0
ARC
  5
218
100
AcDbEntity
  8
001
100
AcDbCircle
 10
537.5
 20
863.496405
 30
0.0
 40
5.0
100
AcDbArc
 50
146.796542
 51
179.99965
  0
LINE
  5
219
100
AcDbEntity
  8
001
100
AcDbLine
 10
532.5
 20
929.867193
 30
0.0
 11
532.5
 21
917.162054
 31
0.0
  0
ARC
  5
21A
100
AcDbEntity
  8
001
100
AcDbCircle
 10
537.5
 20
917.162085
 30
0.0
 40
5.0
100
AcDbArc
 50
180.00035
 51
213.203458
  0
ARC
  5
21B
100
AcDbEntity
  8
001
100
AcDbCircle
 10
496.5
 20
890.329229
 30
0.0
 40
44.0
100
AcDbArc
 50
326.796932
 51
33.203101
  0
LINE
  5
21C
100
AcDbEntity
  8
001
100
AcDbLine
 10
534.5
 20
929.21369
 30
0.0
 11
534.5
 21
917.162054
 31
0.0
  0
ARC
  5
21D
100
AcDbEntity
  8
001
100
AcDbCircle
 10
529.5
 20
929.21369
 30
0.0
 40
5.0
100
AcDbArc
 50
0.0
 51
49.679775
  0
LINE
  5
21E
100
AcDbEntity
  8
001
100
AcDbLine
 10
458.5
 20
929.21369
 30
0.0
 11
458.5
 21
917.162054
 31
0.0
  0
ARC
  5
21F
100
AcDbEntity
  8
001
100
AcDbCircle
 10
463.5
 20
929.21369
 30
0.0
 40
5.0
100
AcDbArc
 50
130.320225
 51
180.0
  0
ARC
  5
220
100
AcDbEntity
  8
001
100
AcDbCircle
 10
496.5
 20
890.329229
 30
0.0
 40
56.0
100
AcDbArc
 50
49.679795
 51
130.320205
  0
LINE
  5
221
100
AcDbEntity
  8
001
100
AcDbLine
 10
460.5
 20
929.867193
 30
0.0
 11
460.5
 21
917.162054
 31
0.0
  0
ARC
  5
222
100
AcDbEntity
  8
001
100
AcDbCircle
 10
455.5
 20
917.162085
 30
0.0
 40
5.0
100
AcDbArc
 50
326.796542
 51
359.99965
  0
LINE
  5
223
100
AcDbEntity
  8
001
100
AcDbLine
 10
460.5
 20
863.496435
 30
0.0
 11
460.5
 21
850.791296
 31
0.0
  0
ARC
  5
224
100
AcDbEntity
  8
001
100
AcDbCircle
 10
455.5
 20
863.496405
 30
0.0
 40
5.0
100
AcDbArc
 50
0.00035
 51
33.203458
  0
ARC
  5
225
100
AcDbEntity
  8
001
100
AcDbCircle
 10
496.5
 20
890.329229
 30
0.0
 40
44.0
100
AcDbArc
 50
146.796899
 51
213.203068
  0
ARC
  5
226
100
AcDbEntity
  8
001
100
AcDbCircle
 10
562.5
 20
897.563665
 30
0.0
 40
2.0
100
AcDbArc
 50
0.0
 51
82.875634
  0
LINE
  5
227
100
AcDbEntity
  8
001
100
AcDbLine
 10
564.5
 20
897.563665
 30
0.0
 11
564.5
 21
883.094793
 31
0.0
  0
ARC
  5
228
100
AcDbEntity
  8
001
100
AcDbCircle
 10
562.5
 20
883.094824
 30
0.0
 40
2.0
100
AcDbArc
 50
277.124366
 51
359.999126
  0
LINE
  5
229
100
AcDbEntity
  8
001
100
AcDbLine
 10
562.5
 20
897.563665
 30
0.0
 11
562.5
 21
883.094793
 31
0.0
  0
LINE
  5
22A
100
AcDbEntity
  8
001
100
AcDbLine
 10
540.921387
 20
878.381933
 30
0.0
 11
562.748047
 21
881.110266
 31
0.0
  0
LINE
  5
22B
100
AcDbEntity
  8
001
100
AcDbLine
 10
540.921387
 20
902.276556
 30
0.0
 11
562.748047
 21
899.548224
 31
0.0
  0
CIRCLE
  5
22C
100
AcDbEntity
  8
001
100
AcDbCircle
 10
496.5
 20
890.329199
 30
0.0
 40
40.0
  0
LINE
  5
22D
100
AcDbEntity
  8
001
100
AcDbLine
 10
532.5
 20
850.791296
 30
0.0
 11
522.959961
 21
860.331366
 31
0.0
  0
LINE
  5
22E
100
AcDbEntity
  8
001
100
AcDbLine
 10
460.5
 20
850.791296
 30
0.0
 11
470.040039
 21
860.331335
 31
0.0
  0
LINE
  5
22F
100
AcDbEntity
  8
001
100
AcDbLine
 10
460.5
 20
929.867193
 30
0.0
 11
470.0401
 21
920.327093
 31
0.0
  0
LINE
  5
230
100
AcDbEntity
  8
001
100
AcDbLine
 10
532.5
 20
929.867193
 30
0.0
 11
522.9599
 21
920.327093
 31
0.0
  0
ARC
  5
231
100
AcDbEntity
  8
001
100
AcDbCircle
 10
492.500061
 20
884.329229
 30
0.0
 40
3.0
100
AcDbArc
 50
180.0
 51
270.0
  0
LINE
  5
232
100
AcDbEntity
  8
001
100
AcDbLine
 10
492.500061
 20
881.329229
 30
0.0
 11
500.500061
 21
881.329229
 31
0.0
  0
ARC
  5
233
100
AcDbEntity
  8
001
100
AcDbCircle
 10
492.500061
 20
884.329229
 30
0.0
 40
6.0
100
AcDbArc
 50
180.0
 51
270.0
  0
LINE
  5
234
100
AcDbEntity
  8
001
100
AcDbLine
 10
486.500061
 20
884.329229
 30
0.0
 11
489.500061
 21
884.329229
 31
0.0
  0
ARC
  5
235
100
AcDbEntity
  8
001
100
AcDbCircle
 10
500.500061
 20
884.329229
 30
0.0
 40
3.0
100
AcDbArc
 50
270.0
 51
0.0
  0
LINE
  5
236
100
AcDbEntity
  8
001
100
AcDbLine
 10
503.500061
 20
885.829229
 30
0.0
 11
503.500061
 21
884.329229
 31
0.0
  0
ARC
  5
237
100
AcDbEntity
  8
001
100
AcDbCircle
 10
500.500061
 20
885.829229
 30
0.0
 40
3.0
100
AcDbArc
 50
0.0
 51
90.0
  0
ARC
  5
238
100
AcDbEntity
  8
001
100
AcDbCircle
 10
500.500061
 20
885.829229
 30
0.0
 40
6.0
100
AcDbArc
 50
0.0
 51
90.0
  0
LINE
  5
239
100
AcDbEntity
  8
001
100
AcDbLine
 10
506.500061
 20
885.829229
 30
0.0
 11
506.500061
 21
884.329229
 31
0.0
  0
ARC
  5
23A
100
AcDbEntity
  8
001
100
AcDbCircle
 10
500.500061
 20
884.329229
 30
0.0
 40
6.0
100
AcDbArc
 50
270.0
 51
0.0
  0
LINE
  5
23B
100
AcDbEntity
  8
001
100
AcDbLine
 10
492.500061
 20
878.329229
 30
0.0
 11
500.500061
 21
878.329229
 31
0.0
  0
ARC
  5
23C
100
AcDbEntity
  8
001
100
AcDbCircle
 10
492.500061
 20
896.329229
 30
0.0
 40
6.0
100
AcDbArc
 50
90.0
 51
180.0
  0
ARC
  5
23D
100
AcDbEntity
  8
001
100
AcDbCircle
 10
492.500061
 20
894.829229
 30
0.0
 40
3.0
100
AcDbArc
 50
180.0
 51
270.0
  0
LINE
  5
23E
100
AcDbEntity
  8
001
100
AcDbLine
 10
489.500061
 20
896.329229
 30
0.0
 11
489.500061
 21
894.829229
 31
0.0
  0
ARC
  5
23F
100
AcDbEntity
  8
001
100
AcDbCircle
 10
492.500061
 20
896.329229
 30
0.0
 40
3.0
100
AcDbArc
 50
90.0
 51
180.0
  0
LINE
  5
240
100
AcDbEntity
  8
001
100
AcDbLine
 10
492.500061
 20
899.329229
 30
0.0
 11
500.500061
 21
899.329229
 31
0.0
  0
ARC
  5
241
100
AcDbEntity
  8
001
100
AcDbCircle
 10
500.500061
 20
896.329229
 30
0.0
 40
3.0
100
AcDbArc
 50
0.0
 51
90.0
  0
ARC
  5
242
100
AcDbEntity
  8
001
100
AcDbCircle
 10
500.500061
 20
896.329229
 30
0.0
 40
6.0
100
AcDbArc
 50
0.0
 51
90.0
  0
LINE
  5
243
100
AcDbEntity
  8
001
100
AcDbLine
 10
492.500061
 20
902.329229
 30
0.0
 11
500.500061
 21
902.329229
 31
0.0
  0
LINE
  5
244
100
AcDbEntity
  8
001
100
AcDbLine
 10
486.500061
 20
896.329229
 30
0.0
 11
486.500061
 21
894.829229
 31
0.0
  0
ARC
  5
245
100
AcDbEntity
  8
001
100
AcDbCircle
 10
492.500061
 20
894.829229
 30
0.0
 40
6.0
100
AcDbArc
 50
180.0
 51
270.0
  0
LINE
  5
246
100
AcDbEntity
  8
001
100
AcDbLine
 10
492.500061
 20
888.829229
 30
0.0
 11
500.500061
 21
888.829229
 31
0.0
  0
LINE
  5
247
100
AcDbEntity
  8
001
100
AcDbLine
 10
492.500061
 20
891.829229
 30
0.0
 11
500.500061
 21
891.829229
 31
0.0
  0
LINE
  5
248
100
AcDbEntity
  8
001
100
AcDbLine
 10
503.500061
 20
896.329229
 30
0.0
 11
506.500061
 21
896.329229
 31
0.0
  0
ARC
  5
249
100
AcDbEntity
  8
001
100
AcDbCircle
 10
496.500061
 20
857.829229
 30
0.0
 40
4.5
100
AcDbArc
 50
180.0
 51
0.0
  0
ARC
  5
24A
100
AcDbEntity
  8
001
100
AcDbCircle
 10
496.500061
 20
863.829229
 30
0.0
 40
4.5
100
AcDbArc
 50
0.0
 51
180.0
  0
LINE
  5
24B
100
AcDbEntity
  8
001
100
AcDbLine
 10
492.000061
 20
857.829229
 30
0.0
 11
492.000061
 21
863.829229
 31
0.0
  0
LINE
  5
24C
100
AcDbEntity
  8
001
100
AcDbLine
 10
501.000061
 20
857.829229
 30
0.0
 11
501.000061
 21
863.829229
 31
0.0
  0
ARC
  5
24D
100
AcDbEntity
  8
001
100
AcDbCircle
 10
496.500061
 20
863.829229
 30
0.0
 40
2.5
100
AcDbArc
 50
0.0
 51
180.0
  0
LINE
  5
24E
100
AcDbEntity
  8
001
100
AcDbLine
 10
494.000061
 20
863.829229
 30
0.0
 11
494.000061
 21
857.829229
 31
0.0
  0
ARC
  5
24F
100
AcDbEntity
  8
001
100
AcDbCircle
 10
496.500061
 20
857.829229
 30
0.0
 40
2.5
100
AcDbArc
 50
180.0
 51
0.0
  0
LINE
  5
250
100
AcDbEntity
  8
001
100
AcDbLine
 10
499.000061
 20
857.829229
 30
0.0
 11
499.000061
 21
863.829229
 31
0.0
  0
LINE
  5
251
100
AcDbEntity
  8
001
100
AcDbLine
 10
472.098022
 20
876.533819
 30
0.0
 11
468.215759
 21
862.044928
 31
0.0
  0
LINE
  5
252
100
AcDbEntity
  8
001
100
AcDbLine
 10
472.098022
 20
876.533819
 30
0.0
 11
466.063049
 21
873.049505
 31
0.0
  0
ARC
  5
253
100
AcDbEntity
  8
001
100
AcDbCircle
 10
496.500061
 20
890.329199
 30
0.0
 40
35.0
100
AcDbArc
 50
105.000078
 51
209.584435
  0
ARC
  5
254
100
AcDbEntity
  8
001
100
AcDbCircle
 10
496.5
 20
890.329229
 30
0.0
 40
35.0
100
AcDbArc
 50
315.000071
 51
59.58438
  0
LINE
  5
255
100
AcDbEntity
  8
001
100
AcDbLine
 10
521.248779
 20
865.580511
 30
0.0
 11
524.784302
 21
862.044928
 31
0.0
  0
LINE
  5
256
100
AcDbEntity
  8
001
100
AcDbLine
 10
510.735107
 20
914.477362
 30
0.0
 11
506.852783
 21
928.966253
 31
0.0
  0
LINE
  5
257
100
AcDbEntity
  8
001
100
AcDbLine
 10
510.735107
 20
914.477362
 30
0.0
 11
514.219421
 21
920.512396
 31
0.0
  0
LINE
  5
258
100
AcDbEntity
  8
001
100
AcDbLine
 10
487.441345
 20
924.136602
 30
0.0
 11
486.147278
 21
928.966253
 31
0.0
  0
LINE
  5
259
100
AcDbEntity
  8
001
100
AcDbLine
 10
510.5
 20
873.579229
 30
0.0
 11
482.5
 21
873.579229
 31
0.0
  0
LINE
  5
25A
100
AcDbEntity
  8
001
100
AcDbLine
 10
482.5
 20
907.079229
 30
0.0
 11
510.5
 21
907.079229
 31
0.0
  0
LINE
  5
25B
100
AcDbEntity
  8
001
100
AcDbLine
 10
479.75
 20
904.329229
 30
0.0
 11
479.75
 21
876.329229
 31
0.0
  0
LINE
  5
25C
100
AcDbEntity
  8
001
100
AcDbLine
 10
513.25
 20
904.329229
 30
0.0
 11
513.25
 21
876.329229
 31
0.0
  0
LINE
  5
25D
100
AcDbEntity
  8
001
100
AcDbLine
 10
477.5
 20
904.329229
 30
0.0
 11
477.5
 21
876.329229
 31
0.0
  0
LINE
  5
25E
100
AcDbEntity
  8
001
100
AcDbLine
 10
515.5
 20
904.329229
 30
0.0
 11
515.5
 21
876.329229
 31
0.0
  0
LINE
  5
25F
100
AcDbEntity
  8
001
100
AcDbLine
 10
510.5
 20
871.329229
 30
0.0
 11
482.5
 21
871.329229
 31
0.0
  0
LINE
  5
260
100
AcDbEntity
  8
001
100
AcDbLine
 10
482.5
 20
909.329229
 30
0.0
 11
510.5
 21
909.329229
 31
0.0
  0
LINE
  5
261
100
AcDbEntity
  8
001
100
AcDbLine
 10
479.75
 20
876.329229
 30
0.0
 11
482.5
 21
873.579229
 31
0.0
  0
LINE
  5
262
100
AcDbEntity
  8
001
100
AcDbLine
 10
510.5
 20
873.579229
 30
0.0
 11
513.25
 21
876.329229
 31
0.0
  0
LINE
  5
263
100
AcDbEntity
  8
001
100
AcDbLine
 10
513.25
 20
904.329229
 30
0.0
 11
510.5
 21
907.079229
 31
0.0
  0
LINE
  5
264
100
AcDbEntity
  8
001
100
AcDbLine
 10
482.5
 20
907.079229
 30
0.0
 11
479.75
 21
904.329229
 31
0.0
  0
LINE
  5
265
100
AcDbEntity
  8
001
100
AcDbLine
 10
477.5
 20
876.329229
 30
0.0
 11
482.5
 21
871.329229
 31
0.0
  0
LINE
  5
266
100
AcDbEntity
  8
001
100
AcDbLine
 10
510.5
 20
871.329229
 30
0.0
 11
515.5
 21
876.329229
 31
0.0
  0
LINE
  5
267
100
AcDbEntity
  8
001
100
AcDbLine
 10
515.5
 20
904.329229
 30
0.0
 11
510.5
 21
909.329229
 31
0.0
  0
LINE
  5
268
100
AcDbEntity
  8
001
100
AcDbLine
 10
482.5
 20
909.329229
 30
0.0
 11
477.5
 21
904.329229
 31
0.0
  0
LINE
  5
269
100
AcDbEntity
  8
001
100
AcDbLine
 10
513.25
 20
876.329229
 30
0.0
 11
515.5
 21
876.329229
 31
0.0
  0
LINE
  5
26A
100
AcDbEntity
  8
001
100
AcDbLine
 10
513.25
 20
904.329229
 30
0.0
 11
515.5
 21
904.329229
 31
0.0
  0
LINE
  5
26B
100
AcDbEntity
  8
001
100
AcDbLine
 10
510.5
 20
907.079229
 30
0.0
 11
510.5
 21
909.329229
 31
0.0
  0
LINE
  5
26C
100
AcDbEntity
  8
001
100
AcDbLine
 10
482.5
 20
907.079229
 30
0.0
 11
482.5
 21
909.329229
 31
0.0
  0
LINE
  5
26D
100
AcDbEntity
  8
001
100
AcDbLine
 10
479.75
 20
904.329229
 30
0.0
 11
477.5
 21
904.329229
 31
0.0
  0
LINE
  5
26E
100
AcDbEntity
  8
001
100
AcDbLine
 10
479.75
 20
876.329229
 30
0.0
 11
477.5
 21
876.329229
 31
0.0
  0
LINE
  5
26F
100
AcDbEntity
  8
001
100
AcDbLine
 10
482.5
 20
873.579229
 30
0.0
 11
482.5
 21
871.329229
 31
0.0
  0
LINE
  5
270
100
AcDbEntity
  8
001
100
AcDbLine
 10
510.5
 20
873.579229
 30
0.0
 11
510.5
 21
871.329229
 31
0.0
  0
LINE
  5
271
100
AcDbEntity
  8
001
  6
CENTER
100
AcDbLine
 10
496.5
 20
774.329229
 30
0.0
 11
496.5
 21
1006.329229
 31
0.0
  0
ARC
  5
272
100
AcDbEntity
  8
001
100
AcDbCircle
 10
511.9999
 20
923.616696
 30
0.0
 40
61.0
100
AcDbArc
 50
6.877045
 51
77.390301
  0
ARC
  5
273
100
AcDbEntity
  8
001
100
AcDbCircle
 10
236.0
 20
890.329229
 30
0.0
 40
339.0
100
AcDbArc
 50
353.122955
 51
6.877045
  0
ARC
  5
274
100
AcDbEntity
  8
001
100
AcDbCircle
 10
496.5
 20
854.329229
 30
0.0
 40
132.0
100
AcDbArc
 50
77.390301
 51
102.609699
  0
ARC
  5
275
100
AcDbEntity
  8
001
100
AcDbCircle
 10
481.0001
 20
923.616696
 30
0.0
 40
61.0
100
AcDbArc
 50
102.609699
 51
173.122955
  0
ARC
  5
276
100
AcDbEntity
  8
001
100
AcDbCircle
 10
757.0
 20
890.329229
 30
0.0
 40
339.0
100
AcDbArc
 50
173.122955
 51
186.877045
  0
ARC
  5
277
100
AcDbEntity
  8
001
100
AcDbCircle
 10
511.9999
 20
857.041762
 30
0.0
 40
61.0
100
AcDbArc
 50
282.609699
 51
353.122955
  0
ARC
  5
278
100
AcDbEntity
  8
001
100
AcDbCircle
 10
496.5
 20
926.329229
 30
0.0
 40
132.0
100
AcDbArc
 50
257.390301
 51
282.609699
  0
ARC
  5
279
100
AcDbEntity
  8
001
100
AcDbCircle
 10
481.0001
 20
857.041762
 30
0.0
 40
61.0
100
AcDbArc
 50
186.877045
 51
257.390301
  0
ARC
  5
27A
100
AcDbEntity
  8
001
  6
CENTER
100
AcDbCircle
 10
496.5
 20
926.329229
 30
0.0
 40
117.0
100
AcDbArc
 50
261.672393
 51
278.327607
  0
ARC
  5
27B
100
AcDbEntity
  8
001
100
AcDbCircle
 10
488.272776
 20
447.344745
 30
0.0
 40
4.856074
100
AcDbArc
 50
244.384255
 51
304.384126
  0
ARC
  5
27C
100
AcDbEntity
  8
001
100
AcDbCircle
 10
496.50001
 20
460.640186
 30
0.0
 40
18.151531
100
AcDbArc
 50
252.412073
 51
287.587915
  0
ARC
  5
27D
100
AcDbEntity
  8
001
100
AcDbCircle
 10
504.727232
 20
447.344745
 30
0.0
 40
4.856074
100
AcDbArc
 50
235.6158
 51
295.615745
  0
ARC
  5
27E
100
AcDbEntity
  8
001
100
AcDbCircle
 10
1140.75
 20
456.208392
 30
0.0
 40
13.719723
100
AcDbArc
 50
249.743897
 51
290.256103
  0
ARC
  5
27F
100
AcDbEntity
  8
001
100
AcDbCircle
 10
1131.25
 20
456.208392
 30
0.0
 40
13.719723
100
AcDbArc
 50
249.743897
 51
290.256103
  0
LINE
  5
280
100
AcDbEntity
  8
001
100
AcDbLine
 10
487.500002
 20
442.2
 30
0.0
 11
485.530352
 21
443.337177
 31
0.0
  0
LINE
  5
281
100
AcDbEntity
  8
001
100
AcDbLine
 10
505.499998
 20
442.2
 30
0.0
 11
507.469648
 21
443.337177
 31
0.0
  0
LINE
  5
282
100
AcDbEntity
  8
001
100
AcDbLine
 10
485.530352
 20
450.2
 30
0.0
 11
485.530352
 21
443.337177
 31
0.0
  0
LINE
  5
283
100
AcDbEntity
  8
001
100
AcDbLine
 10
491.015177
 20
450.2
 30
0.0
 11
491.015177
 21
443.337177
 31
0.0
  0
LINE
  5
284
100
AcDbEntity
  8
001
100
AcDbLine
 10
501.984831
 20
450.2
 30
0.0
 11
501.984831
 21
443.337177
 31
0.0
  0
LINE
  5
285
100
AcDbEntity
  8
001
100
AcDbLine
 10
507.469648
 20
450.2
 30
0.0
 11
507.469648
 21
443.337177
 31
0.0
  0
LINE
  5
286
100
AcDbEntity
  8
001
100
AcDbLine
 10
487.500002
 20
442.2
 30
0.0
 11
505.500013
 21
442.2
 31
0.0
  0
LINE
  5
287
100
AcDbEntity
  8
001
100
AcDbLine
 10
1145.5
 20
442.488666
 30
0.0
 11
1145.0
 21
442.2
 31
0.0
  0
LINE
  5
288
100
AcDbEntity
  8
001
100
AcDbLine
 10
1126.5
 20
442.488666
 30
0.0
 11
1127.0
 21
442.2
 31
0.0
  0
LINE
  5
289
100
AcDbEntity
  8
001
100
AcDbLine
 10
1145.0
 20
442.2
 30
0.0
 11
1126.999985
 21
442.2
 31
0.0
  0
LINE
  5
28A
100
AcDbEntity
  8
001
100
AcDbLine
 10
1145.5
 20
450.2
 30
0.0
 11
1145.5
 21
442.488666
 31
0.0
  0
LINE
  5
28B
100
AcDbEntity
  8
001
100
AcDbLine
 10
1126.5
 20
450.2
 30
0.0
 11
1126.5
 21
442.488666
 31
0.0
  0
LINE
  5
28C
100
AcDbEntity
  8
001
100
AcDbLine
 10
1136.0
 20
450.2
 30
0.0
 11
1136.0
 21
443.337177
 31
0.0
  0
ARC
  5
28D
100
AcDbEntity
  8
001
100
AcDbCircle
 10
488.272766
 20
487.655255
 30
0.0
 40
4.856074
100
AcDbArc
 50
55.6158
 51
115.615582
  0
ARC
  5
28E
100
AcDbEntity
  8
001
100
AcDbCircle
 10
496.5
 20
474.359814
 30
0.0
 40
18.151531
100
AcDbArc
 50
72.41205
 51
107.587904
  0
ARC
  5
28F
100
AcDbEntity
  8
001
100
AcDbCircle
 10
504.727234
 20
487.655255
 30
0.0
 40
4.856074
100
AcDbArc
 50
64.384418
 51
124.3842
  0
ARC
  5
290
100
AcDbEntity
  8
001
100
AcDbCircle
 10
1140.75
 20
478.791608
 30
0.0
 40
13.719723
100
AcDbArc
 50
69.743897
 51
110.256103
  0
ARC
  5
291
100
AcDbEntity
  8
001
100
AcDbCircle
 10
1131.25
 20
478.791608
 30
0.0
 40
13.719723
100
AcDbArc
 50
69.743897
 51
110.256103
  0
LINE
  5
292
100
AcDbEntity
  8
001
100
AcDbLine
 10
487.5
 20
492.8
 30
0.0
 11
485.53035
 21
491.662823
 31
0.0
  0
LINE
  5
293
100
AcDbEntity
  8
001
100
AcDbLine
 10
505.5
 20
492.8
 30
0.0
 11
507.46965
 21
491.662823
 31
0.0
  0
LINE
  5
294
100
AcDbEntity
  8
001
100
AcDbLine
 10
487.5
 20
492.8
 30
0.0
 11
505.5
 21
492.8
 31
0.0
  0
LINE
  5
295
100
AcDbEntity
  8
001
100
AcDbLine
 10
1145.5
 20
492.511334
 30
0.0
 11
1145.0
 21
492.8
 31
0.0
  0
LINE
  5
296
100
AcDbEntity
  8
001
100
AcDbLine
 10
1126.5
 20
492.511334
 30
0.0
 11
1127.0
 21
492.8
 31
0.0
  0
LINE
  5
297
100
AcDbEntity
  8
001
100
AcDbLine
 10
1145.0
 20
492.8
 30
0.0
 11
1127.0
 21
492.8
 31
0.0
  0
LINE
  5
298
100
AcDbEntity
  8
001
100
AcDbLine
 10
485.53035
 20
482.8
 30
0.0
 11
485.53035
 21
491.662823
 31
0.0
  0
LINE
  5
299
100
AcDbEntity
  8
001
100
AcDbLine
 10
491.015167
 20
482.8
 30
0.0
 11
491.015167
 21
491.662823
 31
0.0
  0
LINE
  5
29A
100
AcDbEntity
  8
001
100
AcDbLine
 10
501.984833
 20
482.8
 30
0.0
 11
501.984833
 21
491.662823
 31
0.0
  0
LINE
  5
29B
100
AcDbEntity
  8
001
100
AcDbLine
 10
507.46965
 20
482.8
 30
0.0
 11
507.46965
 21
491.662823
 31
0.0
  0
LINE
  5
29C
100
AcDbEntity
  8
001
100
AcDbLine
 10
1145.5
 20
482.8
 30
0.0
 11
1145.5
 21
492.511334
 31
0.0
  0
LINE
  5
29D
100
AcDbEntity
  8
001
100
AcDbLine
 10
1126.5
 20
482.8
 30
0.0
 11
1126.5
 21
492.511334
 31
0.0
  0
LINE
  5
29E
100
AcDbEntity
  8
001
100
AcDbLine
 10
1136.0
 20
482.8
 30
0.0
 11
1136.0
 21
491.662823
 31
0.0
  0
LINE
  5
29F
100
AcDbEntity
  8
001
100
AcDbLine
 10
484.5
 20
450.2
 30
0.0
 11
508.5
 21
450.2
 31
0.0
  0
LINE
  5
2A0
100
AcDbEntity
  8
001
100
AcDbLine
 10
1124.0
 20
450.2
 30
0.0
 11
1148.0
 21
450.2
 31
0.0
  0
LINE
  5
2A1
100
AcDbEntity
  8
001
100
AcDbLine
 10
484.5
 20
482.8
 30
0.0
 11
508.5
 21
482.8
 31
0.0
  0
LINE
  5
2A2
100
AcDbEntity
  8
001
100
AcDbLine
 10
1124.0
 20
482.8
 30
0.0
 11
1148.0
 21
482.8
 31
0.0
  0
LINE
  5
2A3
100
AcDbEntity
  8
001
100
AcDbLine
 10
490.5
 20
498.2
 30
0.0
 11
502.5
 21
498.2
 31
0.0
  0
ARC
  5
2A4
100
AcDbEntity
  8
001
100
AcDbCircle
 10
496.5
 20
490.2
 30
0.0
 40
10.0
100
AcDbArc
 50
53.130102
 51
126.869898
  0
LINE
  5
2A5
100
AcDbEntity
  8
001
  6
CENTER
100
AcDbLine
 10
1136.0
 20
437.2
 30
0.0
 11
1136.0
 21
505.2
 31
0.0
  0
LINE
  5
2A6
100
AcDbEntity
  8
001
100
AcDbLine
 10
1142.0
 20
498.2
 30
0.0
 11
1130.0
 21
498.2
 31
0.0
  0
ARC
  5
2A7
100
AcDbEntity
  8
001
100
AcDbCircle
 10
1136.0
 20
490.2
 30
0.0
 40
10.0
100
AcDbArc
 50
53.130102
 51
126.869898
  0
ARC
  5
2A8
100
AcDbEntity
  8
001
100
AcDbCircle
 10
969.25
 20
456.208392
 30
0.0
 40
13.719723
100
AcDbArc
 50
249.743897
 51
290.256103
  0
ARC
  5
2A9
100
AcDbEntity
  8
001
100
AcDbCircle
 10
978.75
 20
456.208392
 30
0.0
 40
13.719723
100
AcDbArc
 50
249.743897
 51
290.256103
  0
LINE
  5
2AA
100
AcDbEntity
  8
001
100
AcDbLine
 10
964.5
 20
442.488666
 30
0.0
 11
965.0
 21
442.2
 31
0.0
  0
LINE
  5
2AB
100
AcDbEntity
  8
001
100
AcDbLine
 10
983.5
 20
442.488666
 30
0.0
 11
983.0
 21
442.2
 31
0.0
  0
LINE
  5
2AC
100
AcDbEntity
  8
001
100
AcDbLine
 10
965.0
 20
442.2
 30
0.0
 11
983.000015
 21
442.2
 31
0.0
  0
LINE
  5
2AD
100
AcDbEntity
  8
001
100
AcDbLine
 10
964.5
 20
450.2
 30
0.0
 11
964.5
 21
442.488666
 31
0.0
  0
LINE
  5
2AE
100
AcDbEntity
  8
001
100
AcDbLine
 10
983.5
 20
450.2
 30
0.0
 11
983.5
 21
442.488666
 31
0.0
  0
LINE
  5
2AF
100
AcDbEntity
  8
001
100
AcDbLine
 10
974.0
 20
450.2
 30
0.0
 11
974.0
 21
443.337177
 31
0.0
  0
LINE
  5
2B0
100
AcDbEntity
  8
001
100
AcDbLine
 10
962.0
 20
450.2
 30
0.0
 11
986.0
 21
450.2
 31
0.0
  0
LINE
  5
2B1
100
AcDbEntity
  8
001
  6
CENTER
100
AcDbLine
 10
974.0
 20
437.2
 30
0.0
 11
974.0
 21
505.2
 31
0.0
  0
ARC
  5
2B2
100
AcDbEntity
  8
001
100
AcDbCircle
 10
969.25
 20
478.791608
 30
0.0
 40
13.719723
100
AcDbArc
 50
69.743897
 51
110.256103
  0
ARC
  5
2B3
100
AcDbEntity
  8
001
100
AcDbCircle
 10
978.75
 20
478.791608
 30
0.0
 40
13.719723
100
AcDbArc
 50
69.743897
 51
110.256103
  0
LINE
  5
2B4
100
AcDbEntity
  8
001
100
AcDbLine
 10
964.5
 20
492.511334
 30
0.0
 11
965.0
 21
492.8
 31
0.0
  0
LINE
  5
2B5
100
AcDbEntity
  8
001
100
AcDbLine
 10
983.5
 20
492.511334
 30
0.0
 11
983.0
 21
492.8
 31
0.0
  0
LINE
  5
2B6
100
AcDbEntity
  8
001
100
AcDbLine
 10
965.0
 20
492.8
 30
0.0
 11
983.0
 21
492.8
 31
0.0
  0
LINE
  5
2B7
100
AcDbEntity
  8
001
100
AcDbLine
 10
964.5
 20
482.8
 30
0.0
 11
964.5
 21
492.511334
 31
0.0
  0
LINE
  5
2B8
100
AcDbEntity
  8
001
100
AcDbLine
 10
983.5
 20
482.8
 30
0.0
 11
983.5
 21
492.511334
 31
0.0
  0
LINE
  5
2B9
100
AcDbEntity
  8
001
100
AcDbLine
 10
974.0
 20
482.8
 30
0.0
 11
974.0
 21
491.662823
 31
0.0
  0
LINE
  5
2BA
100
AcDbEntity
  8
001
100
AcDbLine
 10
962.0
 20
482.8
 30
0.0
 11
986.0
 21
482.8
 31
0.0
  0
LINE
  5
2BB
100
AcDbEntity
  8
001
100
AcDbLine
 10
968.0
 20
498.2
 30
0.0
 11
980.0
 21
498.2
 31
0.0
  0
ARC
  5
2BC
100
AcDbEntity
  8
001
100
AcDbCircle
 10
974.0
 20
490.2
 30
0.0
 40
10.0
100
AcDbArc
 50
53.130102
 51
126.869898
  0
LINE
  5
2BD
100
AcDbEntity
  8
001
100
AcDbLine
 10
491.015172
 20
799.829229
 30
0.0
 11
501.984828
 21
799.829229
 31
0.0
  0
LINE
  5
2BE
100
AcDbEntity
  8
001
100
AcDbLine
 10
491.015172
 20
818.829229
 30
0.0
 11
501.984828
 21
818.829229
 31
0.0
  0
LINE
  5
2BF
100
AcDbEntity
  8
001
100
AcDbLine
 10
507.469655
 20
809.329229
 30
0.0
 11
501.984828
 21
799.829229
 31
0.0
  0
LINE
  5
2C0
100
AcDbEntity
  8
001
100
AcDbLine
 10
485.530345
 20
809.329229
 30
0.0
 11
491.015172
 21
818.829229
 31
0.0
  0
LINE
  5
2C1
100
AcDbEntity
  8
001
100
AcDbLine
 10
501.984828
 20
818.829229
 30
0.0
 11
507.469655
 21
809.329229
 31
0.0
  0
LINE
  5
2C2
100
AcDbEntity
  8
001
100
AcDbLine
 10
491.015172
 20
799.829229
 30
0.0
 11
485.530345
 21
809.329229
 31
0.0
  0
CIRCLE
  5
2C3
100
AcDbEntity
  8
001
100
AcDbCircle
 10
496.5
 20
809.329229
 30
0.0
 40
9.0
  0
CIRCLE
  5
2C4
100
AcDbEntity
  8
001
100
AcDbCircle
 10
496.5
 20
809.329229
 30
0.0
 40
6.0
  0
CIRCLE
  5
2C5
100
AcDbEntity
  8
001
100
AcDbCircle
 10
496.5
 20
809.329229
 30
0.0
 40
5.055
  0
LINE
  5
2C6
100
AcDbEntity
  8
001
100
AcDbLine
 10
552.015172
 20
840.329229
 30
0.0
 11
562.984828
 21
840.329229
 31
0.0
  0
LINE
  5
2C7
100
AcDbEntity
  8
001
100
AcDbLine
 10
552.015172
 20
859.329229
 30
0.0
 11
562.984828
 21
859.329229
 31
0.0
  0
LINE
  5
2C8
100
AcDbEntity
  8
001
100
AcDbLine
 10
568.469655
 20
849.829229
 30
0.0
 11
562.984828
 21
840.329229
 31
0.0
  0
LINE
  5
2C9
100
AcDbEntity
  8
001
100
AcDbLine
 10
546.530345
 20
849.829229
 30
0.0
 11
552.015172
 21
859.329229
 31
0.0
  0
LINE
  5
2CA
100
AcDbEntity
  8
001
100
AcDbLine
 10
562.984828
 20
859.329229
 30
0.0
 11
568.469655
 21
849.829229
 31
0.0
  0
LINE
  5
2CB
100
AcDbEntity
  8
001
100
AcDbLine
 10
552.015172
 20
840.329229
 30
0.0
 11
546.530345
 21
849.829229
 31
0.0
  0
CIRCLE
  5
2CC
100
AcDbEntity
  8
001
100
AcDbCircle
 10
557.5
 20
849.829229
 30
0.0
 40
9.0
  0
CIRCLE
  5
2CD
100
AcDbEntity
  8
001
100
AcDbCircle
 10
557.5
 20
849.829229
 30
0.0
 40
6.0
  0
CIRCLE
  5
2CE
100
AcDbEntity
  8
001
100
AcDbCircle
 10
557.5
 20
849.829229
 30
0.0
 40
5.055
  0
ARC
  5
2CF
100
AcDbEntity
  8
001
  6
CENTER
100
AcDbCircle
 10
511.9999
 20
857.041762
 30
0.0
 40
46.068208
100
AcDbArc
 50
329.806903
 51
353.122955
  0
LINE
  5
2D0
100
AcDbEntity
  8
001
  6
CENTER
100
AcDbLine
 10
540.709642
 20
852.490784
 30
0.0
 11
574.290358
 21
847.167674
 31
0.0
  0
ARC
  5
2D1
100
AcDbEntity
  8
001
  6
CENTER
100
AcDbCircle
 10
236.0
 20
890.329229
 30
0.0
 40
324.068208
100
AcDbArc
 50
353.122955
 51
355.825988
  0
LINE
  5
2D2
100
AcDbEntity
  8
001
100
AcDbLine
 10
422.517509
 20
283.654419
 30
0.0
 11
418.228561
 21
277.582798
 31
0.0
  0
LINE
  5
2D3
100
AcDbEntity
  8
001
100
AcDbLine
 10
422.517534
 20
383.345564
 30
0.0
 11
418.228561
 21
389.417202
 31
0.0
  0
ARC
  5
2D4
100
AcDbEntity
  8
001
100
AcDbCircle
 10
434.769094
 20
392.0
 30
0.0
 40
15.0
100
AcDbArc
 50
215.237177
 51
270.0
  0
ARC
  5
2D5
100
AcDbEntity
  8
001
100
AcDbCircle
 10
434.769082
 20
275.0
 30
0.0
 40
15.0
100
AcDbArc
 50
90.0
 51
144.762902
  0
ARC
  5
2D6
100
AcDbEntity
  8
001
100
AcDbCircle
 10
405.97699
 20
380.762766
 30
0.0
 40
15.0
100
AcDbArc
 50
35.237152
 51
94.513948
  0
LINE
  5
2D7
100
AcDbEntity
  8
001
100
AcDbLine
 10
404.796463
 20
395.71624
 30
0.0
 11
344.956299
 21
390.992016
 31
0.0
  0
LINE
  5
2D8
100
AcDbEntity
  8
001
100
AcDbLine
 10
408.677338
 20
390.360857
 30
0.0
 11
408.677338
 21
276.605572
 31
0.0
  0
ARC
  5
2D9
100
AcDbEntity
  8
001
100
AcDbCircle
 10
344.877609
 20
391.988914
 30
0.0
 40
1.0
100
AcDbArc
 50
200.148486
 51
274.513249
  0
LINE
  5
2DA
100
AcDbEntity
  8
001
100
AcDbLine
 10
343.910217
 20
390.909431
 30
0.0
 11
343.910217
 21
342.5
 31
0.0
  0
ARC
  5
2DB
100
AcDbEntity
  8
001
100
AcDbCircle
 10
343.0
 20
391.300001
 30
0.0
 40
1.0
100
AcDbArc
 50
20.148684
 51
90.0
  0
LINE
  5
2DC
100
AcDbEntity
  8
001
100
AcDbLine
 10
343.0
 20
392.300001
 30
0.0
 11
322.0
 21
392.300001
 31
0.0
  0
ARC
  5
2DD
100
AcDbEntity
  8
001
100
AcDbCircle
 10
322.0
 20
395.300001
 30
0.0
 40
3.0
100
AcDbArc
 50
180.0
 51
270.0
  0
ARC
  5
2DE
100
AcDbEntity
  8
001
100
AcDbCircle
 10
317.0
 20
396.75
 30
0.0
 40
2.0
100
AcDbArc
 50
0.0
 51
90.0
  0
LINE
  5
2DF
100
AcDbEntity
  8
001
100
AcDbLine
 10
317.0
 20
398.75
 30
0.0
 11
313.0
 21
398.75
 31
0.0
  0
LINE
  5
2E0
100
AcDbEntity
  8
001
100
AcDbLine
 10
293.0
 20
402.937473
 30
0.0
 11
293.0
 21
400.034531
 31
0.0
  0
ARC
  5
2E1
100
AcDbEntity
  8
001
100
AcDbCircle
 10
296.0
 20
400.034531
 30
0.0
 40
3.0
100
AcDbArc
 50
180.0
 51
287.727752
  0
ARC
  5
2E2
100
AcDbEntity
  8
001
100
AcDbCircle
 10
307.0
 20
365.625001
 30
0.0
 40
33.125
100
AcDbArc
 50
91.729947
 51
108.740663
  0
ARC
  5
2E3
100
AcDbEntity
  8
001
100
AcDbCircle
 10
297.0
 20
395.099831
 30
0.0
 40
2.0
100
AcDbArc
 50
108.74086
 51
180.0
  0
ARC
  5
2E4
100
AcDbEntity
  8
001
100
AcDbCircle
 10
293.0
 20
389.0
 30
0.0
 40
1.999999
100
AcDbArc
 50
270.0
 51
0.0
  0
LINE
  5
2E5
100
AcDbEntity
  8
001
100
AcDbLine
 10
293.0
 20
387.0
 30
0.0
 11
286.0
 21
387.0
 31
0.0
  0
ARC
  5
2E6
100
AcDbEntity
  8
001
100
AcDbCircle
 10
286.0
 20
385.000002
 30
0.0
 40
1.999999
100
AcDbArc
 50
90.0
 51
180.0
  0
LINE
  5
2E7
100
AcDbEntity
  8
001
100
AcDbLine
 10
319.0
 20
396.75
 30
0.0
 11
319.0
 21
270.250004
 31
0.0
  0
ARC
  5
2E8
100
AcDbEntity
  8
001
100
AcDbCircle
 10
337.0
 20
342.5
 30
0.0
 40
3.0
100
AcDbArc
 50
180.0
 51
270.0
  0
LINE
  5
2E9
100
AcDbEntity
  8
001
100
AcDbLine
 10
334.0
 20
327.5
 30
0.0
 11
334.0
 21
339.5
 31
0.0
  0
ARC
  5
2EA
100
AcDbEntity
  8
001
100
AcDbCircle
 10
337.0
 20
324.5
 30
0.0
 40
3.0
100
AcDbArc
 50
90.0
 51
180.0
  0
LINE
  5
2EB
100
AcDbEntity
  8
001
100
AcDbLine
 10
337.0
 20
327.5
 30
0.0
 11
391.0
 21
327.5
 31
0.0
  0
LINE
  5
2EC
100
AcDbEntity
  8
001
100
AcDbLine
 10
337.0
 20
339.5
 30
0.0
 11
391.0
 21
339.5
 31
0.0
  0
ARC
  5
2ED
100
AcDbEntity
  8
001
100
AcDbCircle
 10
346.910217
 20
342.5
 30
0.0
 40
3.0
100
AcDbArc
 50
180.0
 51
217.143194
  0
ARC
  5
2EE
100
AcDbEntity
  8
001
100
AcDbCircle
 10
391.0
 20
342.5
 30
0.0
 40
3.0
100
AcDbArc
 50
270.0
 51
0.0
  0
LINE
  5
2EF
100
AcDbEntity
  8
001
100
AcDbLine
 10
394.0
 20
327.5
 30
0.0
 11
394.0
 21
339.5
 31
0.0
  0
ARC
  5
2F0
100
AcDbEntity
  8
001
100
AcDbCircle
 10
391.0
 20
324.5
 30
0.0
 40
3.0
100
AcDbArc
 50
0.0
 51
90.0
  0
ARC
  5
2F1
100
AcDbEntity
  8
001
100
AcDbCircle
 10
346.910217
 20
324.5
 30
0.0
 40
3.0
100
AcDbArc
 50
146.80926
 51
180.0
  0
LINE
  5
2F2
100
AcDbEntity
  8
001
100
AcDbLine
 10
343.910217
 20
324.5
 30
0.0
 11
343.910217
 21
276.090572
 31
0.0
  0
ARC
  5
2F3
100
AcDbEntity
  8
001
100
AcDbCircle
 10
405.97699
 20
286.237232
 30
0.0
 40
15.0
100
AcDbArc
 50
265.486051
 51
324.762854
  0
LINE
  5
2F4
100
AcDbEntity
  8
001
100
AcDbLine
 10
389.736107
 20
272.472737
 30
0.0
 11
404.796463
 21
271.283764
 31
0.0
  0
LINE
  5
2F5
100
AcDbEntity
  8
001
100
AcDbLine
 10
368.736107
 20
274.130635
 30
0.0
 11
344.956299
 21
276.007984
 31
0.0
  0
ARC
  5
2F6
100
AcDbEntity
  8
001
100
AcDbCircle
 10
344.877609
 20
275.011089
 30
0.0
 40
1.0
100
AcDbArc
 50
85.486734
 51
159.851822
  0
ARC
  5
2F7
100
AcDbEntity
  8
001
100
AcDbCircle
 10
343.0
 20
275.700001
 30
0.0
 40
1.0
100
AcDbArc
 50
270.0
 51
339.851111
  0
LINE
  5
2F8
100
AcDbEntity
  8
001
100
AcDbLine
 10
343.0
 20
274.700001
 30
0.0
 11
322.0
 21
274.700001
 31
0.0
  0
ARC
  5
2F9
100
AcDbEntity
  8
001
100
AcDbCircle
 10
322.0
 20
271.700001
 30
0.0
 40
3.0
100
AcDbArc
 50
90.0
 51
180.0
  0
ARC
  5
2FA
100
AcDbEntity
  8
001
100
AcDbCircle
 10
317.0
 20
270.250004
 30
0.0
 40
2.0
100
AcDbArc
 50
270.0
 51
0.0
  0
LINE
  5
2FB
100
AcDbEntity
  8
001
100
AcDbLine
 10
317.0
 20
268.250004
 30
0.0
 11
306.982226
 21
268.250004
 31
0.0
  0
ARC
  5
2FC
100
AcDbEntity
  8
001
100
AcDbCircle
 10
293.0
 20
278.000004
 30
0.0
 40
1.999999
100
AcDbArc
 50
0.0
 51
90.0
  0
LINE
  5
2FD
100
AcDbEntity
  8
001
100
AcDbLine
 10
293.0
 20
280.000004
 30
0.0
 11
286.0
 21
280.000004
 31
0.0
  0
ARC
  5
2FE
100
AcDbEntity
  8
001
100
AcDbCircle
 10
286.0
 20
281.999996
 30
0.0
 40
1.999999
100
AcDbArc
 50
180.0
 51
270.0
  0
LINE
  5
2FF
100
AcDbEntity
  8
001
100
AcDbLine
 10
371.5
 20
250.5
 30
0.0
 11
371.5
 21
292.663809
 31
0.0
  0
LINE
  5
300
100
AcDbEntity
  8
001
100
AcDbLine
 10
386.5
 20
250.5
 30
0.0
 11
386.5
 21
290.40435
 31
0.0
  0
LINE
  5
301
100
AcDbEntity
  8
001
100
AcDbLine
 10
374.5
 20
247.5
 30
0.0
 11
383.5
 21
247.5
 31
0.0
  0
LINE
  5
302
100
AcDbEntity
  8
001
100
AcDbLine
 10
373.176038
 20
294.24075
 30
0.0
 11
385.296309
 21
292.799421
 31
0.0
  0
ARC
  5
303
100
AcDbEntity
  8
001
100
AcDbCircle
 10
388.5
 20
290.40435
 30
0.0
 40
2.0
100
AcDbArc
 50
83.218297
 51
180.0
  0
ARC
  5
304
100
AcDbEntity
  8
001
100
AcDbCircle
 10
369.5
 20
292.663809
 30
0.0
 40
2.0
100
AcDbArc
 50
0.0
 51
83.218297
  0
ARC
  5
305
100
AcDbEntity
  8
001
100
AcDbCircle
 10
389.5
 20
269.482042
 30
0.0
 40
3.0
100
AcDbArc
 50
85.486021
 51
180.0
  0
ARC
  5
306
100
AcDbEntity
  8
001
100
AcDbCircle
 10
368.5
 20
271.13994
 30
0.0
 40
3.0
100
AcDbArc
 50
0.0
 51
85.486021
  0
ARC
  5
307
100
AcDbEntity
  8
001
100
AcDbCircle
 10
383.5
 20
250.5
 30
0.0
 40
3.0
100
AcDbArc
 50
270.0
 51
0.0
  0
ARC
  5
308
100
AcDbEntity
  8
001
100
AcDbCircle
 10
374.5
 20
250.5
 30
0.0
 40
3.0
100
AcDbArc
 50
180.0
 51
270.0
  0
LINE
  5
309
100
AcDbEntity
  8
001
  6
CENTER
100
AcDbLine
 10
364.0
 20
322.5
 30
0.0
 11
364.0
 21
344.5
 31
0.0
  0
LINE
  5
30A
100
AcDbEntity
  8
001
100
AcDbLine
 10
434.769094
 20
377.0
 30
0.0
 11
447.377969
 21
377.0
 31
0.0
  0
LINE
  5
30B
100
AcDbEntity
  8
001
100
AcDbLine
 10
433.813599
 20
373.48104
 30
0.0
 11
433.813599
 21
293.852337
 31
0.0
  0
ARC
  5
30C
100
AcDbEntity
  8
001
100
AcDbCircle
 10
447.377969
 20
387.0
 30
0.0
 40
10.0
100
AcDbArc
 50
270.0
 51
12.499998
  0
LINE
  5
30D
100
AcDbEntity
  8
001
100
AcDbLine
 10
434.769082
 20
290.0
 30
0.0
 11
558.230918
 21
290.0
 31
0.0
  0
LINE
  5
30E
100
AcDbEntity
  8
001
100
AcDbLine
 10
295.0
 20
395.099831
 30
0.0
 11
295.0
 21
360.5
 31
0.0
  0
LINE
  5
30F
100
AcDbEntity
  8
001
100
AcDbLine
 10
295.0
 20
313.5
 30
0.0
 11
295.0
 21
271.900173
 31
0.0
  0
LINE
  5
310
100
AcDbEntity
  8
001
100
AcDbLine
 10
698.0
 20
395.099831
 30
0.0
 11
698.0
 21
353.5
 31
0.0
  0
LINE
  5
311
100
AcDbEntity
  8
001
100
AcDbLine
 10
698.0
 20
306.5
 30
0.0
 11
698.0
 21
271.900173
 31
0.0
  0
LINE
  5
312
100
AcDbEntity
  8
001
100
AcDbLine
 10
266.0
 20
363.5
 30
0.0
 11
266.0
 21
378.245044
 31
0.0
  0
LINE
  5
313
100
AcDbEntity
  8
001
100
AcDbLine
 10
274.0
 20
397.0
 30
0.0
 11
266.0
 21
397.0
 31
0.0
  0
LINE
  5
314
100
AcDbEntity
  8
001
100
AcDbLine
 10
236.146205
 20
388.137155
 30
0.0
 11
266.0
 21
397.0
 31
0.0
  0
LINE
  5
315
100
AcDbEntity
  8
001
100
AcDbLine
 10
277.0
 20
393.245044
 30
0.0
 11
277.0
 21
416.5
 31
0.0
  0
LINE
  5
316
100
AcDbEntity
  8
001
100
AcDbLine
 10
310.0
 20
419.5
 30
0.0
 11
280.0
 21
419.5
 31
0.0
  0
ARC
  5
317
100
AcDbEntity
  8
001
100
AcDbCircle
 10
274.0
 20
400.0
 30
0.0
 40
3.0
100
AcDbArc
 50
270.0
 51
0.0
  0
ARC
  5
318
100
AcDbEntity
  8
001
100
AcDbCircle
 10
280.0
 20
416.5
 30
0.0
 40
3.0
100
AcDbArc
 50
90.0
 51
180.0
  0
LINE
  5
319
100
AcDbEntity
  8
001
100
AcDbLine
 10
313.0
 20
396.789646
 30
0.0
 11
313.0
 21
416.5
 31
0.0
  0
ARC
  5
31A
100
AcDbEntity
  8
001
100
AcDbCircle
 10
310.0
 20
416.5
 30
0.0
 40
3.0
100
AcDbArc
 50
0.0
 51
90.0
  0
LINE
  5
31B
100
AcDbEntity
  8
001
100
AcDbLine
 10
312.0
 20
395.789646
 30
0.0
 11
307.0
 21
395.789646
 31
0.0
  0
LINE
  5
31C
100
AcDbEntity
  8
001
100
AcDbLine
 10
306.0
 20
404.180052
 30
0.0
 11
306.0
 21
396.789646
 31
0.0
  0
ARC
  5
31D
100
AcDbEntity
  8
001
100
AcDbCircle
 10
307.0
 20
396.789646
 30
0.0
 40
1.0
100
AcDbArc
 50
180.0
 51
270.0
  0
ARC
  5
31E
100
AcDbEntity
  8
001
100
AcDbCircle
 10
312.0
 20
396.789646
 30
0.0
 40
1.0
100
AcDbArc
 50
270.0
 51
0.0
  0
LINE
  5
31F
100
AcDbEntity
  8
001
100
AcDbLine
 10
303.0
 20
407.180052
 30
0.0
 11
287.0
 21
407.180052
 31
0.0
  0
LINE
  5
320
100
AcDbEntity
  8
001
100
AcDbLine
 10
284.0
 20
360.5
 30
0.0
 11
284.0
 21
404.180052
 31
0.0
  0
LINE
  5
321
100
AcDbEntity
  8
001
100
AcDbLine
 10
310.0
 20
414.640311
 30
0.0
 11
280.0
 21
414.640311
 31
0.0
  0
ARC
  5
322
100
AcDbEntity
  8
001
100
AcDbCircle
 10
280.0
 20
411.640311
 30
0.0
 40
3.0
100
AcDbArc
 50
90.0
 51
180.0
  0
ARC
  5
323
100
AcDbEntity
  8
001
100
AcDbCircle
 10
310.0
 20
411.640311
 30
0.0
 40
3.0
100
AcDbArc
 50
0.0
 51
90.0
  0
ARC
  5
324
100
AcDbEntity
  8
001
100
AcDbCircle
 10
287.0
 20
404.180052
 30
0.0
 40
3.0
100
AcDbArc
 50
90.0
 51
180.0
  0
ARC
  5
325
100
AcDbEntity
  8
001
100
AcDbCircle
 10
303.0
 20
404.180052
 30
0.0
 40
3.0
100
AcDbArc
 50
0.0
 51
90.0
  0
LINE
  5
326
100
AcDbEntity
  8
001
100
AcDbLine
 10
266.0
 20
390.245044
 30
0.0
 11
274.0
 21
390.245044
 31
0.0
  0
LINE
  5
327
100
AcDbEntity
  8
001
100
AcDbLine
 10
279.0
 20
383.245044
 30
0.0
 11
271.0
 21
383.245044
 31
0.0
  0
ARC
  5
328
100
AcDbEntity
  8
001
100
AcDbCircle
 10
274.0
 20
393.245044
 30
0.0
 40
3.0
100
AcDbArc
 50
270.0
 51
0.0
  0
ARC
  5
329
100
AcDbEntity
  8
001
100
AcDbCircle
 10
266.0
 20
391.784315
 30
0.0
 40
5.0
100
AcDbArc
 50
106.534838
 51
180.0
  0
ARC
  5
32A
100
AcDbEntity
  8
001
100
AcDbCircle
 10
271.0
 20
378.245044
 30
0.0
 40
5.0
100
AcDbArc
 50
90.0
 51
180.0
  0
ARC
  5
32B
100
AcDbEntity
  8
001
100
AcDbCircle
 10
279.0
 20
388.245044
 30
0.0
 40
5.0
100
AcDbArc
 50
270.0
 51
0.0
  0
LINE
  5
32C
100
AcDbEntity
  8
001
100
AcDbLine
 10
264.0
 20
360.5
 30
0.0
 11
310.0
 21
360.5
 31
0.0
  0
LINE
  5
32D
100
AcDbEntity
  8
001
100
AcDbLine
 10
264.0
 20
313.5
 30
0.0
 11
310.0
 21
313.5
 31
0.0
  0
LINE
  5
32E
100
AcDbEntity
  8
001
100
AcDbLine
 10
313.0
 20
316.5
 30
0.0
 11
313.0
 21
357.5
 31
0.0
  0
ARC
  5
32F
100
AcDbEntity
  8
001
100
AcDbCircle
 10
280.0
 20
357.5
 30
0.0
 40
3.0
100
AcDbArc
 50
90.0
 51
180.0
  0
ARC
  5
330
100
AcDbEntity
  8
001
100
AcDbCircle
 10
310.0
 20
357.5
 30
0.0
 40
3.0
100
AcDbArc
 50
0.0
 51
90.0
  0
ARC
  5
331
100
AcDbEntity
  8
001
100
AcDbCircle
 10
280.0
 20
316.5
 30
0.0
 40
3.0
100
AcDbArc
 50
180.0
 51
270.0
  0
ARC
  5
332
100
AcDbEntity
  8
001
100
AcDbCircle
 10
310.0
 20
316.5
 30
0.0
 40
3.0
100
AcDbArc
 50
270.0
 51
0.0
  0
ARC
  5
333
100
AcDbEntity
  8
001
100
AcDbCircle
 10
269.0
 20
363.5
 30
0.0
 40
3.0
100
AcDbArc
 50
180.0
 51
270.0
  0
LINE
  5
334
100
AcDbEntity
  8
001
100
AcDbLine
 10
266.0
 20
285.231849
 30
0.0
 11
266.0
 21
310.5
 31
0.0
  0
LINE
  5
335
100
AcDbEntity
  8
001
100
AcDbLine
 10
274.0
 20
270.0
 30
0.0
 11
266.0
 21
270.0
 31
0.0
  0
LINE
  5
336
100
AcDbEntity
  8
001
100
AcDbLine
 10
236.146205
 20
278.862845
 30
0.0
 11
266.0
 21
270.0
 31
0.0
  0
LINE
  5
337
100
AcDbEntity
  8
001
100
AcDbLine
 10
277.0
 20
270.231849
 30
0.0
 11
277.0
 21
250.5
 31
0.0
  0
LINE
  5
338
100
AcDbEntity
  8
001
100
AcDbLine
 10
310.0
 20
247.5
 30
0.0
 11
280.0
 21
247.5
 31
0.0
  0
ARC
  5
339
100
AcDbEntity
  8
001
100
AcDbCircle
 10
274.0
 20
267.0
 30
0.0
 40
3.0
100
AcDbArc
 50
0.0
 51
90.0
  0
ARC
  5
33A
100
AcDbEntity
  8
001
100
AcDbCircle
 10
280.0
 20
250.5
 30
0.0
 40
3.0
100
AcDbArc
 50
180.0
 51
270.0
  0
LINE
  5
33B
100
AcDbEntity
  8
001
100
AcDbLine
 10
313.0
 20
266.984735
 30
0.0
 11
313.0
 21
250.5
 31
0.0
  0
ARC
  5
33C
100
AcDbEntity
  8
001
100
AcDbCircle
 10
310.0
 20
250.5
 30
0.0
 40
3.0
100
AcDbArc
 50
270.0
 51
0.0
  0
LINE
  5
33D
100
AcDbEntity
  8
001
100
AcDbLine
 10
284.0
 20
270.984735
 30
0.0
 11
284.0
 21
313.5
 31
0.0
  0
LINE
  5
33E
100
AcDbEntity
  8
001
100
AcDbLine
 10
261.0
 20
310.5
 30
0.0
 11
261.0
 21
275.215685
 31
0.0
  0
ARC
  5
33F
100
AcDbEntity
  8
001
100
AcDbCircle
 10
266.0
 20
275.215685
 30
0.0
 40
5.0
100
AcDbArc
 50
180.0
 51
253.465162
  0
ARC
  5
340
100
AcDbEntity
  8
001
100
AcDbCircle
 10
269.0
 20
310.5
 30
0.0
 40
3.0
100
AcDbArc
 50
90.0
 51
180.0
  0
ARC
  5
341
100
AcDbEntity
  8
001
100
AcDbCircle
 10
264.0
 20
310.5
 30
0.0
 40
3.0
100
AcDbArc
 50
90.0
 51
180.0
  0
LINE
  5
342
100
AcDbEntity
  8
001
100
AcDbLine
 10
278.236738
 20
337.5
 30
0.0
 11
237.0
 21
337.5
 31
0.0
  0
LINE
  5
343
100
AcDbEntity
  8
001
100
AcDbLine
 10
278.236738
 20
329.5
 30
0.0
 11
237.0
 21
329.5
 31
0.0
  0
ARC
  5
344
100
AcDbEntity
  8
001
100
AcDbCircle
 10
237.0
 20
385.261214
 30
0.0
 40
3.0
100
AcDbArc
 50
106.534838
 51
180.0
  0
ARC
  5
345
100
AcDbEntity
  8
001
100
AcDbCircle
 10
237.0
 20
281.738786
 30
0.0
 40
3.0
100
AcDbArc
 50
180.0
 51
253.465162
  0
LINE
  5
346
100
AcDbEntity
  8
001
100
AcDbLine
 10
235.236738
 20
387.688333
 30
0.0
 11
278.236738
 21
418.927119
 31
0.0
  0
LINE
  5
347
100
AcDbEntity
  8
001
100
AcDbLine
 10
235.236738
 20
279.311667
 30
0.0
 11
278.236738
 21
248.072881
 31
0.0
  0
ARC
  5
348
100
AcDbEntity
  8
001
100
AcDbCircle
 10
237.0
 20
340.5
 30
0.0
 40
3.0
100
AcDbArc
 50
180.0
 51
270.0
  0
ARC
  5
349
100
AcDbEntity
  8
001
100
AcDbCircle
 10
237.0
 20
326.5
 30
0.0
 40
3.0
100
AcDbArc
 50
90.0
 51
180.0
  0
ARC
  5
34A
100
AcDbEntity
  8
001
100
AcDbCircle
 10
274.0
 20
340.5
 30
0.0
 40
3.0
100
AcDbArc
 50
270.0
 51
0.0
  0
ARC
  5
34B
100
AcDbEntity
  8
001
100
AcDbCircle
 10
274.0
 20
326.5
 30
0.0
 40
3.0
100
AcDbArc
 50
0.0
 51
90.0
  0
LINE
  5
34C
100
AcDbEntity
  8
001
100
AcDbLine
 10
277.0
 20
316.5
 30
0.0
 11
277.0
 21
326.5
 31
0.0
  0
LINE
  5
34D
100
AcDbEntity
  8
001
100
AcDbLine
 10
277.0
 20
340.5
 30
0.0
 11
277.0
 21
357.5
 31
0.0
  0
LINE
  5
34E
100
AcDbEntity
  8
001
100
AcDbLine
 10
261.0
 20
326.5
 30
0.0
 11
261.0
 21
315.696152
 31
0.0
  0
ARC
  5
34F
100
AcDbEntity
  8
001
100
AcDbCircle
 10
258.0
 20
340.5
 30
0.0
 40
3.0
100
AcDbArc
 50
270.0
 51
0.0
  0
ARC
  5
350
100
AcDbEntity
  8
001
100
AcDbCircle
 10
258.0
 20
326.5
 30
0.0
 40
3.0
100
AcDbArc
 50
0.0
 51
90.0
  0
LINE
  5
351
100
AcDbEntity
  8
001
100
AcDbLine
 10
727.0
 20
285.231849
 30
0.0
 11
727.0
 21
303.5
 31
0.0
  0
LINE
  5
352
100
AcDbEntity
  8
001
100
AcDbLine
 10
719.0
 20
270.0
 30
0.0
 11
727.0
 21
270.0
 31
0.0
  0
LINE
  5
353
100
AcDbEntity
  8
001
100
AcDbLine
 10
756.853795
 20
278.862845
 30
0.0
 11
727.0
 21
270.0
 31
0.0
  0
LINE
  5
354
100
AcDbEntity
  8
001
100
AcDbLine
 10
716.0
 20
270.231849
 30
0.0
 11
716.0
 21
250.5
 31
0.0
  0
LINE
  5
355
100
AcDbEntity
  8
001
100
AcDbLine
 10
683.0
 20
247.5
 30
0.0
 11
713.0
 21
247.5
 31
0.0
  0
ARC
  5
356
100
AcDbEntity
  8
001
100
AcDbCircle
 10
719.0
 20
267.0
 30
0.0
 40
3.0
100
AcDbArc
 50
90.0
 51
180.0
  0
ARC
  5
357
100
AcDbEntity
  8
001
100
AcDbCircle
 10
713.0
 20
250.5
 30
0.0
 40
3.0
100
AcDbArc
 50
270.0
 51
0.0
  0
LINE
  5
358
100
AcDbEntity
  8
001
100
AcDbLine
 10
680.0
 20
266.984735
 30
0.0
 11
680.0
 21
250.5
 31
0.0
  0
ARC
  5
359
100
AcDbEntity
  8
001
100
AcDbCircle
 10
683.0
 20
250.5
 30
0.0
 40
3.0
100
AcDbArc
 50
180.0
 51
270.0
  0
LINE
  5
35A
100
AcDbEntity
  8
001
100
AcDbLine
 10
687.0
 20
266.984735
 30
0.0
 11
687.0
 21
260.073565
 31
0.0
  0
LINE
  5
35B
100
AcDbEntity
  8
001
100
AcDbLine
 10
709.0
 20
260.073565
 30
0.0
 11
709.0
 21
306.5
 31
0.0
  0
LINE
  5
35C
100
AcDbEntity
  8
001
100
AcDbLine
 10
732.0
 20
303.5
 30
0.0
 11
732.0
 21
275.215685
 31
0.0
  0
ARC
  5
35D
100
AcDbEntity
  8
001
100
AcDbCircle
 10
727.0
 20
275.215685
 30
0.0
 40
5.0
100
AcDbArc
 50
286.534838
 51
0.0
  0
LINE
  5
35E
100
AcDbEntity
  8
001
100
AcDbLine
 10
729.0
 20
306.5
 30
0.0
 11
683.0
 21
306.5
 31
0.0
  0
LINE
  5
35F
100
AcDbEntity
  8
001
100
AcDbLine
 10
729.0
 20
353.5
 30
0.0
 11
683.0
 21
353.5
 31
0.0
  0
LINE
  5
360
100
AcDbEntity
  8
001
100
AcDbLine
 10
680.0
 20
350.5
 30
0.0
 11
680.0
 21
309.5
 31
0.0
  0
ARC
  5
361
100
AcDbEntity
  8
001
100
AcDbCircle
 10
713.0
 20
309.5
 30
0.0
 40
3.0
100
AcDbArc
 50
270.0
 51
0.0
  0
ARC
  5
362
100
AcDbEntity
  8
001
100
AcDbCircle
 10
683.0
 20
309.5
 30
0.0
 40
3.0
100
AcDbArc
 50
180.0
 51
270.0
  0
ARC
  5
363
100
AcDbEntity
  8
001
100
AcDbCircle
 10
713.0
 20
350.5
 30
0.0
 40
3.0
100
AcDbArc
 50
0.0
 51
90.0
  0
ARC
  5
364
100
AcDbEntity
  8
001
100
AcDbCircle
 10
683.0
 20
350.5
 30
0.0
 40
3.0
100
AcDbArc
 50
90.0
 51
180.0
  0
ARC
  5
365
100
AcDbEntity
  8
001
100
AcDbCircle
 10
724.0
 20
303.5
 30
0.0
 40
3.0
100
AcDbArc
 50
0.0
 51
90.0
  0
ARC
  5
366
100
AcDbEntity
  8
001
100
AcDbCircle
 10
729.0
 20
303.5
 30
0.0
 40
3.0
100
AcDbArc
 50
0.0
 51
90.0
  0
LINE
  5
367
100
AcDbEntity
  8
001
100
AcDbLine
 10
727.0
 20
356.5
 30
0.0
 11
727.0
 21
378.245044
 31
0.0
  0
LINE
  5
368
100
AcDbEntity
  8
001
100
AcDbLine
 10
719.0
 20
397.0
 30
0.0
 11
727.0
 21
397.0
 31
0.0
  0
LINE
  5
369
100
AcDbEntity
  8
001
100
AcDbLine
 10
756.853795
 20
388.137155
 30
0.0
 11
727.0
 21
397.0
 31
0.0
  0
LINE
  5
36A
100
AcDbEntity
  8
001
100
AcDbLine
 10
716.0
 20
393.245044
 30
0.0
 11
716.0
 21
416.5
 31
0.0
  0
LINE
  5
36B
100
AcDbEntity
  8
001
100
AcDbLine
 10
683.0
 20
419.5
 30
0.0
 11
713.0
 21
419.5
 31
0.0
  0
ARC
  5
36C
100
AcDbEntity
  8
001
100
AcDbCircle
 10
719.0
 20
400.0
 30
0.0
 40
3.0
100
AcDbArc
 50
180.0
 51
270.0
  0
ARC
  5
36D
100
AcDbEntity
  8
001
100
AcDbCircle
 10
713.0
 20
416.5
 30
0.0
 40
3.0
100
AcDbArc
 50
0.0
 51
90.0
  0
LINE
  5
36E
100
AcDbEntity
  8
001
100
AcDbLine
 10
680.0
 20
396.789646
 30
0.0
 11
680.0
 21
416.5
 31
0.0
  0
ARC
  5
36F
100
AcDbEntity
  8
001
100
AcDbCircle
 10
683.0
 20
416.5
 30
0.0
 40
3.0
100
AcDbArc
 50
90.0
 51
180.0
  0
LINE
  5
370
100
AcDbEntity
  8
001
100
AcDbLine
 10
706.0
 20
395.789646
 30
0.0
 11
681.0
 21
395.789646
 31
0.0
  0
ARC
  5
371
100
AcDbEntity
  8
001
100
AcDbCircle
 10
681.0
 20
396.789646
 30
0.0
 40
1.0
100
AcDbArc
 50
180.0
 51
270.0
  0
LINE
  5
372
100
AcDbEntity
  8
001
100
AcDbLine
 10
709.0
 20
392.789646
 30
0.0
 11
709.0
 21
353.5
 31
0.0
  0
LINE
  5
373
100
AcDbEntity
  8
001
100
AcDbLine
 10
683.0
 20
414.640311
 30
0.0
 11
713.0
 21
414.640311
 31
0.0
  0
ARC
  5
374
100
AcDbEntity
  8
001
100
AcDbCircle
 10
713.0
 20
411.640311
 30
0.0
 40
3.0
100
AcDbArc
 50
0.0
 51
90.0
  0
ARC
  5
375
100
AcDbEntity
  8
001
100
AcDbCircle
 10
683.0
 20
411.640311
 30
0.0
 40
3.0
100
AcDbArc
 50
90.0
 51
180.0
  0
LINE
  5
376
100
AcDbEntity
  8
001
100
AcDbLine
 10
727.0
 20
390.245044
 30
0.0
 11
719.0
 21
390.245044
 31
0.0
  0
LINE
  5
377
100
AcDbEntity
  8
001
100
AcDbLine
 10
714.0
 20
383.245044
 30
0.0
 11
722.0
 21
383.245044
 31
0.0
  0
ARC
  5
378
100
AcDbEntity
  8
001
100
AcDbCircle
 10
719.0
 20
393.245044
 30
0.0
 40
3.0
100
AcDbArc
 50
180.0
 51
270.0
  0
LINE
  5
379
100
AcDbEntity
  8
001
100
AcDbLine
 10
732.0
 20
356.5
 30
0.0
 11
732.0
 21
391.784315
 31
0.0
  0
ARC
  5
37A
100
AcDbEntity
  8
001
100
AcDbCircle
 10
727.0
 20
391.784315
 30
0.0
 40
5.0
100
AcDbArc
 50
0.0
 51
73.465162
  0
ARC
  5
37B
100
AcDbEntity
  8
001
100
AcDbCircle
 10
727.0
 20
385.245044
 30
0.0
 40
5.0
100
AcDbArc
 50
0.0
 51
90.0
  0
ARC
  5
37C
100
AcDbEntity
  8
001
100
AcDbCircle
 10
722.0
 20
378.245044
 30
0.0
 40
5.0
100
AcDbArc
 50
0.0
 51
90.0
  0
ARC
  5
37D
100
AcDbEntity
  8
001
100
AcDbCircle
 10
714.0
 20
388.245044
 30
0.0
 40
5.0
100
AcDbArc
 50
180.0
 51
270.0
  0
ARC
  5
37E
100
AcDbEntity
  8
001
100
AcDbCircle
 10
706.0
 20
392.789646
 30
0.0
 40
3.0
100
AcDbArc
 50
0.0
 51
90.0
  0
ARC
  5
37F
100
AcDbEntity
  8
001
100
AcDbCircle
 10
724.0
 20
356.5
 30
0.0
 40
3.0
100
AcDbArc
 50
270.0
 51
0.0
  0
ARC
  5
380
100
AcDbEntity
  8
001
100
AcDbCircle
 10
729.0
 20
356.5
 30
0.0
 40
3.0
100
AcDbArc
 50
270.0
 51
0.0
  0
LINE
  5
381
100
AcDbEntity
  8
001
100
AcDbLine
 10
714.763262
 20
329.5
 30
0.0
 11
756.0
 21
329.5
 31
0.0
  0
LINE
  5
382
100
AcDbEntity
  8
001
100
AcDbLine
 10
714.763262
 20
337.5
 30
0.0
 11
756.0
 21
337.5
 31
0.0
  0
ARC
  5
383
100
AcDbEntity
  8
001
100
AcDbCircle
 10
756.0
 20
281.738786
 30
0.0
 40
3.0
100
AcDbArc
 50
286.534838
 51
0.0
  0
ARC
  5
384
100
AcDbEntity
  8
001
100
AcDbCircle
 10
756.0
 20
385.261214
 30
0.0
 40
3.0
100
AcDbArc
 50
0.0
 51
73.465162
  0
LINE
  5
385
100
AcDbEntity
  8
001
100
AcDbLine
 10
757.763262
 20
279.311667
 30
0.0
 11
714.763262
 21
248.072881
 31
0.0
  0
LINE
  5
386
100
AcDbEntity
  8
001
100
AcDbLine
 10
757.763262
 20
387.688333
 30
0.0
 11
714.763262
 21
418.927119
 31
0.0
  0
ARC
  5
387
100
AcDbEntity
  8
001
100
AcDbCircle
 10
756.0
 20
326.5
 30
0.0
 40
3.0
100
AcDbArc
 50
0.0
 51
90.0
  0
ARC
  5
388
100
AcDbEntity
  8
001
100
AcDbCircle
 10
756.0
 20
340.5
 30
0.0
 40
3.0
100
AcDbArc
 50
270.0
 51
0.0
  0
ARC
  5
389
100
AcDbEntity
  8
001
100
AcDbCircle
 10
719.0
 20
326.5
 30
0.0
 40
3.0
100
AcDbArc
 50
90.0
 51
180.0
  0
ARC
  5
38A
100
AcDbEntity
  8
001
100
AcDbCircle
 10
719.0
 20
340.5
 30
0.0
 40
3.0
100
AcDbArc
 50
180.0
 51
270.0
  0
LINE
  5
38B
100
AcDbEntity
  8
001
100
AcDbLine
 10
716.0
 20
350.5
 30
0.0
 11
716.0
 21
340.5
 31
0.0
  0
LINE
  5
38C
100
AcDbEntity
  8
001
100
AcDbLine
 10
716.0
 20
326.5
 30
0.0
 11
716.0
 21
309.5
 31
0.0
  0
LINE
  5
38D
100
AcDbEntity
  8
001
100
AcDbLine
 10
732.0
 20
326.5
 30
0.0
 11
732.0
 21
308.696152
 31
0.0
  0
LINE
  5
38E
100
AcDbEntity
  8
001
100
AcDbLine
 10
732.0
 20
340.5
 30
0.0
 11
732.0
 21
351.303848
 31
0.0
  0
ARC
  5
38F
100
AcDbEntity
  8
001
100
AcDbCircle
 10
735.0
 20
326.5
 30
0.0
 40
3.0
100
AcDbArc
 50
90.0
 51
180.0
  0
ARC
  5
390
100
AcDbEntity
  8
001
100
AcDbCircle
 10
735.0
 20
340.5
 30
0.0
 40
3.0
100
AcDbArc
 50
180.0
 51
270.0
  0
LINE
  5
391
100
AcDbEntity
  8
001
100
AcDbLine
 10
671.0
 20
402.937473
 30
0.0
 11
671.0
 21
407.937473
 31
0.0
  0
LINE
  5
392
100
AcDbEntity
  8
001
100
AcDbLine
 10
671.0
 20
407.937473
 30
0.0
 11
680.0
 21
407.937473
 31
0.0
  0
LINE
  5
393
100
AcDbEntity
  8
001
100
AcDbLine
 10
671.0
 20
402.937473
 30
0.0
 11
680.0
 21
402.937473
 31
0.0
  0
LINE
  5
394
100
AcDbEntity
  8
001
100
AcDbLine
 10
322.0
 20
402.937473
 30
0.0
 11
322.0
 21
407.937473
 31
0.0
  0
LINE
  5
395
100
AcDbEntity
  8
001
100
AcDbLine
 10
275.0
 20
410.437473
 30
0.0
 11
277.0
 21
410.437473
 31
0.0
  0
LINE
  5
396
100
AcDbEntity
  8
001
100
AcDbLine
 10
275.0
 20
400.437473
 30
0.0
 11
277.0
 21
400.437473
 31
0.0
  0
LINE
  5
397
100
AcDbEntity
  8
001
100
AcDbLine
 10
275.0
 20
400.437473
 30
0.0
 11
275.0
 21
410.437473
 31
0.0
  0
LINE
  5
398
100
AcDbEntity
  8
001
100
AcDbLine
 10
322.0
 20
402.937473
 30
0.0
 11
313.0
 21
402.937473
 31
0.0
  0
LINE
  5
399
100
AcDbEntity
  8
001
100
AcDbLine
 10
306.0
 20
402.937473
 30
0.0
 11
284.0
 21
402.937473
 31
0.0
  0
LINE
  5
39A
100
AcDbEntity
  8
001
100
AcDbLine
 10
322.0
 20
407.937473
 30
0.0
 11
313.0
 21
407.937473
 31
0.0
  0
LINE
  5
39B
100
AcDbEntity
  8
001
  6
CENTER
100
AcDbLine
 10
721.0
 20
405.437473
 30
0.0
 11
666.0
 21
405.437473
 31
0.0
  0
LINE
  5
39C
100
AcDbEntity
  8
001
  6
CENTER
100
AcDbLine
 10
270.0
 20
405.437473
 30
0.0
 11
327.0
 21
405.437473
 31
0.0
  0
POLYLINE
  5
39D
100
AcDbEntity
  8
001
100
AcDb2dPolyline
 66
     1
 10
0.0
 20
0.0
 30
0.0
  0
VERTEX
  5
39E
100
AcDbEntity
  8
001
100
AcDbVertex
100
AcDb2dVertex
 10
252.069197
 20
360.909121
 30
0.0
  0
VERTEX
  5
39F
100
AcDbEntity
  8
001
100
AcDbVertex
100
AcDb2dVertex
 10
252.821161
 20
360.947081
 30
0.0
  0
VERTEX
  5
3A0
100
AcDbEntity
  8
001
100
AcDbVertex
100
AcDb2dVertex
 10
253.567402
 20
361.060672
 30
0.0
  0
VERTEX
  5
3A1
100
AcDbEntity
  8
001
100
AcDbVertex
100
AcDb2dVertex
 10
254.302241
 20
361.24903
 30
0.0
  0
VERTEX
  5
3A2
100
AcDbEntity
  8
001
100
AcDbVertex
100
AcDb2dVertex
 10
255.020085
 20
361.51072
 30
0.0
  0
VERTEX
  5
3A3
100
AcDbEntity
  8
001
100
AcDbVertex
100
AcDb2dVertex
 10
255.715472
 20
361.843752
 30
0.0
  0
VERTEX
  5
3A4
100
AcDbEntity
  8
001
100
AcDbVertex
100
AcDb2dVertex
 10
256.383107
 20
362.245591
 30
0.0
  0
VERTEX
  5
3A5
100
AcDbEntity
  8
001
100
AcDbVertex
100
AcDb2dVertex
 10
257.017912
 20
362.713178
 30
0.0
  0
VERTEX
  5
3A6
100
AcDbEntity
  8
001
100
AcDbVertex
100
AcDb2dVertex
 10
257.615054
 20
363.242955
 30
0.0
  0
VERTEX
  5
3A7
100
AcDbEntity
  8
001
100
AcDbVertex
100
AcDb2dVertex
 10
258.169988
 20
363.83089
 30
0.0
  0
VERTEX
  5
3A8
100
AcDbEntity
  8
001
100
AcDbVertex
100
AcDb2dVertex
 10
258.678492
 20
364.472509
 30
0.0
  0
VERTEX
  5
3A9
100
AcDbEntity
  8
001
100
AcDbVertex
100
AcDb2dVertex
 10
259.136694
 20
365.162927
 30
0.0
  0
VERTEX
  5
3AA
100
AcDbEntity
  8
001
100
AcDbVertex
100
AcDb2dVertex
 10
259.541109
 20
365.896892
 30
0.0
  0
VERTEX
  5
3AB
100
AcDbEntity
  8
001
100
AcDbVertex
100
AcDb2dVertex
 10
259.888659
 20
366.668817
 30
0.0
  0
VERTEX
  5
3AC
100
AcDbEntity
  8
001
100
AcDbVertex
100
AcDb2dVertex
 10
260.176697
 20
367.472827
 30
0.0
  0
VERTEX
  5
3AD
100
AcDbEntity
  8
001
100
AcDbVertex
100
AcDb2dVertex
 10
260.403032
 20
368.302803
 30
0.0
  0
VERTEX
  5
3AE
100
AcDbEntity
  8
001
100
AcDbVertex
100
AcDb2dVertex
 10
260.565942
 20
369.152429
 30
0.0
  0
VERTEX
  5
3AF
100
AcDbEntity
  8
001
100
AcDbVertex
100
AcDb2dVertex
 10
260.664187
 20
370.015238
 30
0.0
  0
VERTEX
  5
3B0
100
AcDbEntity
  8
001
100
AcDbVertex
100
AcDb2dVertex
 10
260.697018
 20
370.884663
 30
0.0
  0
SEQEND
  5
3B1
100
AcDbEntity
  8
001
  0
LINE
  5
3B2
100
AcDbEntity
  8
001
100
AcDbLine
 10
242.872178
 20
380.576635
 30
0.0
 11
242.872178
 21
368.597756
 31
0.0
  0
LINE
  5
3B3
100
AcDbEntity
  8
001
100
AcDbLine
 10
260.127822
 20
384.236945
 30
0.0
 11
260.127822
 21
372.251612
 31
0.0
  0
POLYLINE
  5
3B4
100
AcDbEntity
  8
001
100
AcDb2dPolyline
 66
     1
 10
0.0
 20
0.0
 30
0.0
  0
VERTEX
  5
3B5
100
AcDbEntity
  8
001
100
AcDbVertex
100
AcDb2dVertex
 10
251.5
 20
387.925415
 30
0.0
  0
VERTEX
  5
3B6
100
AcDbEntity
  8
001
100
AcDbVertex
100
AcDb2dVertex
 10
250.748036
 20
387.897451
 30
0.0
  0
VERTEX
  5
3B7
100
AcDbEntity
  8
001
100
AcDbVertex
100
AcDb2dVertex
 10
250.001794
 20
387.813771
 30
0.0
  0
VERTEX
  5
3B8
100
AcDbEntity
  8
001
100
AcDbVertex
100
AcDb2dVertex
 10
249.266955
 20
387.675012
 30
0.0
  0
VERTEX
  5
3B9
100
AcDbEntity
  8
001
100
AcDbVertex
100
AcDb2dVertex
 10
248.549111
 20
387.48223
 30
0.0
  0
VERTEX
  5
3BA
100
AcDbEntity
  8
001
100
AcDbVertex
100
AcDb2dVertex
 10
247.853725
 20
387.236892
 30
0.0
  0
VERTEX
  5
3BB
100
AcDbEntity
  8
001
100
AcDbVertex
100
AcDb2dVertex
 10
247.186089
 20
386.940866
 30
0.0
  0
VERTEX
  5
3BC
100
AcDbEntity
  8
001
100
AcDbVertex
100
AcDb2dVertex
 10
246.551285
 20
386.596404
 30
0.0
  0
VERTEX
  5
3BD
100
AcDbEntity
  8
001
100
AcDbVertex
100
AcDb2dVertex
 10
245.954143
 20
386.206128
 30
0.0
  0
VERTEX
  5
3BE
100
AcDbEntity
  8
001
100
AcDbVertex
100
AcDb2dVertex
 10
245.399209
 20
385.773008
 30
0.0
  0
VERTEX
  5
3BF
100
AcDbEntity
  8
001
100
AcDbVertex
100
AcDb2dVertex
 10
244.890705
 20
385.30034
 30
0.0
  0
VERTEX
  5
3C0
100
AcDbEntity
  8
001
100
AcDbVertex
100
AcDb2dVertex
 10
244.432502
 20
384.791722
 30
0.0
  0
VERTEX
  5
3C1
100
AcDbEntity
  8
001
100
AcDbVertex
100
AcDb2dVertex
 10
244.028087
 20
384.251025
 30
0.0
  0
VERTEX
  5
3C2
100
AcDbEntity
  8
001
100
AcDbVertex
100
AcDb2dVertex
 10
243.680538
 20
383.682364
 30
0.0
  0
VERTEX
  5
3C3
100
AcDbEntity
  8
001
100
AcDbVertex
100
AcDb2dVertex
 10
243.3925
 20
383.090066
 30
0.0
  0
VERTEX
  5
3C4
100
AcDbEntity
  8
001
100
AcDbVertex
100
AcDb2dVertex
 10
243.166164
 20
382.47864
 30
0.0
  0
VERTEX
  5
3C5
100
AcDbEntity
  8
001
100
AcDbVertex
100
AcDb2dVertex
 10
243.003254
 20
381.852738
 30
0.0
  0
VERTEX
  5
3C6
100
AcDbEntity
  8
001
100
AcDbVertex
100
AcDb2dVertex
 10
242.90501
 20
381.217124
 30
0.0
  0
VERTEX
  5
3C7
100
AcDbEntity
  8
001
100
AcDbVertex
100
AcDb2dVertex
 10
242.872178
 20
380.576635
 30
0.0
  0
SEQEND
  5
3C8
100
AcDbEntity
  8
001
  0
POLYLINE
  5
3C9
100
AcDbEntity
  8
001
100
AcDb2dPolyline
 66
     1
 10
0.0
 20
0.0
 30
0.0
  0
VERTEX
  5
3CA
100
AcDbEntity
  8
001
100
AcDbVertex
100
AcDb2dVertex
 10
251.5
 20
362.308857
 30
0.0
  0
VERTEX
  5
3CB
100
AcDbEntity
  8
001
100
AcDbVertex
100
AcDb2dVertex
 10
252.251964
 20
362.346692
 30
0.0
  0
VERTEX
  5
3CC
100
AcDbEntity
  8
001
100
AcDbVertex
100
AcDb2dVertex
 10
252.998206
 20
362.45991
 30
0.0
  0
VERTEX
  5
3CD
100
AcDbEntity
  8
001
100
AcDbVertex
100
AcDb2dVertex
 10
253.733045
 20
362.647648
 30
0.0
  0
VERTEX
  5
3CE
100
AcDbEntity
  8
001
100
AcDbVertex
100
AcDb2dVertex
 10
254.450889
 20
362.908479
 30
0.0
  0
VERTEX
  5
3CF
100
AcDbEntity
  8
001
100
AcDbVertex
100
AcDb2dVertex
 10
255.146275
 20
363.240416
 30
0.0
  0
VERTEX
  5
3D0
100
AcDbEntity
  8
001
100
AcDbVertex
100
AcDb2dVertex
 10
255.813911
 20
363.640934
 30
0.0
  0
VERTEX
  5
3D1
100
AcDbEntity
  8
001
100
AcDbVertex
100
AcDb2dVertex
 10
256.448715
 20
364.106984
 30
0.0
  0
VERTEX
  5
3D2
100
AcDbEntity
  8
001
100
AcDbVertex
100
AcDb2dVertex
 10
257.045857
 20
364.63502
 30
0.0
  0
VERTEX
  5
3D3
100
AcDbEntity
  8
001
100
AcDbVertex
100
AcDb2dVertex
 10
257.600791
 20
365.221022
 30
0.0
  0
VERTEX
  5
3D4
100
AcDbEntity
  8
001
100
AcDbVertex
100
AcDb2dVertex
 10
258.109295
 20
365.860532
 30
0.0
  0
VERTEX
  5
3D5
100
AcDbEntity
  8
001
100
AcDbVertex
100
AcDb2dVertex
 10
258.567498
 20
366.548682
 30
0.0
  0
VERTEX
  5
3D6
100
AcDbEntity
  8
001
100
AcDbVertex
100
AcDb2dVertex
 10
258.971913
 20
367.280234
 30
0.0
  0
VERTEX
  5
3D7
100
AcDbEntity
  8
001
100
AcDbVertex
100
AcDb2dVertex
 10
259.319462
 20
368.049622
 30
0.0
  0
VERTEX
  5
3D8
100
AcDbEntity
  8
001
100
AcDbVertex
100
AcDb2dVertex
 10
259.6075
 20
368.850989
 30
0.0
  0
VERTEX
  5
3D9
100
AcDbEntity
  8
001
100
AcDbVertex
100
AcDb2dVertex
 10
259.833836
 20
369.678237
 30
0.0
  0
VERTEX
  5
3DA
100
AcDbEntity
  8
001
100
AcDbVertex
100
AcDb2dVertex
 10
259.996746
 20
370.52507
 30
0.0
  0
VERTEX
  5
3DB
100
AcDbEntity
  8
001
100
AcDbVertex
100
AcDb2dVertex
 10
260.09499
 20
371.385043
 30
0.0
  0
VERTEX
  5
3DC
100
AcDbEntity
  8
001
100
AcDbVertex
100
AcDb2dVertex
 10
260.127822
 20
372.251612
 30
0.0
  0
SEQEND
  5
3DD
100
AcDbEntity
  8
001
  0
POLYLINE
  5
3DE
100
AcDbEntity
  8
001
100
AcDb2dPolyline
 66
     1
 10
0.0
 20
0.0
 30
0.0
  0
VERTEX
  5
3DF
100
AcDbEntity
  8
001
100
AcDbVertex
100
AcDb2dVertex
 10
260.127822
 20
384.236945
 30
0.0
  0
VERTEX
  5
3E0
100
AcDbEntity
  8
001
100
AcDbVertex
100
AcDb2dVertex
 10
260.09499
 20
384.558416
 30
0.0
  0
VERTEX
  5
3E1
100
AcDbEntity
  8
001
100
AcDbVertex
100
AcDb2dVertex
 10
259.996746
 20
384.877441
 30
0.0
  0
VERTEX
  5
3E2
100
AcDbEntity
  8
001
100
AcDbVertex
100
AcDb2dVertex
 10
259.833836
 20
385.191591
 30
0.0
  0
VERTEX
  5
3E3
100
AcDbEntity
  8
001
100
AcDbVertex
100
AcDb2dVertex
 10
259.6075
 20
385.498476
 30
0.0
  0
VERTEX
  5
3E4
100
AcDbEntity
  8
001
100
AcDbVertex
100
AcDb2dVertex
 10
259.319462
 20
385.79576
 30
0.0
  0
VERTEX
  5
3E5
100
AcDbEntity
  8
001
100
AcDbVertex
100
AcDb2dVertex
 10
258.971913
 20
386.08118
 30
0.0
  0
VERTEX
  5
3E6
100
AcDbEntity
  8
001
100
AcDbVertex
100
AcDb2dVertex
 10
258.567498
 20
386.352565
 30
0.0
  0
VERTEX
  5
3E7
100
AcDbEntity
  8
001
100
AcDbVertex
100
AcDb2dVertex
 10
258.109295
 20
386.607848
 30
0.0
  0
VERTEX
  5
3E8
100
AcDbEntity
  8
001
100
AcDbVertex
100
AcDb2dVertex
 10
257.600791
 20
386.845087
 30
0.0
  0
VERTEX
  5
3E9
100
AcDbEntity
  8
001
100
AcDbVertex
100
AcDb2dVertex
 10
257.045857
 20
387.062477
 30
0.0
  0
VERTEX
  5
3EA
100
AcDbEntity
  8
001
100
AcDbVertex
100
AcDb2dVertex
 10
256.448715
 20
387.258363
 30
0.0
  0
VERTEX
  5
3EB
100
AcDbEntity
  8
001
100
AcDbVertex
100
AcDb2dVertex
 10
255.813911
 20
387.431254
 30
0.0
  0
VERTEX
  5
3EC
100
AcDbEntity
  8
001
100
AcDbVertex
100
AcDb2dVertex
 10
255.146275
 20
387.579834
 30
0.0
  0
VERTEX
  5
3ED
100
AcDbEntity
  8
001
100
AcDbVertex
100
AcDb2dVertex
 10
254.450889
 20
387.702973
 30
0.0
  0
VERTEX
  5
3EE
100
AcDbEntity
  8
001
100
AcDbVertex
100
AcDb2dVertex
 10
253.733045
 20
387.799734
 30
0.0
  0
VERTEX
  5
3EF
100
AcDbEntity
  8
001
100
AcDbVertex
100
AcDb2dVertex
 10
252.998206
 20
387.869379
 30
0.0
  0
VERTEX
  5
3F0
100
AcDbEntity
  8
001
100
AcDbVertex
100
AcDb2dVertex
 10
252.251964
 20
387.91138
 30
0.0
  0
VERTEX
  5
3F1
100
AcDbEntity
  8
001
100
AcDbVertex
100
AcDb2dVertex
 10
251.5
 20
387.925415
 30
0.0
  0
SEQEND
  5
3F2
100
AcDbEntity
  8
001
  0
LINE
  5
3F3
100
AcDbEntity
  8
001
100
AcDbLine
 10
259.996374
 20
384.878343
 30
0.0
 11
260.569118
 21
383.491723
 31
0.0
  0
POLYLINE
  5
3F4
100
AcDbEntity
  8
001
100
AcDb2dPolyline
 66
     1
 10
0.0
 20
0.0
 30
0.0
  0
VERTEX
  5
3F5
100
AcDbEntity
  8
001
100
AcDbVertex
100
AcDb2dVertex
 10
242.872178
 20
368.597756
 30
0.0
  0
VERTEX
  5
3F6
100
AcDbEntity
  8
001
100
AcDbVertex
100
AcDb2dVertex
 10
242.90501
 20
368.049643
 30
0.0
  0
VERTEX
  5
3F7
100
AcDbEntity
  8
001
100
AcDbVertex
100
AcDb2dVertex
 10
243.003254
 20
367.505701
 30
0.0
  0
VERTEX
  5
3F8
100
AcDbEntity
  8
001
100
AcDbVertex
100
AcDb2dVertex
 10
243.166164
 20
366.97007
 30
0.0
  0
VERTEX
  5
3F9
100
AcDbEntity
  8
001
100
AcDbVertex
100
AcDb2dVertex
 10
243.3925
 20
366.446826
 30
0.0
  0
VERTEX
  5
3FA
100
AcDbEntity
  8
001
100
AcDbVertex
100
AcDb2dVertex
 10
243.680538
 20
365.939953
 30
0.0
  0
VERTEX
  5
3FB
100
AcDbEntity
  8
001
100
AcDbVertex
100
AcDb2dVertex
 10
244.028087
 20
365.453307
 30
0.0
  0
VERTEX
  5
3FC
100
AcDbEntity
  8
001
100
AcDbVertex
100
AcDb2dVertex
 10
244.432502
 20
364.990592
 30
0.0
  0
VERTEX
  5
3FD
100
AcDbEntity
  8
001
100
AcDbVertex
100
AcDb2dVertex
 10
244.890705
 20
364.55533
 30
0.0
  0
VERTEX
  5
3FE
100
AcDbEntity
  8
001
100
AcDbVertex
100
AcDb2dVertex
 10
245.399209
 20
364.150833
 30
0.0
  0
VERTEX
  5
3FF
100
AcDbEntity
  8
001
100
AcDbVertex
100
AcDb2dVertex
 10
245.954143
 20
363.78018
 30
0.0
  0
VERTEX
  5
400
100
AcDbEntity
  8
001
100
AcDbVertex
100
AcDb2dVertex
 10
246.551285
 20
363.446192
 30
0.0
  0
VERTEX
  5
401
100
AcDbEntity
  8
001
100
AcDbVertex
100
AcDb2dVertex
 10
247.186089
 20
363.15141
 30
0.0
  0
VERTEX
  5
402
100
AcDbEntity
  8
001
100
AcDbVertex
100
AcDb2dVertex
 10
247.853725
 20
362.898078
 30
0.0
  0
VERTEX
  5
403
100
AcDbEntity
  8
001
100
AcDbVertex
100
AcDb2dVertex
 10
248.549111
 20
362.688124
 30
0.0
  0
VERTEX
  5
404
100
AcDbEntity
  8
001
100
AcDbVertex
100
AcDb2dVertex
 10
249.266955
 20
362.523146
 30
0.0
  0
VERTEX
  5
405
100
AcDbEntity
  8
001
100
AcDbVertex
100
AcDb2dVertex
 10
250.001794
 20
362.4044
 30
0.0
  0
VERTEX
  5
406
100
AcDbEntity
  8
001
100
AcDbVertex
100
AcDb2dVertex
 10
250.748036
 20
362.332788
 30
0.0
  0
VERTEX
  5
407
100
AcDbEntity
  8
001
100
AcDbVertex
100
AcDb2dVertex
 10
251.5
 20
362.308857
 30
0.0
  0
SEQEND
  5
408
100
AcDbEntity
  8
001
  0
POLYLINE
  5
409
100
AcDbEntity
  8
001
100
AcDb2dPolyline
 66
     1
 10
0.0
 20
0.0
 30
0.0
  0
VERTEX
  5
40A
100
AcDbEntity
  8
001
100
AcDbVertex
100
AcDb2dVertex
 10
243.811178
 20
365.398464
 30
0.0
  0
VERTEX
  5
40B
100
AcDbEntity
  8
001
100
AcDbVertex
100
AcDb2dVertex
 10
244.073116
 20
364.855114
 30
0.0
  0
VERTEX
  5
40C
100
AcDbEntity
  8
001
100
AcDbVertex
100
AcDb2dVertex
 10
244.401531
 20
364.331499
 30
0.0
  0
VERTEX
  5
40D
100
AcDbEntity
  8
001
100
AcDbVertex
100
AcDb2dVertex
 10
244.793692
 20
363.831972
 30
0.0
  0
VERTEX
  5
40E
100
AcDbEntity
  8
001
100
AcDbVertex
100
AcDb2dVertex
 10
245.246339
 20
363.360685
 30
0.0
  0
VERTEX
  5
40F
100
AcDbEntity
  8
001
100
AcDbVertex
100
AcDb2dVertex
 10
245.75571
 20
362.921557
 30
0.0
  0
VERTEX
  5
410
100
AcDbEntity
  8
001
100
AcDbVertex
100
AcDb2dVertex
 10
246.317568
 20
362.518239
 30
0.0
  0
VERTEX
  5
411
100
AcDbEntity
  8
001
100
AcDbVertex
100
AcDb2dVertex
 10
246.927244
 20
362.154083
 30
0.0
  0
VERTEX
  5
412
100
AcDbEntity
  8
001
100
AcDbVertex
100
AcDb2dVertex
 10
247.579669
 20
361.832117
 30
0.0
  0
VERTEX
  5
413
100
AcDbEntity
  8
001
100
AcDbVertex
100
AcDb2dVertex
 10
248.269418
 20
361.555019
 30
0.0
  0
VERTEX
  5
414
100
AcDbEntity
  8
001
100
AcDbVertex
100
AcDb2dVertex
 10
248.990758
 20
361.32509
 30
0.0
  0
VERTEX
  5
415
100
AcDbEntity
  8
001
100
AcDbVertex
100
AcDb2dVertex
 10
249.73769
 20
361.144244
 30
0.0
  0
VERTEX
  5
416
100
AcDbEntity
  8
001
100
AcDbVertex
100
AcDb2dVertex
 10
250.504006
 20
361.013984
 30
0.0
  0
VERTEX
  5
417
100
AcDbEntity
  8
001
100
AcDbVertex
100
AcDb2dVertex
 10
251.283335
 20
360.935391
 30
0.0
  0
VERTEX
  5
418
100
AcDbEntity
  8
001
100
AcDbVertex
100
AcDb2dVertex
 10
252.069197
 20
360.909121
 30
0.0
  0
SEQEND
  5
419
100
AcDbEntity
  8
001
  0
LINE
  5
41A
100
AcDbEntity
  8
001
100
AcDbLine
 10
243.238608
 20
366.784441
 30
0.0
 11
243.811178
 21
365.398464
 31
0.0
  0
LINE
  5
41B
100
AcDbEntity
  8
001
100
AcDbLine
 10
261.0
 20
363.5
 30
0.0
 11
261.0
 21
391.784315
 31
0.0
  0
ARC
  5
41C
100
AcDbEntity
  8
001
100
AcDbCircle
 10
266.0
 20
385.245044
 30
0.0
 40
5.0
100
AcDbArc
 50
90.0
 51
180.0
  0
ARC
  5
41D
100
AcDbEntity
  8
001
100
AcDbCircle
 10
264.0
 20
363.5
 30
0.0
 40
3.0
100
AcDbArc
 50
180.0
 51
270.0
  0
LINE
  5
41E
100
AcDbEntity
  8
001
100
AcDbLine
 10
261.0
 20
340.5
 30
0.0
 11
261.0
 21
358.303848
 31
0.0
  0
LINE
  5
41F
100
AcDbEntity
  8
001
100
AcDbLine
 10
260.697018
 20
382.867767
 30
0.0
 11
260.697018
 21
370.884663
 31
0.0
  0
POLYLINE
  5
420
100
AcDbEntity
  8
001
100
AcDb2dPolyline
 66
     1
 10
0.0
 20
0.0
 30
0.0
  0
VERTEX
  5
421
100
AcDbEntity
  8
001
100
AcDbVertex
100
AcDb2dVertex
 10
260.697018
 20
382.867767
 30
0.0
  0
VERTEX
  5
422
100
AcDbEntity
  8
001
100
AcDbVertex
100
AcDb2dVertex
 10
260.569118
 20
383.491723
 30
0.0
  0
SEQEND
  5
423
100
AcDbEntity
  8
001
  0
LINE
  5
424
100
AcDbEntity
  8
001
100
AcDbLine
 10
422.355549
 20
840.25437
 30
0.0
 11
418.228561
 21
834.412027
 31
0.0
  0
LINE
  5
425
100
AcDbEntity
  8
001
100
AcDbLine
 10
422.355552
 20
940.4041
 30
0.0
 11
418.228561
 21
946.246431
 31
0.0
  0
ARC
  5
426
100
AcDbEntity
  8
001
100
AcDbCircle
 10
405.97699
 20
937.591995
 30
0.0
 40
15.0
100
AcDbArc
 50
35.237152
 51
94.513948
  0
LINE
  5
427
100
AcDbEntity
  8
001
100
AcDbLine
 10
404.796463
 20
952.545469
 30
0.0
 11
344.956299
 21
947.821245
 31
0.0
  0
LINE
  5
428
100
AcDbEntity
  8
001
100
AcDbLine
 10
408.677338
 20
947.190086
 30
0.0
 11
408.677338
 21
833.434801
 31
0.0
  0
ARC
  5
429
100
AcDbEntity
  8
001
100
AcDbCircle
 10
344.877609
 20
948.818143
 30
0.0
 40
1.0
100
AcDbArc
 50
200.148486
 51
274.513249
  0
ARC
  5
42A
100
AcDbEntity
  8
001
100
AcDbCircle
 10
343.0
 20
948.12923
 30
0.0
 40
1.0
100
AcDbArc
 50
20.148684
 51
90.0
  0
LINE
  5
42B
100
AcDbEntity
  8
001
100
AcDbLine
 10
343.0
 20
949.12923
 30
0.0
 11
322.0
 21
949.12923
 31
0.0
  0
ARC
  5
42C
100
AcDbEntity
  8
001
100
AcDbCircle
 10
322.0
 20
952.12923
 30
0.0
 40
3.0
100
AcDbArc
 50
180.0
 51
270.0
  0
ARC
  5
42D
100
AcDbEntity
  8
001
100
AcDbCircle
 10
317.0
 20
953.579229
 30
0.0
 40
2.0
100
AcDbArc
 50
0.0
 51
90.0
  0
LINE
  5
42E
100
AcDbEntity
  8
001
100
AcDbLine
 10
317.0
 20
955.579229
 30
0.0
 11
306.992051
 21
955.579229
 31
0.0
  0
LINE
  5
42F
100
AcDbEntity
  8
001
100
AcDbLine
 10
293.0
 20
964.329229
 30
0.0
 11
293.0
 21
956.86376
 31
0.0
  0
ARC
  5
430
100
AcDbEntity
  8
001
100
AcDbCircle
 10
296.0
 20
956.86376
 30
0.0
 40
3.0
100
AcDbArc
 50
180.0
 51
287.727752
  0
ARC
  5
431
100
AcDbEntity
  8
001
100
AcDbCircle
 10
307.0
 20
922.45423
 30
0.0
 40
33.125
100
AcDbArc
 50
89.986251
 51
108.740663
  0
ARC
  5
432
100
AcDbEntity
  8
001
100
AcDbCircle
 10
297.0
 20
951.92906
 30
0.0
 40
2.0
100
AcDbArc
 50
108.74086
 51
180.0
  0
ARC
  5
433
100
AcDbEntity
  8
001
100
AcDbCircle
 10
293.0
 20
945.829229
 30
0.0
 40
1.999999
100
AcDbArc
 50
270.0
 51
0.0
  0
LINE
  5
434
100
AcDbEntity
  8
001
100
AcDbLine
 10
293.0
 20
943.829229
 30
0.0
 11
286.0
 21
943.829229
 31
0.0
  0
ARC
  5
435
100
AcDbEntity
  8
001
100
AcDbCircle
 10
286.0
 20
941.829231
 30
0.0
 40
1.999999
100
AcDbArc
 50
90.0
 51
180.0
  0
ARC
  5
436
100
AcDbEntity
  8
001
100
AcDbCircle
 10
405.97699
 20
843.066461
 30
0.0
 40
15.0
100
AcDbArc
 50
265.486051
 51
324.762854
  0
ARC
  5
437
100
AcDbEntity
  8
001
100
AcDbCircle
 10
344.877609
 20
831.840318
 30
0.0
 40
1.0
100
AcDbArc
 50
85.486734
 51
159.851822
  0
ARC
  5
438
100
AcDbEntity
  8
001
100
AcDbCircle
 10
343.0
 20
832.52923
 30
0.0
 40
1.0
100
AcDbArc
 50
270.0
 51
339.851111
  0
LINE
  5
439
100
AcDbEntity
  8
001
100
AcDbLine
 10
343.0
 20
831.52923
 30
0.0
 11
322.0
 21
831.52923
 31
0.0
  0
ARC
  5
43A
100
AcDbEntity
  8
001
100
AcDbCircle
 10
322.0
 20
828.52923
 30
0.0
 40
3.0
100
AcDbArc
 50
90.0
 51
180.0
  0
ARC
  5
43B
100
AcDbEntity
  8
001
100
AcDbCircle
 10
317.0
 20
827.079233
 30
0.0
 40
2.0
100
AcDbArc
 50
270.0
 51
0.0
  0
LINE
  5
43C
100
AcDbEntity
  8
001
100
AcDbLine
 10
317.0
 20
825.079233
 30
0.0
 11
313.0
 21
825.079233
 31
0.0
  0
ARC
  5
43D
100
AcDbEntity
  8
001
100
AcDbCircle
 10
297.0
 20
828.729402
 30
0.0
 40
2.0
100
AcDbArc
 50
180.0
 51
222.629966
  0
ARC
  5
43E
100
AcDbEntity
  8
001
100
AcDbCircle
 10
293.0
 20
834.829233
 30
0.0
 40
1.999999
100
AcDbArc
 50
0.0
 51
90.0
  0
LINE
  5
43F
100
AcDbEntity
  8
001
100
AcDbLine
 10
293.0
 20
836.829233
 30
0.0
 11
286.0
 21
836.829233
 31
0.0
  0
ARC
  5
440
100
AcDbEntity
  8
001
100
AcDbCircle
 10
286.0
 20
838.829225
 30
0.0
 40
1.999999
100
AcDbArc
 50
180.0
 51
270.0
  0
LINE
  5
441
100
AcDbEntity
  8
001
100
AcDbLine
 10
295.0
 20
951.92906
 30
0.0
 11
295.0
 21
918.829229
 31
0.0
  0
LINE
  5
442
100
AcDbEntity
  8
001
100
AcDbLine
 10
295.0
 20
861.829229
 30
0.0
 11
295.0
 21
828.729402
 31
0.0
  0
LINE
  5
443
100
AcDbEntity
  8
001
100
AcDbLine
 10
266.0
 20
938.59738
 30
0.0
 11
266.0
 21
921.829229
 31
0.0
  0
LINE
  5
444
100
AcDbEntity
  8
001
100
AcDbLine
 10
274.0
 20
953.829229
 30
0.0
 11
266.0
 21
953.829229
 31
0.0
  0
LINE
  5
445
100
AcDbEntity
  8
001
100
AcDbLine
 10
236.146205
 20
944.966384
 30
0.0
 11
266.0
 21
953.829229
 31
0.0
  0
LINE
  5
446
100
AcDbEntity
  8
001
100
AcDbLine
 10
277.0
 20
953.59738
 30
0.0
 11
277.0
 21
973.329229
 31
0.0
  0
LINE
  5
447
100
AcDbEntity
  8
001
100
AcDbLine
 10
310.0
 20
976.329229
 30
0.0
 11
280.0
 21
976.329229
 31
0.0
  0
ARC
  5
448
100
AcDbEntity
  8
001
100
AcDbCircle
 10
274.0
 20
956.829229
 30
0.0
 40
3.0
100
AcDbArc
 50
270.0
 51
0.0
  0
ARC
  5
449
100
AcDbEntity
  8
001
100
AcDbCircle
 10
280.0
 20
973.329229
 30
0.0
 40
3.0
100
AcDbArc
 50
90.0
 51
180.0
  0
LINE
  5
44A
100
AcDbEntity
  8
001
100
AcDbLine
 10
313.0
 20
955.579229
 30
0.0
 11
313.0
 21
973.329229
 31
0.0
  0
ARC
  5
44B
100
AcDbEntity
  8
001
100
AcDbCircle
 10
310.0
 20
973.329229
 30
0.0
 40
3.0
100
AcDbArc
 50
0.0
 51
90.0
  0
LINE
  5
44C
100
AcDbEntity
  8
001
100
AcDbLine
 10
306.0
 20
955.564132
 30
0.0
 11
306.0
 21
963.755664
 31
0.0
  0
ARC
  5
44D
100
AcDbEntity
  8
001
100
AcDbCircle
 10
266.0
 20
948.613544
 30
0.0
 40
5.0
100
AcDbArc
 50
106.534838
 51
180.0
  0
LINE
  5
44E
100
AcDbEntity
  8
001
100
AcDbLine
 10
313.0
 20
864.829229
 30
0.0
 11
313.0
 21
915.829229
 31
0.0
  0
LINE
  5
44F
100
AcDbEntity
  8
001
100
AcDbLine
 10
266.0
 20
844.855322
 30
0.0
 11
266.0
 21
858.829229
 31
0.0
  0
LINE
  5
450
100
AcDbEntity
  8
001
100
AcDbLine
 10
274.0
 20
826.829229
 30
0.0
 11
266.0
 21
826.829229
 31
0.0
  0
LINE
  5
451
100
AcDbEntity
  8
001
100
AcDbLine
 10
236.146205
 20
835.692074
 30
0.0
 11
266.0
 21
826.829229
 31
0.0
  0
LINE
  5
452
100
AcDbEntity
  8
001
100
AcDbLine
 10
277.0
 20
829.855322
 30
0.0
 11
277.0
 21
807.329229
 31
0.0
  0
LINE
  5
453
100
AcDbEntity
  8
001
100
AcDbLine
 10
310.0
 20
804.329229
 30
0.0
 11
280.0
 21
804.329229
 31
0.0
  0
ARC
  5
454
100
AcDbEntity
  8
001
100
AcDbCircle
 10
274.0
 20
823.829229
 30
0.0
 40
3.0
100
AcDbArc
 50
0.0
 51
90.0
  0
ARC
  5
455
100
AcDbEntity
  8
001
100
AcDbCircle
 10
280.0
 20
807.329229
 30
0.0
 40
3.0
100
AcDbArc
 50
180.0
 51
270.0
  0
LINE
  5
456
100
AcDbEntity
  8
001
100
AcDbLine
 10
313.0
 20
826.37488
 30
0.0
 11
313.0
 21
807.329229
 31
0.0
  0
ARC
  5
457
100
AcDbEntity
  8
001
100
AcDbCircle
 10
310.0
 20
807.329229
 30
0.0
 40
3.0
100
AcDbArc
 50
270.0
 51
0.0
  0
LINE
  5
458
100
AcDbEntity
  8
001
100
AcDbLine
 10
284.0
 20
830.37488
 30
0.0
 11
284.0
 21
861.829229
 31
0.0
  0
LINE
  5
459
100
AcDbEntity
  8
001
100
AcDbLine
 10
310.0
 20
809.188918
 30
0.0
 11
280.0
 21
809.188918
 31
0.0
  0
ARC
  5
45A
100
AcDbEntity
  8
001
100
AcDbCircle
 10
280.0
 20
812.188918
 30
0.0
 40
3.0
100
AcDbArc
 50
180.0
 51
270.0
  0
ARC
  5
45B
100
AcDbEntity
  8
001
100
AcDbCircle
 10
310.0
 20
812.188918
 30
0.0
 40
3.0
100
AcDbArc
 50
270.0
 51
0.0
  0
LINE
  5
45C
100
AcDbEntity
  8
001
100
AcDbLine
 10
261.0
 20
858.829229
 30
0.0
 11
261.0
 21
832.044914
 31
0.0
  0
ARC
  5
45D
100
AcDbEntity
  8
001
100
AcDbCircle
 10
266.0
 20
832.044914
 30
0.0
 40
5.0
100
AcDbArc
 50
180.0
 51
253.465162
  0
LINE
  5
45E
100
AcDbEntity
  8
001
100
AcDbLine
 10
278.236738
 20
894.329229
 30
0.0
 11
237.0
 21
894.329229
 31
0.0
  0
LINE
  5
45F
100
AcDbEntity
  8
001
100
AcDbLine
 10
278.236738
 20
886.329229
 30
0.0
 11
237.0
 21
886.329229
 31
0.0
  0
ARC
  5
460
100
AcDbEntity
  8
001
100
AcDbCircle
 10
237.0
 20
942.090443
 30
0.0
 40
3.0
100
AcDbArc
 50
106.534838
 51
180.0
  0
ARC
  5
461
100
AcDbEntity
  8
001
100
AcDbCircle
 10
237.0
 20
838.568015
 30
0.0
 40
3.0
100
AcDbArc
 50
180.0
 51
253.465162
  0
LINE
  5
462
100
AcDbEntity
  8
001
100
AcDbLine
 10
235.236738
 20
944.517562
 30
0.0
 11
278.236738
 21
975.756348
 31
0.0
  0
LINE
  5
463
100
AcDbEntity
  8
001
100
AcDbLine
 10
235.236738
 20
836.140896
 30
0.0
 11
278.236738
 21
804.90211
 31
0.0
  0
ARC
  5
464
100
AcDbEntity
  8
001
100
AcDbCircle
 10
237.0
 20
897.329229
 30
0.0
 40
3.0
100
AcDbArc
 50
180.0
 51
270.0
  0
ARC
  5
465
100
AcDbEntity
  8
001
100
AcDbCircle
 10
237.0
 20
883.329229
 30
0.0
 40
3.0
100
AcDbArc
 50
90.0
 51
180.0
  0
ARC
  5
466
100
AcDbEntity
  8
001
100
AcDbCircle
 10
274.0
 20
897.329229
 30
0.0
 40
3.0
100
AcDbArc
 50
270.0
 51
0.0
  0
ARC
  5
467
100
AcDbEntity
  8
001
100
AcDbCircle
 10
274.0
 20
883.329229
 30
0.0
 40
3.0
100
AcDbArc
 50
0.0
 51
90.0
  0
LINE
  5
468
100
AcDbEntity
  8
001
100
AcDbLine
 10
277.0
 20
864.829229
 30
0.0
 11
277.0
 21
883.329229
 31
0.0
  0
LINE
  5
469
100
AcDbEntity
  8
001
100
AcDbLine
 10
277.0
 20
915.829229
 30
0.0
 11
277.0
 21
897.329229
 31
0.0
  0
LINE
  5
46A
100
AcDbEntity
  8
001
100
AcDbLine
 10
261.0
 20
883.329229
 30
0.0
 11
261.0
 21
864.025381
 31
0.0
  0
ARC
  5
46B
100
AcDbEntity
  8
001
100
AcDbCircle
 10
258.0
 20
897.329229
 30
0.0
 40
3.0
100
AcDbArc
 50
270.0
 51
0.0
  0
ARC
  5
46C
100
AcDbEntity
  8
001
100
AcDbCircle
 10
258.0
 20
883.329229
 30
0.0
 40
3.0
100
AcDbArc
 50
0.0
 51
90.0
  0
LINE
  5
46D
100
AcDbEntity
  8
001
100
AcDbLine
 10
322.0
 20
871.579229
 30
0.0
 11
322.0
 21
876.579229
 31
0.0
  0
LINE
  5
46E
100
AcDbEntity
  8
001
100
AcDbLine
 10
275.0
 20
879.079229
 30
0.0
 11
277.0
 21
879.079229
 31
0.0
  0
LINE
  5
46F
100
AcDbEntity
  8
001
100
AcDbLine
 10
275.0
 20
869.079229
 30
0.0
 11
277.0
 21
869.079229
 31
0.0
  0
LINE
  5
470
100
AcDbEntity
  8
001
100
AcDbLine
 10
275.0
 20
869.079229
 30
0.0
 11
275.0
 21
879.079229
 31
0.0
  0
LINE
  5
471
100
AcDbEntity
  8
001
100
AcDbLine
 10
322.0
 20
871.579229
 30
0.0
 11
313.0
 21
871.579229
 31
0.0
  0
LINE
  5
472
100
AcDbEntity
  8
001
100
AcDbLine
 10
322.0
 20
876.579229
 30
0.0
 11
313.0
 21
876.579229
 31
0.0
  0
LINE
  5
473
100
AcDbEntity
  8
001
  6
CENTER
100
AcDbLine
 10
270.0
 20
874.079229
 30
0.0
 11
327.0
 21
874.079229
 31
0.0
  0
POLYLINE
  5
474
100
AcDbEntity
  8
001
100
AcDb2dPolyline
 66
     1
 10
0.0
 20
0.0
 30
0.0
  0
VERTEX
  5
475
100
AcDbEntity
  8
001
100
AcDbVertex
100
AcDb2dVertex
 10
260.697018
 20
852.944566
 30
0.0
  0
VERTEX
  5
476
100
AcDbEntity
  8
001
100
AcDbVertex
100
AcDb2dVertex
 10
260.664187
 20
853.813991
 30
0.0
  0
VERTEX
  5
477
100
AcDbEntity
  8
001
100
AcDbVertex
100
AcDb2dVertex
 10
260.565942
 20
854.6768
 30
0.0
  0
VERTEX
  5
478
100
AcDbEntity
  8
001
100
AcDbVertex
100
AcDb2dVertex
 10
260.403032
 20
855.526426
 30
0.0
  0
VERTEX
  5
479
100
AcDbEntity
  8
001
100
AcDbVertex
100
AcDb2dVertex
 10
260.176697
 20
856.356402
 30
0.0
  0
VERTEX
  5
47A
100
AcDbEntity
  8
001
100
AcDbVertex
100
AcDb2dVertex
 10
259.888659
 20
857.160412
 30
0.0
  0
VERTEX
  5
47B
100
AcDbEntity
  8
001
100
AcDbVertex
100
AcDb2dVertex
 10
259.541109
 20
857.932337
 30
0.0
  0
VERTEX
  5
47C
100
AcDbEntity
  8
001
100
AcDbVertex
100
AcDb2dVertex
 10
259.136694
 20
858.666302
 30
0.0
  0
VERTEX
  5
47D
100
AcDbEntity
  8
001
100
AcDbVertex
100
AcDb2dVertex
 10
258.678492
 20
859.35672
 30
0.0
  0
VERTEX
  5
47E
100
AcDbEntity
  8
001
100
AcDbVertex
100
AcDb2dVertex
 10
258.169988
 20
859.998339
 30
0.0
  0
VERTEX
  5
47F
100
AcDbEntity
  8
001
100
AcDbVertex
100
AcDb2dVertex
 10
257.615054
 20
860.586274
 30
0.0
  0
VERTEX
  5
480
100
AcDbEntity
  8
001
100
AcDbVertex
100
AcDb2dVertex
 10
257.017912
 20
861.116051
 30
0.0
  0
VERTEX
  5
481
100
AcDbEntity
  8
001
100
AcDbVertex
100
AcDb2dVertex
 10
256.383107
 20
861.583638
 30
0.0
  0
VERTEX
  5
482
100
AcDbEntity
  8
001
100
AcDbVertex
100
AcDb2dVertex
 10
255.715472
 20
861.985477
 30
0.0
  0
VERTEX
  5
483
100
AcDbEntity
  8
001
100
AcDbVertex
100
AcDb2dVertex
 10
255.020085
 20
862.318509
 30
0.0
  0
VERTEX
  5
484
100
AcDbEntity
  8
001
100
AcDbVertex
100
AcDb2dVertex
 10
254.302241
 20
862.580199
 30
0.0
  0
VERTEX
  5
485
100
AcDbEntity
  8
001
100
AcDbVertex
100
AcDb2dVertex
 10
253.567402
 20
862.768557
 30
0.0
  0
VERTEX
  5
486
100
AcDbEntity
  8
001
100
AcDbVertex
100
AcDb2dVertex
 10
252.821161
 20
862.882148
 30
0.0
  0
VERTEX
  5
487
100
AcDbEntity
  8
001
100
AcDbVertex
100
AcDb2dVertex
 10
252.069197
 20
862.920108
 30
0.0
  0
SEQEND
  5
488
100
AcDbEntity
  8
001
  0
LINE
  5
489
100
AcDbEntity
  8
001
100
AcDbLine
 10
242.872178
 20
843.252594
 30
0.0
 11
242.872178
 21
855.231473
 31
0.0
  0
LINE
  5
48A
100
AcDbEntity
  8
001
100
AcDbLine
 10
260.127822
 20
839.592284
 30
0.0
 11
260.127822
 21
851.577617
 31
0.0
  0
POLYLINE
  5
48B
100
AcDbEntity
  8
001
100
AcDb2dPolyline
 66
     1
 10
0.0
 20
0.0
 30
0.0
  0
VERTEX
  5
48C
100
AcDbEntity
  8
001
100
AcDbVertex
100
AcDb2dVertex
 10
242.872178
 20
843.252594
 30
0.0
  0
VERTEX
  5
48D
100
AcDbEntity
  8
001
100
AcDbVertex
100
AcDb2dVertex
 10
242.90501
 20
842.612105
 30
0.0
  0
VERTEX
  5
48E
100
AcDbEntity
  8
001
100
AcDbVertex
100
AcDb2dVertex
 10
243.003254
 20
841.976491
 30
0.0
  0
VERTEX
  5
48F
100
AcDbEntity
  8
001
100
AcDbVertex
100
AcDb2dVertex
 10
243.166164
 20
841.350589
 30
0.0
  0
VERTEX
  5
490
100
AcDbEntity
  8
001
100
AcDbVertex
100
AcDb2dVertex
 10
243.3925
 20
840.739163
 30
0.0
  0
VERTEX
  5
491
100
AcDbEntity
  8
001
100
AcDbVertex
100
AcDb2dVertex
 10
243.680538
 20
840.146865
 30
0.0
  0
VERTEX
  5
492
100
AcDbEntity
  8
001
100
AcDbVertex
100
AcDb2dVertex
 10
244.028087
 20
839.578204
 30
0.0
  0
VERTEX
  5
493
100
AcDbEntity
  8
001
100
AcDbVertex
100
AcDb2dVertex
 10
244.432502
 20
839.037507
 30
0.0
  0
VERTEX
  5
494
100
AcDbEntity
  8
001
100
AcDbVertex
100
AcDb2dVertex
 10
244.890705
 20
838.528889
 30
0.0
  0
VERTEX
  5
495
100
AcDbEntity
  8
001
100
AcDbVertex
100
AcDb2dVertex
 10
245.399209
 20
838.056221
 30
0.0
  0
VERTEX
  5
496
100
AcDbEntity
  8
001
100
AcDbVertex
100
AcDb2dVertex
 10
245.954143
 20
837.623101
 30
0.0
  0
VERTEX
  5
497
100
AcDbEntity
  8
001
100
AcDbVertex
100
AcDb2dVertex
 10
246.551285
 20
837.232825
 30
0.0
  0
VERTEX
  5
498
100
AcDbEntity
  8
001
100
AcDbVertex
100
AcDb2dVertex
 10
247.186089
 20
836.888363
 30
0.0
  0
VERTEX
  5
499
100
AcDbEntity
  8
001
100
AcDbVertex
100
AcDb2dVertex
 10
247.853725
 20
836.592337
 30
0.0
  0
VERTEX
  5
49A
100
AcDbEntity
  8
001
100
AcDbVertex
100
AcDb2dVertex
 10
248.549111
 20
836.346999
 30
0.0
  0
VERTEX
  5
49B
100
AcDbEntity
  8
001
100
AcDbVertex
100
AcDb2dVertex
 10
249.266955
 20
836.154217
 30
0.0
  0
VERTEX
  5
49C
100
AcDbEntity
  8
001
100
AcDbVertex
100
AcDb2dVertex
 10
250.001794
 20
836.015458
 30
0.0
  0
VERTEX
  5
49D
100
AcDbEntity
  8
001
100
AcDbVertex
100
AcDb2dVertex
 10
250.748036
 20
835.931778
 30
0.0
  0
VERTEX
  5
49E
100
AcDbEntity
  8
001
100
AcDbVertex
100
AcDb2dVertex
 10
251.5
 20
835.903814
 30
0.0
  0
SEQEND
  5
49F
100
AcDbEntity
  8
001
  0
POLYLINE
  5
4A0
100
AcDbEntity
  8
001
100
AcDb2dPolyline
 66
     1
 10
0.0
 20
0.0
 30
0.0
  0
VERTEX
  5
4A1
100
AcDbEntity
  8
001
100
AcDbVertex
100
AcDb2dVertex
 10
260.127822
 20
851.577617
 30
0.0
  0
VERTEX
  5
4A2
100
AcDbEntity
  8
001
100
AcDbVertex
100
AcDb2dVertex
 10
260.09499
 20
852.444186
 30
0.0
  0
VERTEX
  5
4A3
100
AcDbEntity
  8
001
100
AcDbVertex
100
AcDb2dVertex
 10
259.996746
 20
853.304159
 30
0.0
  0
VERTEX
  5
4A4
100
AcDbEntity
  8
001
100
AcDbVertex
100
AcDb2dVertex
 10
259.833836
 20
854.150992
 30
0.0
  0
VERTEX
  5
4A5
100
AcDbEntity
  8
001
100
AcDbVertex
100
AcDb2dVertex
 10
259.6075
 20
854.97824
 30
0.0
  0
VERTEX
  5
4A6
100
AcDbEntity
  8
001
100
AcDbVertex
100
AcDb2dVertex
 10
259.319462
 20
855.779607
 30
0.0
  0
VERTEX
  5
4A7
100
AcDbEntity
  8
001
100
AcDbVertex
100
AcDb2dVertex
 10
258.971913
 20
856.548995
 30
0.0
  0
VERTEX
  5
4A8
100
AcDbEntity
  8
001
100
AcDbVertex
100
AcDb2dVertex
 10
258.567498
 20
857.280547
 30
0.0
  0
VERTEX
  5
4A9
100
AcDbEntity
  8
001
100
AcDbVertex
100
AcDb2dVertex
 10
258.109295
 20
857.968697
 30
0.0
  0
VERTEX
  5
4AA
100
AcDbEntity
  8
001
100
AcDbVertex
100
AcDb2dVertex
 10
257.600791
 20
858.608207
 30
0.0
  0
VERTEX
  5
4AB
100
AcDbEntity
  8
001
100
AcDbVertex
100
AcDb2dVertex
 10
257.045857
 20
859.194209
 30
0.0
  0
VERTEX
  5
4AC
100
AcDbEntity
  8
001
100
AcDbVertex
100
AcDb2dVertex
 10
256.448715
 20
859.722245
 30
0.0
  0
VERTEX
  5
4AD
100
AcDbEntity
  8
001
100
AcDbVertex
100
AcDb2dVertex
 10
255.813911
 20
860.188295
 30
0.0
  0
VERTEX
  5
4AE
100
AcDbEntity
  8
001
100
AcDbVertex
100
AcDb2dVertex
 10
255.146275
 20
860.588813
 30
0.0
  0
VERTEX
  5
4AF
100
AcDbEntity
  8
001
100
AcDbVertex
100
AcDb2dVertex
 10
254.450889
 20
860.92075
 30
0.0
  0
VERTEX
  5
4B0
100
AcDbEntity
  8
001
100
AcDbVertex
100
AcDb2dVertex
 10
253.733045
 20
861.181581
 30
0.0
  0
VERTEX
  5
4B1
100
AcDbEntity
  8
001
100
AcDbVertex
100
AcDb2dVertex
 10
252.998206
 20
861.369319
 30
0.0
  0
VERTEX
  5
4B2
100
AcDbEntity
  8
001
100
AcDbVertex
100
AcDb2dVertex
 10
252.251964
 20
861.482537
 30
0.0
  0
VERTEX
  5
4B3
100
AcDbEntity
  8
001
100
AcDbVertex
100
AcDb2dVertex
 10
251.5
 20
861.520372
 30
0.0
  0
SEQEND
  5
4B4
100
AcDbEntity
  8
001
  0
POLYLINE
  5
4B5
100
AcDbEntity
  8
001
100
AcDb2dPolyline
 66
     1
 10
0.0
 20
0.0
 30
0.0
  0
VERTEX
  5
4B6
100
AcDbEntity
  8
001
100
AcDbVertex
100
AcDb2dVertex
 10
251.5
 20
835.903814
 30
0.0
  0
VERTEX
  5
4B7
100
AcDbEntity
  8
001
100
AcDbVertex
100
AcDb2dVertex
 10
252.251964
 20
835.917849
 30
0.0
  0
VERTEX
  5
4B8
100
AcDbEntity
  8
001
100
AcDbVertex
100
AcDb2dVertex
 10
252.998206
 20
835.95985
 30
0.0
  0
VERTEX
  5
4B9
100
AcDbEntity
  8
001
100
AcDbVertex
100
AcDb2dVertex
 10
253.733045
 20
836.029495
 30
0.0
  0
VERTEX
  5
4BA
100
AcDbEntity
  8
001
100
AcDbVertex
100
AcDb2dVertex
 10
254.450889
 20
836.126256
 30
0.0
  0
VERTEX
  5
4BB
100
AcDbEntity
  8
001
100
AcDbVertex
100
AcDb2dVertex
 10
255.146275
 20
836.249395
 30
0.0
  0
VERTEX
  5
4BC
100
AcDbEntity
  8
001
100
AcDbVertex
100
AcDb2dVertex
 10
255.813911
 20
836.397975
 30
0.0
  0
VERTEX
  5
4BD
100
AcDbEntity
  8
001
100
AcDbVertex
100
AcDb2dVertex
 10
256.448715
 20
836.570866
 30
0.0
  0
VERTEX
  5
4BE
100
AcDbEntity
  8
001
100
AcDbVertex
100
AcDb2dVertex
 10
257.045857
 20
836.766752
 30
0.0
  0
VERTEX
  5
4BF
100
AcDbEntity
  8
001
100
AcDbVertex
100
AcDb2dVertex
 10
257.600791
 20
836.984142
 30
0.0
  0
VERTEX
  5
4C0
100
AcDbEntity
  8
001
100
AcDbVertex
100
AcDb2dVertex
 10
258.109295
 20
837.221381
 30
0.0
  0
VERTEX
  5
4C1
100
AcDbEntity
  8
001
100
AcDbVertex
100
AcDb2dVertex
 10
258.567498
 20
837.476664
 30
0.0
  0
VERTEX
  5
4C2
100
AcDbEntity
  8
001
100
AcDbVertex
100
AcDb2dVertex
 10
258.971913
 20
837.748049
 30
0.0
  0
VERTEX
  5
4C3
100
AcDbEntity
  8
001
100
AcDbVertex
100
AcDb2dVertex
 10
259.319462
 20
838.033469
 30
0.0
  0
VERTEX
  5
4C4
100
AcDbEntity
  8
001
100
AcDbVertex
100
AcDb2dVertex
 10
259.6075
 20
838.330753
 30
0.0
  0
VERTEX
  5
4C5
100
AcDbEntity
  8
001
100
AcDbVertex
100
AcDb2dVertex
 10
259.833836
 20
838.637638
 30
0.0
  0
VERTEX
  5
4C6
100
AcDbEntity
  8
001
100
AcDbVertex
100
AcDb2dVertex
 10
259.996746
 20
838.951788
 30
0.0
  0
VERTEX
  5
4C7
100
AcDbEntity
  8
001
100
AcDbVertex
100
AcDb2dVertex
 10
260.09499
 20
839.270813
 30
0.0
  0
VERTEX
  5
4C8
100
AcDbEntity
  8
001
100
AcDbVertex
100
AcDb2dVertex
 10
260.127822
 20
839.592284
 30
0.0
  0
SEQEND
  5
4C9
100
AcDbEntity
  8
001
  0
LINE
  5
4CA
100
AcDbEntity
  8
001
100
AcDbLine
 10
259.996374
 20
838.950886
 30
0.0
 11
260.569118
 21
840.337506
 31
0.0
  0
POLYLINE
  5
4CB
100
AcDbEntity
  8
001
100
AcDb2dPolyline
 66
     1
 10
0.0
 20
0.0
 30
0.0
  0
VERTEX
  5
4CC
100
AcDbEntity
  8
001
100
AcDbVertex
100
AcDb2dVertex
 10
251.5
 20
861.520372
 30
0.0
  0
VERTEX
  5
4CD
100
AcDbEntity
  8
001
100
AcDbVertex
100
AcDb2dVertex
 10
250.748036
 20
861.496441
 30
0.0
  0
VERTEX
  5
4CE
100
AcDbEntity
  8
001
100
AcDbVertex
100
AcDb2dVertex
 10
250.001794
 20
861.424829
 30
0.0
  0
VERTEX
  5
4CF
100
AcDbEntity
  8
001
100
AcDbVertex
100
AcDb2dVertex
 10
249.266955
 20
861.306083
 30
0.0
  0
VERTEX
  5
4D0
100
AcDbEntity
  8
001
100
AcDbVertex
100
AcDb2dVertex
 10
248.549111
 20
861.141105
 30
0.0
  0
VERTEX
  5
4D1
100
AcDbEntity
  8
001
100
AcDbVertex
100
AcDb2dVertex
 10
247.853725
 20
860.931151
 30
0.0
  0
VERTEX
  5
4D2
100
AcDbEntity
  8
001
100
AcDbVertex
100
AcDb2dVertex
 10
247.186089
 20
860.677819
 30
0.0
  0
VERTEX
  5
4D3
100
AcDbEntity
  8
001
100
AcDbVertex
100
AcDb2dVertex
 10
246.551285
 20
860.383037
 30
0.0
  0
VERTEX
  5
4D4
100
AcDbEntity
  8
001
100
AcDbVertex
100
AcDb2dVertex
 10
245.954143
 20
860.049049
 30
0.0
  0
VERTEX
  5
4D5
100
AcDbEntity
  8
001
100
AcDbVertex
100
AcDb2dVertex
 10
245.399209
 20
859.678396
 30
0.0
  0
VERTEX
  5
4D6
100
AcDbEntity
  8
001
100
AcDbVertex
100
AcDb2dVertex
 10
244.890705
 20
859.273899
 30
0.0
  0
VERTEX
  5
4D7
100
AcDbEntity
  8
001
100
AcDbVertex
100
AcDb2dVertex
 10
244.432502
 20
858.838637
 30
0.0
  0
VERTEX
  5
4D8
100
AcDbEntity
  8
001
100
AcDbVertex
100
AcDb2dVertex
 10
244.028087
 20
858.375922
 30
0.0
  0
VERTEX
  5
4D9
100
AcDbEntity
  8
001
100
AcDbVertex
100
AcDb2dVertex
 10
243.680538
 20
857.889276
 30
0.0
  0
VERTEX
  5
4DA
100
AcDbEntity
  8
001
100
AcDbVertex
100
AcDb2dVertex
 10
243.3925
 20
857.382403
 30
0.0
  0
VERTEX
  5
4DB
100
AcDbEntity
  8
001
100
AcDbVertex
100
AcDb2dVertex
 10
243.166164
 20
856.859159
 30
0.0
  0
VERTEX
  5
4DC
100
AcDbEntity
  8
001
100
AcDbVertex
100
AcDb2dVertex
 10
243.003254
 20
856.323528
 30
0.0
  0
VERTEX
  5
4DD
100
AcDbEntity
  8
001
100
AcDbVertex
100
AcDb2dVertex
 10
242.90501
 20
855.779586
 30
0.0
  0
VERTEX
  5
4DE
100
AcDbEntity
  8
001
100
AcDbVertex
100
AcDb2dVertex
 10
242.872178
 20
855.231473
 30
0.0
  0
SEQEND
  5
4DF
100
AcDbEntity
  8
001
  0
POLYLINE
  5
4E0
100
AcDbEntity
  8
001
100
AcDb2dPolyline
 66
     1
 10
0.0
 20
0.0
 30
0.0
  0
VERTEX
  5
4E1
100
AcDbEntity
  8
001
100
AcDbVertex
100
AcDb2dVertex
 10
252.069197
 20
862.920108
 30
0.0
  0
VERTEX
  5
4E2
100
AcDbEntity
  8
001
100
AcDbVertex
100
AcDb2dVertex
 10
251.283335
 20
862.893838
 30
0.0
  0
VERTEX
  5
4E3
100
AcDbEntity
  8
001
100
AcDbVertex
100
AcDb2dVertex
 10
250.504006
 20
862.815245
 30
0.0
  0
VERTEX
  5
4E4
100
AcDbEntity
  8
001
100
AcDbVertex
100
AcDb2dVertex
 10
249.73769
 20
862.684985
 30
0.0
  0
VERTEX
  5
4E5
100
AcDbEntity
  8
001
100
AcDbVertex
100
AcDb2dVertex
 10
248.990758
 20
862.504139
 30
0.0
  0
VERTEX
  5
4E6
100
AcDbEntity
  8
001
100
AcDbVertex
100
AcDb2dVertex
 10
248.269418
 20
862.27421
 30
0.0
  0
VERTEX
  5
4E7
100
AcDbEntity
  8
001
100
AcDbVertex
100
AcDb2dVertex
 10
247.579669
 20
861.997112
 30
0.0
  0
VERTEX
  5
4E8
100
AcDbEntity
  8
001
100
AcDbVertex
100
AcDb2dVertex
 10
246.927244
 20
861.675146
 30
0.0
  0
VERTEX
  5
4E9
100
AcDbEntity
  8
001
100
AcDbVertex
100
AcDb2dVertex
 10
246.317568
 20
861.31099
 30
0.0
  0
VERTEX
  5
4EA
100
AcDbEntity
  8
001
100
AcDbVertex
100
AcDb2dVertex
 10
245.75571
 20
860.907672
 30
0.0
  0
VERTEX
  5
4EB
100
AcDbEntity
  8
001
100
AcDbVertex
100
AcDb2dVertex
 10
245.246339
 20
860.468544
 30
0.0
  0
VERTEX
  5
4EC
100
AcDbEntity
  8
001
100
AcDbVertex
100
AcDb2dVertex
 10
244.793692
 20
859.997257
 30
0.0
  0
VERTEX
  5
4ED
100
AcDbEntity
  8
001
100
AcDbVertex
100
AcDb2dVertex
 10
244.401531
 20
859.49773
 30
0.0
  0
VERTEX
  5
4EE
100
AcDbEntity
  8
001
100
AcDbVertex
100
AcDb2dVertex
 10
244.073116
 20
858.974115
 30
0.0
  0
VERTEX
  5
4EF
100
AcDbEntity
  8
001
100
AcDbVertex
100
AcDb2dVertex
 10
243.811178
 20
858.430765
 30
0.0
  0
SEQEND
  5
4F0
100
AcDbEntity
  8
001
  0
LINE
  5
4F1
100
AcDbEntity
  8
001
100
AcDbLine
 10
243.238608
 20
857.044788
 30
0.0
 11
243.811178
 21
858.430765
 31
0.0
  0
LINE
  5
4F2
100
AcDbEntity
  8
001
100
AcDbLine
 10
261.0
 20
921.829229
 30
0.0
 11
261.0
 21
948.613544
 31
0.0
  0
LINE
  5
4F3
100
AcDbEntity
  8
001
100
AcDbLine
 10
261.0
 20
897.329229
 30
0.0
 11
261.0
 21
916.633077
 31
0.0
  0
LINE
  5
4F4
100
AcDbEntity
  8
001
100
AcDbLine
 10
260.697018
 20
840.961462
 30
0.0
 11
260.697018
 21
852.944566
 31
0.0
  0
POLYLINE
  5
4F5
100
AcDbEntity
  8
001
100
AcDb2dPolyline
 66
     1
 10
0.0
 20
0.0
 30
0.0
  0
VERTEX
  5
4F6
100
AcDbEntity
  8
001
100
AcDbVertex
100
AcDb2dVertex
 10
260.569118
 20
840.337506
 30
0.0
  0
VERTEX
  5
4F7
100
AcDbEntity
  8
001
100
AcDbVertex
100
AcDb2dVertex
 10
260.697018
 20
840.961462
 30
0.0
  0
SEQEND
  5
4F8
100
AcDbEntity
  8
001
  0
LINE
  5
4F9
100
AcDbEntity
  8
001
  6
CENTER
100
AcDbLine
 10
214.0
 20
890.329229
 30
0.0
 11
779.0
 21
890.329229
 31
0.0
  0
LINE
  5
4FA
100
AcDbEntity
  8
001
100
AcDbLine
 10
1115.985654
 20
313.5
 30
0.0
 11
1136.240384
 21
313.5
 31
0.0
  0
ARC
  5
4FB
100
AcDbEntity
  8
001
100
AcDbCircle
 10
1136.240384
 20
316.5
 30
0.0
 40
3.0
100
AcDbArc
 50
270.0
 51
348.18108
  0
ARC
  5
4FC
100
AcDbEntity
  8
001
100
AcDbCircle
 10
1115.985654
 20
312.5
 30
0.0
 40
1.0
100
AcDbArc
 50
90.0
 51
160.999198
  0
LINE
  5
4FD
100
AcDbEntity
  8
001
100
AcDbLine
 10
1113.105507
 20
306.5
 30
0.0
 11
1134.454389
 21
306.5
 31
0.0
  0
ARC
  5
4FE
100
AcDbEntity
  8
001
100
AcDbCircle
 10
1134.454389
 20
309.5
 30
0.0
 40
3.0
100
AcDbArc
 50
270.0
 51
343.192529
  0
ARC
  5
4FF
100
AcDbEntity
  8
001
100
AcDbCircle
 10
1113.105507
 20
305.5
 30
0.0
 40
1.0
100
AcDbArc
 50
90.0
 51
154.271418
  0
LINE
  5
500
100
AcDbEntity
  8
001
100
AcDbLine
 10
994.014346
 20
353.5
 30
0.0
 11
973.759616
 21
353.5
 31
0.0
  0
LINE
  5
501
100
AcDbEntity
  8
001
100
AcDbLine
 10
975.545611
 20
360.5
 30
0.0
 11
994.0
 21
360.5
 31
0.0
  0
LINE
  5
502
100
AcDbEntity
  8
001
100
AcDbLine
 10
996.894493
 20
306.5
 30
0.0
 11
975.545611
 21
306.5
 31
0.0
  0
ARC
  5
503
100
AcDbEntity
  8
001
100
AcDbCircle
 10
975.545611
 20
309.5
 30
0.0
 40
3.0
100
AcDbArc
 50
196.807471
 51
270.0
  0
ARC
  5
504
100
AcDbEntity
  8
001
100
AcDbCircle
 10
973.759616
 20
350.5
 30
0.0
 40
3.0
100
AcDbArc
 50
90.0
 51
168.18108
  0
ARC
  5
505
100
AcDbEntity
  8
001
100
AcDbCircle
 10
975.545611
 20
357.5
 30
0.0
 40
3.0
100
AcDbArc
 50
90.0
 51
163.192529
  0
ARC
  5
506
100
AcDbEntity
  8
001
100
AcDbCircle
 10
994.014346
 20
354.5
 30
0.0
 40
1.0
100
AcDbArc
 50
270.0
 51
340.999198
  0
ARC
  5
507
100
AcDbEntity
  8
001
100
AcDbCircle
 10
996.894493
 20
305.5
 30
0.0
 40
1.0
100
AcDbArc
 50
25.728582
 51
90.0
  0
LINE
  5
508
100
AcDbEntity
  8
001
100
AcDbLine
 10
264.0
 20
861.829229
 30
0.0
 11
310.0
 21
861.829229
 31
0.0
  0
LINE
  5
509
100
AcDbEntity
  8
001
100
AcDbLine
 10
264.0
 20
918.829229
 30
0.0
 11
310.0
 21
918.829229
 31
0.0
  0
ARC
  5
50A
100
AcDbEntity
  8
001
100
AcDbCircle
 10
310.0
 20
915.829229
 30
0.0
 40
3.0
100
AcDbArc
 50
0.0
 51
90.0
  0
ARC
  5
50B
100
AcDbEntity
  8
001
100
AcDbCircle
 10
280.0
 20
915.829229
 30
0.0
 40
3.0
100
AcDbArc
 50
90.0
 51
180.0
  0
ARC
  5
50C
100
AcDbEntity
  8
001
100
AcDbCircle
 10
269.0
 20
921.829229
 30
0.0
 40
3.0
100
AcDbArc
 50
180.0
 51
270.0
  0
ARC
  5
50D
100
AcDbEntity
  8
001
100
AcDbCircle
 10
264.0
 20
921.829229
 30
0.0
 40
3.0
100
AcDbArc
 50
180.0
 51
270.0
  0
ARC
  5
50E
100
AcDbEntity
  8
001
100
AcDbCircle
 10
310.0
 20
864.829229
 30
0.0
 40
3.0
100
AcDbArc
 50
270.0
 51
0.0
  0
ARC
  5
50F
100
AcDbEntity
  8
001
100
AcDbCircle
 10
280.0
 20
864.829229
 30
0.0
 40
3.0
100
AcDbArc
 50
180.0
 51
270.0
  0
ARC
  5
510
100
AcDbEntity
  8
001
100
AcDbCircle
 10
269.0
 20
858.829229
 30
0.0
 40
3.0
100
AcDbArc
 50
90.0
 51
180.0
  0
ARC
  5
511
100
AcDbEntity
  8
001
100
AcDbCircle
 10
264.0
 20
858.829229
 30
0.0
 40
3.0
100
AcDbArc
 50
90.0
 51
180.0
  0
LINE
  5
512
100
AcDbEntity
  8
001
100
AcDbLine
 10
319.0
 20
953.579229
 30
0.0
 11
319.0
 21
876.579229
 31
0.0
  0
LINE
  5
513
100
AcDbEntity
  8
001
100
AcDbLine
 10
319.0
 20
871.579229
 30
0.0
 11
319.0
 21
827.079233
 31
0.0
  0
LINE
  5
514
100
AcDbEntity
  8
001
100
AcDbLine
 10
284.0
 20
963.755664
 30
0.0
 11
284.0
 21
918.829229
 31
0.0
  0
LINE
  5
515
100
AcDbEntity
  8
001
100
AcDbLine
 10
690.0
 20
257.073565
 30
0.0
 11
706.0
 21
257.073565
 31
0.0
  0
LINE
  5
516
100
AcDbEntity
  8
001
100
AcDbLine
 10
683.0
 20
249.857905
 30
0.0
 11
713.0
 21
249.857905
 31
0.0
  0
ARC
  5
517
100
AcDbEntity
  8
001
100
AcDbCircle
 10
713.0
 20
252.857905
 30
0.0
 40
3.0
100
AcDbArc
 50
270.0
 51
0.0
  0
ARC
  5
518
100
AcDbEntity
  8
001
100
AcDbCircle
 10
683.0
 20
252.857905
 30
0.0
 40
3.0
100
AcDbArc
 50
180.0
 51
270.0
  0
ARC
  5
519
100
AcDbEntity
  8
001
100
AcDbCircle
 10
706.0
 20
260.073565
 30
0.0
 40
3.0
100
AcDbArc
 50
270.0
 51
0.0
  0
ARC
  5
51A
100
AcDbEntity
  8
001
100
AcDbCircle
 10
690.0
 20
260.073565
 30
0.0
 40
3.0
100
AcDbArc
 50
180.0
 51
270.0
  0
LINE
  5
51B
100
AcDbEntity
  8
001
100
AcDbLine
 10
681.0
 20
267.984735
 30
0.0
 11
699.821543
 21
267.984735
 31
0.0
  0
ARC
  5
51C
100
AcDbEntity
  8
001
100
AcDbCircle
 10
686.0
 20
266.984735
 30
0.0
 40
1.0
100
AcDbArc
 50
0.0
 51
90.0
  0
ARC
  5
51D
100
AcDbEntity
  8
001
100
AcDbCircle
 10
681.0
 20
266.984735
 30
0.0
 40
1.0
100
AcDbArc
 50
90.0
 51
180.0
  0
LINE
  5
51E
100
AcDbEntity
  8
001
100
AcDbLine
 10
707.0
 20
257.5
 30
0.0
 11
702.0
 21
257.5
 31
0.0
  0
ARC
  5
51F
100
AcDbEntity
  8
001
100
AcDbCircle
 10
702.0
 20
259.5
 30
0.0
 40
2.0
100
AcDbArc
 50
180.0
 51
270.0
  0
ARC
  5
520
100
AcDbEntity
  8
001
100
AcDbCircle
 10
707.0
 20
259.5
 30
0.0
 40
2.0
100
AcDbArc
 50
270.0
 51
292.922366
  0
ARC
  5
521
100
AcDbEntity
  8
001
100
AcDbCircle
 10
1025.5
 20
390.858522
 30
0.0
 40
1.0
100
AcDbArc
 50
297.217164
 51
0.0
  0
ARC
  5
522
100
AcDbEntity
  8
001
100
AcDbCircle
 10
1084.5
 20
390.858522
 30
0.0
 40
1.0
100
AcDbArc
 50
180.0
 51
242.782836
  0
LINE
  5
523
100
AcDbEntity
  8
001
100
AcDbLine
 10
719.0
 20
273.231849
 30
0.0
 11
727.0
 21
273.231849
 31
0.0
  0
ARC
  5
524
100
AcDbEntity
  8
001
100
AcDbCircle
 10
727.0
 20
278.231849
 30
0.0
 40
5.0
100
AcDbArc
 50
270.0
 51
0.0
  0
ARC
  5
525
100
AcDbEntity
  8
001
100
AcDbCircle
 10
719.0
 20
270.231849
 30
0.0
 40
3.0
100
AcDbArc
 50
90.0
 51
180.0
  0
LINE
  5
526
100
AcDbEntity
  8
001
100
AcDbLine
 10
714.0
 20
280.231849
 30
0.0
 11
722.0
 21
280.231849
 31
0.0
  0
ARC
  5
527
100
AcDbEntity
  8
001
100
AcDbCircle
 10
722.0
 20
285.231849
 30
0.0
 40
5.0
100
AcDbArc
 50
270.0
 51
0.0
  0
ARC
  5
528
100
AcDbEntity
  8
001
100
AcDbCircle
 10
714.0
 20
275.231849
 30
0.0
 40
5.0
100
AcDbArc
 50
90.0
 51
180.0
  0
LINE
  5
529
100
AcDbEntity
  8
001
100
AcDbLine
 10
280.0
 20
249.857905
 30
0.0
 11
310.0
 21
249.857905
 31
0.0
  0
LINE
  5
52A
100
AcDbEntity
  8
001
100
AcDbLine
 10
287.0
 20
267.984735
 30
0.0
 11
312.0
 21
267.984735
 31
0.0
  0
ARC
  5
52B
100
AcDbEntity
  8
001
100
AcDbCircle
 10
310.0
 20
252.857905
 30
0.0
 40
3.0
100
AcDbArc
 50
270.0
 51
0.0
  0
ARC
  5
52C
100
AcDbEntity
  8
001
100
AcDbCircle
 10
280.0
 20
252.857905
 30
0.0
 40
3.0
100
AcDbArc
 50
180.0
 51
270.0
  0
ARC
  5
52D
100
AcDbEntity
  8
001
100
AcDbCircle
 10
312.0
 20
266.984735
 30
0.0
 40
1.0
100
AcDbArc
 50
0.0
 51
90.0
  0
ARC
  5
52E
100
AcDbEntity
  8
001
100
AcDbCircle
 10
287.0
 20
270.984735
 30
0.0
 40
3.0
100
AcDbArc
 50
180.0
 51
270.0
  0
ARC
  5
52F
100
AcDbEntity
  8
001
100
AcDbCircle
 10
297.0
 20
271.900169
 30
0.0
 40
2.0
100
AcDbArc
 50
180.0
 51
251.25914
  0
ARC
  5
530
100
AcDbEntity
  8
001
100
AcDbCircle
 10
307.0
 20
301.374999
 30
0.0
 40
33.125
100
AcDbArc
 50
251.259337
 51
270.030743
  0
ARC
  5
531
100
AcDbEntity
  8
001
100
AcDbCircle
 10
296.0
 20
266.965469
 30
0.0
 40
3.0
100
AcDbArc
 50
72.272248
 51
160.138047
  0
LINE
  5
532
100
AcDbEntity
  8
001
100
AcDbLine
 10
266.0
 20
273.231849
 30
0.0
 11
274.0
 21
273.231849
 31
0.0
  0
ARC
  5
533
100
AcDbEntity
  8
001
100
AcDbCircle
 10
274.0
 20
270.231849
 30
0.0
 40
3.0
100
AcDbArc
 50
0.0
 51
90.0
  0
ARC
  5
534
100
AcDbEntity
  8
001
100
AcDbCircle
 10
266.0
 20
278.231849
 30
0.0
 40
5.0
100
AcDbArc
 50
180.0
 51
270.0
  0
LINE
  5
535
100
AcDbEntity
  8
001
100
AcDbLine
 10
271.0
 20
280.231849
 30
0.0
 11
279.0
 21
280.231849
 31
0.0
  0
ARC
  5
536
100
AcDbEntity
  8
001
100
AcDbCircle
 10
279.0
 20
275.231849
 30
0.0
 40
5.0
100
AcDbArc
 50
0.0
 51
90.0
  0
ARC
  5
537
100
AcDbEntity
  8
001
100
AcDbCircle
 10
271.0
 20
285.231849
 30
0.0
 40
5.0
100
AcDbArc
 50
180.0
 51
270.0
  0
LINE
  5
538
100
AcDbEntity
  8
001
  6
CENTER
100
AcDbLine
 10
940.0
 20
333.5
 30
0.0
 11
1170.0
 21
333.5
 31
0.0
  0
LINE
  5
539
100
AcDbEntity
  8
001
  6
CENTER
100
AcDbLine
 10
1055.0
 20
227.5
 30
0.0
 11
1055.0
 21
668.5
 31
0.0
  0
LINE
  5
53A
100
AcDbEntity
  8
001
  6
CENTER
100
AcDbLine
 10
1061.25
 20
405.437473
 30
0.0
 11
1081.25
 21
405.437473
 31
0.0
  0
LINE
  5
53B
100
AcDbEntity
  8
001
  6
CENTER
100
AcDbLine
 10
1071.25
 20
395.437473
 30
0.0
 11
1071.25
 21
415.437473
 31
0.0
  0
POLYLINE
  5
53C
100
AcDbEntity
  8
001
100
AcDb2dPolyline
 66
     1
 10
0.0
 20
0.0
 30
0.0
  0
VERTEX
  5
53D
100
AcDbEntity
  8
001
100
AcDbVertex
100
AcDb2dVertex
 10
1100.704862
 20
367.228859
 30
0.0
  0
VERTEX
  5
53E
100
AcDbEntity
  8
001
100
AcDbVertex
100
AcDb2dVertex
 10
1101.127375
 20
366.576249
 30
0.0
  0
VERTEX
  5
53F
100
AcDbEntity
  8
001
100
AcDbVertex
100
AcDb2dVertex
 10
1101.562932
 20
365.93885
 30
0.0
  0
VERTEX
  5
540
100
AcDbEntity
  8
001
100
AcDbVertex
100
AcDb2dVertex
 10
1102.008217
 20
365.321512
 30
0.0
  0
VERTEX
  5
541
100
AcDbEntity
  8
001
100
AcDbVertex
100
AcDb2dVertex
 10
1102.459843
 20
364.728934
 30
0.0
  0
VERTEX
  5
542
100
AcDbEntity
  8
001
100
AcDbVertex
100
AcDb2dVertex
 10
1102.914372
 20
364.165625
 30
0.0
  0
VERTEX
  5
543
100
AcDbEntity
  8
001
100
AcDbVertex
100
AcDb2dVertex
 10
1103.368344
 20
363.635874
 30
0.0
  0
VERTEX
  5
544
100
AcDbEntity
  8
001
100
AcDbVertex
100
AcDb2dVertex
 10
1103.818305
 20
363.14371
 30
0.0
  0
VERTEX
  5
545
100
AcDbEntity
  8
001
100
AcDbVertex
100
AcDb2dVertex
 10
1104.26083
 20
362.692881
 30
0.0
  0
VERTEX
  5
546
100
AcDbEntity
  8
001
100
AcDbVertex
100
AcDb2dVertex
 10
1104.692551
 20
362.286817
 30
0.0
  0
VERTEX
  5
547
100
AcDbEntity
  8
001
100
AcDbVertex
100
AcDb2dVertex
 10
1105.110183
 20
361.928609
 30
0.0
  0
VERTEX
  5
548
100
AcDbEntity
  8
001
100
AcDbVertex
100
AcDb2dVertex
 10
1105.510548
 20
361.620983
 30
0.0
  0
VERTEX
  5
549
100
AcDbEntity
  8
001
100
AcDbVertex
100
AcDb2dVertex
 10
1105.890597
 20
361.366279
 30
0.0
  0
VERTEX
  5
54A
100
AcDbEntity
  8
001
100
AcDbVertex
100
AcDb2dVertex
 10
1106.247439
 20
361.166438
 30
0.0
  0
VERTEX
  5
54B
100
AcDbEntity
  8
001
100
AcDbVertex
100
AcDb2dVertex
 10
1106.578359
 20
361.022978
 30
0.0
  0
VERTEX
  5
54C
100
AcDbEntity
  8
001
100
AcDbVertex
100
AcDb2dVertex
 10
1106.880837
 20
360.936993
 30
0.0
  0
VERTEX
  5
54D
100
AcDbEntity
  8
001
100
AcDbVertex
100
AcDb2dVertex
 10
1107.152571
 20
360.909136
 30
0.0
  0
VERTEX
  5
54E
100
AcDbEntity
  8
001
100
AcDbVertex
100
AcDb2dVertex
 10
1107.391494
 20
360.93962
 30
0.0
  0
VERTEX
  5
54F
100
AcDbEntity
  8
001
100
AcDbVertex
100
AcDb2dVertex
 10
1107.595787
 20
361.028213
 30
0.0
  0
SEQEND
  5
550
100
AcDbEntity
  8
001
  0
POLYLINE
  5
551
100
AcDbEntity
  8
001
100
AcDb2dPolyline
 66
     1
 10
0.0
 20
0.0
 30
0.0
  0
VERTEX
  5
552
100
AcDbEntity
  8
001
100
AcDbVertex
100
AcDb2dVertex
 10
1102.076635
 20
368.597756
 30
0.0
  0
VERTEX
  5
553
100
AcDbEntity
  8
001
100
AcDbVertex
100
AcDb2dVertex
 10
1102.530174
 20
367.908903
 30
0.0
  0
VERTEX
  5
554
100
AcDbEntity
  8
001
100
AcDbVertex
100
AcDb2dVertex
 10
1102.998006
 20
367.237547
 30
0.0
  0
VERTEX
  5
555
100
AcDbEntity
  8
001
100
AcDbVertex
100
AcDb2dVertex
 10
1103.476139
 20
366.589416
 30
0.0
  0
VERTEX
  5
556
100
AcDbEntity
  8
001
100
AcDbVertex
100
AcDb2dVertex
 10
1103.960494
 20
365.97004
 30
0.0
  0
VERTEX
  5
557
100
AcDbEntity
  8
001
100
AcDbVertex
100
AcDb2dVertex
 10
1104.446939
 20
365.384704
 30
0.0
  0
VERTEX
  5
558
100
AcDbEntity
  8
001
100
AcDbVertex
100
AcDb2dVertex
 10
1104.931324
 20
364.8384
 30
0.0
  0
VERTEX
  5
559
100
AcDbEntity
  8
001
100
AcDbVertex
100
AcDb2dVertex
 10
1105.409516
 20
364.335791
 30
0.0
  0
VERTEX
  5
55A
100
AcDbEntity
  8
001
100
AcDbVertex
100
AcDb2dVertex
 10
1105.877435
 20
363.881164
 30
0.0
  0
VERTEX
  5
55B
100
AcDbEntity
  8
001
100
AcDbVertex
100
AcDb2dVertex
 10
1106.331089
 20
363.478397
 30
0.0
  0
VERTEX
  5
55C
100
AcDbEntity
  8
001
100
AcDbVertex
100
AcDb2dVertex
 10
1106.766609
 20
363.130928
 30
0.0
  0
VERTEX
  5
55D
100
AcDbEntity
  8
001
100
AcDbVertex
100
AcDb2dVertex
 10
1107.180277
 20
362.84172
 30
0.0
  0
VERTEX
  5
55E
100
AcDbEntity
  8
001
100
AcDbVertex
100
AcDb2dVertex
 10
1107.568565
 20
362.613242
 30
0.0
  0
VERTEX
  5
55F
100
AcDbEntity
  8
001
100
AcDbVertex
100
AcDb2dVertex
 10
1107.92816
 20
362.447441
 30
0.0
  0
VERTEX
  5
560
100
AcDbEntity
  8
001
100
AcDbVertex
100
AcDb2dVertex
 10
1108.255994
 20
362.345734
 30
0.0
  0
VERTEX
  5
561
100
AcDbEntity
  8
001
100
AcDbVertex
100
AcDb2dVertex
 10
1108.549271
 20
362.308987
 30
0.0
  0
VERTEX
  5
562
100
AcDbEntity
  8
001
100
AcDbVertex
100
AcDb2dVertex
 10
1108.805487
 20
362.337514
 30
0.0
  0
VERTEX
  5
563
100
AcDbEntity
  8
001
100
AcDbVertex
100
AcDb2dVertex
 10
1109.022458
 20
362.431072
 30
0.0
  0
SEQEND
  5
564
100
AcDbEntity
  8
001
  0
POLYLINE
  5
565
100
AcDbEntity
  8
001
100
AcDb2dPolyline
 66
     1
 10
0.0
 20
0.0
 30
0.0
  0
VERTEX
  5
566
100
AcDbEntity
  8
001
100
AcDbVertex
100
AcDb2dVertex
 10
1109.022458
 20
362.431072
 30
0.0
  0
VERTEX
  5
567
100
AcDbEntity
  8
001
100
AcDbVertex
100
AcDb2dVertex
 10
1109.195631
 20
362.592731
 30
0.0
  0
VERTEX
  5
568
100
AcDbEntity
  8
001
100
AcDbVertex
100
AcDb2dVertex
 10
1109.321148
 20
362.825185
 30
0.0
  0
VERTEX
  5
569
100
AcDbEntity
  8
001
100
AcDbVertex
100
AcDb2dVertex
 10
1109.397938
 20
363.126451
 30
0.0
  0
VERTEX
  5
56A
100
AcDbEntity
  8
001
100
AcDbVertex
100
AcDb2dVertex
 10
1109.425347
 20
363.493958
 30
0.0
  0
VERTEX
  5
56B
100
AcDbEntity
  8
001
100
AcDbVertex
100
AcDb2dVertex
 10
1109.40314
 20
363.924572
 30
0.0
  0
VERTEX
  5
56C
100
AcDbEntity
  8
001
100
AcDbVertex
100
AcDb2dVertex
 10
1109.331507
 20
364.414618
 30
0.0
  0
VERTEX
  5
56D
100
AcDbEntity
  8
001
100
AcDbVertex
100
AcDb2dVertex
 10
1109.211059
 20
364.959915
 30
0.0
  0
VERTEX
  5
56E
100
AcDbEntity
  8
001
100
AcDbVertex
100
AcDb2dVertex
 10
1109.042824
 20
365.555812
 30
0.0
  0
VERTEX
  5
56F
100
AcDbEntity
  8
001
100
AcDbVertex
100
AcDb2dVertex
 10
1108.828236
 20
366.197223
 30
0.0
  0
VERTEX
  5
570
100
AcDbEntity
  8
001
100
AcDbVertex
100
AcDb2dVertex
 10
1108.569127
 20
366.878678
 30
0.0
  0
VERTEX
  5
571
100
AcDbEntity
  8
001
100
AcDbVertex
100
AcDb2dVertex
 10
1108.267707
 20
367.594361
 30
0.0
  0
VERTEX
  5
572
100
AcDbEntity
  8
001
100
AcDbVertex
100
AcDb2dVertex
 10
1107.926549
 20
368.338167
 30
0.0
  0
VERTEX
  5
573
100
AcDbEntity
  8
001
100
AcDbVertex
100
AcDb2dVertex
 10
1107.548562
 20
369.103751
 30
0.0
  0
VERTEX
  5
574
100
AcDbEntity
  8
001
100
AcDbVertex
100
AcDb2dVertex
 10
1107.136971
 20
369.884579
 30
0.0
  0
VERTEX
  5
575
100
AcDbEntity
  8
001
100
AcDbVertex
100
AcDb2dVertex
 10
1106.695288
 20
370.673992
 30
0.0
  0
VERTEX
  5
576
100
AcDbEntity
  8
001
100
AcDbVertex
100
AcDb2dVertex
 10
1106.227282
 20
371.465253
 30
0.0
  0
VERTEX
  5
577
100
AcDbEntity
  8
001
100
AcDbVertex
100
AcDb2dVertex
 10
1105.736945
 20
372.251612
 30
0.0
  0
SEQEND
  5
578
100
AcDbEntity
  8
001
  0
LINE
  5
579
100
AcDbEntity
  8
001
100
AcDbLine
 10
1109.127691
 20
362.515195
 30
0.0
 11
1107.704591
 21
361.11459
 31
0.0
  0
POLYLINE
  5
57A
100
AcDbEntity
  8
001
100
AcDb2dPolyline
 66
     1
 10
0.0
 20
0.0
 30
0.0
  0
VERTEX
  5
57B
100
AcDbEntity
  8
001
100
AcDbVertex
100
AcDb2dVertex
 10
1107.595787
 20
361.028213
 30
0.0
  0
VERTEX
  5
57C
100
AcDbEntity
  8
001
100
AcDbVertex
100
AcDb2dVertex
 10
1107.704591
 20
361.11459
 30
0.0
  0
SEQEND
  5
57D
100
AcDbEntity
  8
001
  0
POLYLINE
  5
57E
100
AcDbEntity
  8
001
100
AcDb2dPolyline
 66
     1
 10
0.0
 20
0.0
 30
0.0
  0
VERTEX
  5
57F
100
AcDbEntity
  8
001
100
AcDbVertex
100
AcDb2dVertex
 10
1082.528213
 20
386.095787
 30
0.0
  0
VERTEX
  5
580
100
AcDbEntity
  8
001
100
AcDbVertex
100
AcDb2dVertex
 10
1082.43962
 20
385.891494
 30
0.0
  0
VERTEX
  5
581
100
AcDbEntity
  8
001
100
AcDbVertex
100
AcDb2dVertex
 10
1082.409136
 20
385.652571
 30
0.0
  0
VERTEX
  5
582
100
AcDbEntity
  8
001
100
AcDbVertex
100
AcDb2dVertex
 10
1082.436993
 20
385.380837
 30
0.0
  0
VERTEX
  5
583
100
AcDbEntity
  8
001
100
AcDbVertex
100
AcDb2dVertex
 10
1082.522978
 20
385.078359
 30
0.0
  0
VERTEX
  5
584
100
AcDbEntity
  8
001
100
AcDbVertex
100
AcDb2dVertex
 10
1082.666438
 20
384.747439
 30
0.0
  0
VERTEX
  5
585
100
AcDbEntity
  8
001
100
AcDbVertex
100
AcDb2dVertex
 10
1082.866279
 20
384.390597
 30
0.0
  0
VERTEX
  5
586
100
AcDbEntity
  8
001
100
AcDbVertex
100
AcDb2dVertex
 10
1083.120983
 20
384.010548
 30
0.0
  0
VERTEX
  5
587
100
AcDbEntity
  8
001
100
AcDbVertex
100
AcDb2dVertex
 10
1083.428609
 20
383.610183
 30
0.0
  0
VERTEX
  5
588
100
AcDbEntity
  8
001
100
AcDbVertex
100
AcDb2dVertex
 10
1083.786817
 20
383.192551
 30
0.0
  0
VERTEX
  5
589
100
AcDbEntity
  8
001
100
AcDbVertex
100
AcDb2dVertex
 10
1084.192881
 20
382.76083
 30
0.0
  0
VERTEX
  5
58A
100
AcDbEntity
  8
001
100
AcDbVertex
100
AcDb2dVertex
 10
1084.64371
 20
382.318305
 30
0.0
  0
VERTEX
  5
58B
100
AcDbEntity
  8
001
100
AcDbVertex
100
AcDb2dVertex
 10
1085.135874
 20
381.868344
 30
0.0
  0
VERTEX
  5
58C
100
AcDbEntity
  8
001
100
AcDbVertex
100
AcDb2dVertex
 10
1085.665625
 20
381.414372
 30
0.0
  0
VERTEX
  5
58D
100
AcDbEntity
  8
001
100
AcDbVertex
100
AcDb2dVertex
 10
1086.228934
 20
380.959843
 30
0.0
  0
VERTEX
  5
58E
100
AcDbEntity
  8
001
100
AcDbVertex
100
AcDb2dVertex
 10
1086.821512
 20
380.508217
 30
0.0
  0
VERTEX
  5
58F
100
AcDbEntity
  8
001
100
AcDbVertex
100
AcDb2dVertex
 10
1087.43885
 20
380.062932
 30
0.0
  0
VERTEX
  5
590
100
AcDbEntity
  8
001
100
AcDbVertex
100
AcDb2dVertex
 10
1088.076249
 20
379.627375
 30
0.0
  0
VERTEX
  5
591
100
AcDbEntity
  8
001
100
AcDbVertex
100
AcDb2dVertex
 10
1088.728859
 20
379.204862
 30
0.0
  0
SEQEND
  5
592
100
AcDbEntity
  8
001
  0
POLYLINE
  5
593
100
AcDbEntity
  8
001
100
AcDb2dPolyline
 66
     1
 10
0.0
 20
0.0
 30
0.0
  0
VERTEX
  5
594
100
AcDbEntity
  8
001
100
AcDbVertex
100
AcDb2dVertex
 10
1083.931072
 20
387.522458
 30
0.0
  0
VERTEX
  5
595
100
AcDbEntity
  8
001
100
AcDbVertex
100
AcDb2dVertex
 10
1083.837514
 20
387.305487
 30
0.0
  0
VERTEX
  5
596
100
AcDbEntity
  8
001
100
AcDbVertex
100
AcDb2dVertex
 10
1083.808987
 20
387.049271
 30
0.0
  0
VERTEX
  5
597
100
AcDbEntity
  8
001
100
AcDbVertex
100
AcDb2dVertex
 10
1083.845734
 20
386.755994
 30
0.0
  0
VERTEX
  5
598
100
AcDbEntity
  8
001
100
AcDbVertex
100
AcDb2dVertex
 10
1083.947441
 20
386.42816
 30
0.0
  0
VERTEX
  5
599
100
AcDbEntity
  8
001
100
AcDbVertex
100
AcDb2dVertex
 10
1084.113242
 20
386.068565
 30
0.0
  0
VERTEX
  5
59A
100
AcDbEntity
  8
001
100
AcDbVertex
100
AcDb2dVertex
 10
1084.34172
 20
385.680277
 30
0.0
  0
VERTEX
  5
59B
100
AcDbEntity
  8
001
100
AcDbVertex
100
AcDb2dVertex
 10
1084.630928
 20
385.266609
 30
0.0
  0
VERTEX
  5
59C
100
AcDbEntity
  8
001
100
AcDbVertex
100
AcDb2dVertex
 10
1084.978397
 20
384.831089
 30
0.0
  0
VERTEX
  5
59D
100
AcDbEntity
  8
001
100
AcDbVertex
100
AcDb2dVertex
 10
1085.381164
 20
384.377435
 30
0.0
  0
VERTEX
  5
59E
100
AcDbEntity
  8
001
100
AcDbVertex
100
AcDb2dVertex
 10
1085.835791
 20
383.909516
 30
0.0
  0
VERTEX
  5
59F
100
AcDbEntity
  8
001
100
AcDbVertex
100
AcDb2dVertex
 10
1086.3384
 20
383.431324
 30
0.0
  0
VERTEX
  5
5A0
100
AcDbEntity
  8
001
100
AcDbVertex
100
AcDb2dVertex
 10
1086.884704
 20
382.946939
 30
0.0
  0
VERTEX
  5
5A1
100
AcDbEntity
  8
001
100
AcDbVertex
100
AcDb2dVertex
 10
1087.47004
 20
382.460494
 30
0.0
  0
VERTEX
  5
5A2
100
AcDbEntity
  8
001
100
AcDbVertex
100
AcDb2dVertex
 10
1088.089416
 20
381.976139
 30
0.0
  0
VERTEX
  5
5A3
100
AcDbEntity
  8
001
100
AcDbVertex
100
AcDb2dVertex
 10
1088.737547
 20
381.498006
 30
0.0
  0
VERTEX
  5
5A4
100
AcDbEntity
  8
001
100
AcDbVertex
100
AcDb2dVertex
 10
1089.408903
 20
381.030174
 30
0.0
  0
VERTEX
  5
5A5
100
AcDbEntity
  8
001
100
AcDbVertex
100
AcDb2dVertex
 10
1090.097756
 20
380.576635
 30
0.0
  0
SEQEND
  5
5A6
100
AcDbEntity
  8
001
  0
POLYLINE
  5
5A7
100
AcDbEntity
  8
001
100
AcDb2dPolyline
 66
     1
 10
0.0
 20
0.0
 30
0.0
  0
VERTEX
  5
5A8
100
AcDbEntity
  8
001
100
AcDbVertex
100
AcDb2dVertex
 10
1093.751612
 20
384.236945
 30
0.0
  0
VERTEX
  5
5A9
100
AcDbEntity
  8
001
100
AcDbVertex
100
AcDb2dVertex
 10
1092.965253
 20
384.727282
 30
0.0
  0
VERTEX
  5
5AA
100
AcDbEntity
  8
001
100
AcDbVertex
100
AcDb2dVertex
 10
1092.173992
 20
385.195288
 30
0.0
  0
VERTEX
  5
5AB
100
AcDbEntity
  8
001
100
AcDbVertex
100
AcDb2dVertex
 10
1091.384579
 20
385.636971
 30
0.0
  0
VERTEX
  5
5AC
100
AcDbEntity
  8
001
100
AcDbVertex
100
AcDb2dVertex
 10
1090.603751
 20
386.048562
 30
0.0
  0
VERTEX
  5
5AD
100
AcDbEntity
  8
001
100
AcDbVertex
100
AcDb2dVertex
 10
1089.838167
 20
386.426549
 30
0.0
  0
VERTEX
  5
5AE
100
AcDbEntity
  8
001
100
AcDbVertex
100
AcDb2dVertex
 10
1089.094361
 20
386.767707
 30
0.0
  0
VERTEX
  5
5AF
100
AcDbEntity
  8
001
100
AcDbVertex
100
AcDb2dVertex
 10
1088.378678
 20
387.069127
 30
0.0
  0
VERTEX
  5
5B0
100
AcDbEntity
  8
001
100
AcDbVertex
100
AcDb2dVertex
 10
1087.697223
 20
387.328236
 30
0.0
  0
VERTEX
  5
5B1
100
AcDbEntity
  8
001
100
AcDbVertex
100
AcDb2dVertex
 10
1087.055812
 20
387.542824
 30
0.0
  0
VERTEX
  5
5B2
100
AcDbEntity
  8
001
100
AcDbVertex
100
AcDb2dVertex
 10
1086.459915
 20
387.711059
 30
0.0
  0
VERTEX
  5
5B3
100
AcDbEntity
  8
001
100
AcDbVertex
100
AcDb2dVertex
 10
1085.914618
 20
387.831507
 30
0.0
  0
VERTEX
  5
5B4
100
AcDbEntity
  8
001
100
AcDbVertex
100
AcDb2dVertex
 10
1085.424572
 20
387.90314
 30
0.0
  0
VERTEX
  5
5B5
100
AcDbEntity
  8
001
100
AcDbVertex
100
AcDb2dVertex
 10
1084.993958
 20
387.925347
 30
0.0
  0
VERTEX
  5
5B6
100
AcDbEntity
  8
001
100
AcDbVertex
100
AcDb2dVertex
 10
1084.626451
 20
387.897938
 30
0.0
  0
VERTEX
  5
5B7
100
AcDbEntity
  8
001
100
AcDbVertex
100
AcDb2dVertex
 10
1084.325185
 20
387.821148
 30
0.0
  0
VERTEX
  5
5B8
100
AcDbEntity
  8
001
100
AcDbVertex
100
AcDb2dVertex
 10
1084.092731
 20
387.695631
 30
0.0
  0
VERTEX
  5
5B9
100
AcDbEntity
  8
001
100
AcDbVertex
100
AcDb2dVertex
 10
1083.931072
 20
387.522458
 30
0.0
  0
SEQEND
  5
5BA
100
AcDbEntity
  8
001
  0
LINE
  5
5BB
100
AcDbEntity
  8
001
100
AcDbLine
 10
1084.015195
 20
387.627691
 30
0.0
 11
1082.61459
 21
386.204591
 31
0.0
  0
POLYLINE
  5
5BC
100
AcDbEntity
  8
001
100
AcDb2dPolyline
 66
     1
 10
0.0
 20
0.0
 30
0.0
  0
VERTEX
  5
5BD
100
AcDbEntity
  8
001
100
AcDbVertex
100
AcDb2dVertex
 10
1082.61459
 20
386.204591
 30
0.0
  0
VERTEX
  5
5BE
100
AcDbEntity
  8
001
100
AcDbVertex
100
AcDb2dVertex
 10
1082.528213
 20
386.095787
 30
0.0
  0
SEQEND
  5
5BF
100
AcDbEntity
  8
001
  0
ARC
  5
5C0
100
AcDbEntity
  8
001
100
AcDbCircle
 10
1055.0
 20
333.5
 30
0.0
 40
63.842971
100
AcDbArc
 50
37.371688
 51
52.628312
  0
ARC
  5
5C1
100
AcDbEntity
  8
001
100
AcDbCircle
 10
1055.0
 20
333.5
 30
0.0
 40
58.720202
100
AcDbArc
 50
36.706191
 51
53.293809
  0
ARC
  5
5C2
100
AcDbEntity
  8
001
100
AcDbCircle
 10
1055.0
 20
333.5
 30
0.0
 40
56.802908
100
AcDbArc
 50
36.426247
 51
53.573753
  0
ARC
  5
5C3
100
AcDbEntity
  8
001
100
AcDbCircle
 10
1055.0
 20
333.5
 30
0.0
 40
63.5
100
AcDbArc
 50
55.690929
 51
85.554006
  0
ARC
  5
5C4
100
AcDbEntity
  8
001
100
AcDbCircle
 10
1055.0
 20
333.5
 30
0.0
 40
63.5
100
AcDbArc
 50
4.445996
 51
34.309071
  0
LINE
  5
5C5
100
AcDbEntity
  8
001
100
AcDbLine
 10
280.0
 20
973.971324
 30
0.0
 11
310.0
 21
973.971324
 31
0.0
  0
LINE
  5
5C6
100
AcDbEntity
  8
001
100
AcDbLine
 10
287.0
 20
966.755664
 30
0.0
 11
303.0
 21
966.755664
 31
0.0
  0
ARC
  5
5C7
100
AcDbEntity
  8
001
100
AcDbCircle
 10
310.0
 20
970.971324
 30
0.0
 40
3.0
100
AcDbArc
 50
0.0
 51
90.0
  0
ARC
  5
5C8
100
AcDbEntity
  8
001
100
AcDbCircle
 10
280.0
 20
970.971324
 30
0.0
 40
3.0
100
AcDbArc
 50
90.0
 51
180.0
  0
ARC
  5
5C9
100
AcDbEntity
  8
001
100
AcDbCircle
 10
303.0
 20
963.755664
 30
0.0
 40
3.0
100
AcDbArc
 50
0.0
 51
90.0
  0
ARC
  5
5CA
100
AcDbEntity
  8
001
100
AcDbCircle
 10
287.0
 20
963.755664
 30
0.0
 40
3.0
100
AcDbArc
 50
90.0
 51
180.0
  0
LINE
  5
5CB
100
AcDbEntity
  8
001
100
AcDbLine
 10
286.0
 20
966.329229
 30
0.0
 11
291.0
 21
966.329229
 31
0.0
  0
ARC
  5
5CC
100
AcDbEntity
  8
001
100
AcDbCircle
 10
291.0
 20
964.329229
 30
0.0
 40
2.0
100
AcDbArc
 50
0.0
 51
90.0
  0
ARC
  5
5CD
100
AcDbEntity
  8
001
100
AcDbCircle
 10
286.0
 20
964.329229
 30
0.0
 40
2.0
100
AcDbArc
 50
90.0
 51
112.922366
  0
LINE
  5
5CE
100
AcDbEntity
  8
001
100
AcDbLine
 10
307.0
 20
955.844494
 30
0.0
 11
312.0
 21
955.844494
 31
0.0
  0
ARC
  5
5CF
100
AcDbEntity
  8
001
100
AcDbCircle
 10
312.0
 20
956.844494
 30
0.0
 40
1.0
100
AcDbArc
 50
270.0
 51
0.0
  0
ARC
  5
5D0
100
AcDbEntity
  8
001
100
AcDbCircle
 10
307.0
 20
956.844494
 30
0.0
 40
1.0
100
AcDbArc
 50
180.0
 51
270.0
  0
LINE
  5
5D1
100
AcDbEntity
  8
001
100
AcDbLine
 10
266.0
 20
950.59738
 30
0.0
 11
274.0
 21
950.59738
 31
0.0
  0
ARC
  5
5D2
100
AcDbEntity
  8
001
100
AcDbCircle
 10
274.0
 20
953.59738
 30
0.0
 40
3.0
100
AcDbArc
 50
270.0
 51
0.0
  0
ARC
  5
5D3
100
AcDbEntity
  8
001
100
AcDbCircle
 10
266.0
 20
945.59738
 30
0.0
 40
5.0
100
AcDbArc
 50
90.0
 51
180.0
  0
LINE
  5
5D4
100
AcDbEntity
  8
001
100
AcDbLine
 10
271.0
 20
943.59738
 30
0.0
 11
279.0
 21
943.59738
 31
0.0
  0
ARC
  5
5D5
100
AcDbEntity
  8
001
100
AcDbCircle
 10
279.0
 20
948.59738
 30
0.0
 40
5.0
100
AcDbArc
 50
270.0
 51
0.0
  0
ARC
  5
5D6
100
AcDbEntity
  8
001
100
AcDbCircle
 10
271.0
 20
938.59738
 30
0.0
 40
5.0
100
AcDbArc
 50
90.0
 51
180.0
  0
LINE
  5
5D7
100
AcDbEntity
  8
001
100
AcDbLine
 10
287.0
 20
827.37488
 30
0.0
 11
312.0
 21
827.37488
 31
0.0
  0
ARC
  5
5D8
100
AcDbEntity
  8
001
100
AcDbCircle
 10
312.0
 20
826.37488
 30
0.0
 40
1.0
100
AcDbArc
 50
0.0
 51
90.0
  0
ARC
  5
5D9
100
AcDbEntity
  8
001
100
AcDbCircle
 10
287.0
 20
830.37488
 30
0.0
 40
3.0
100
AcDbArc
 50
180.0
 51
270.0
  0
LINE
  5
5DA
100
AcDbEntity
  8
001
100
AcDbLine
 10
266.0
 20
832.855322
 30
0.0
 11
274.0
 21
832.855322
 31
0.0
  0
ARC
  5
5DB
100
AcDbEntity
  8
001
100
AcDbCircle
 10
274.0
 20
829.855322
 30
0.0
 40
3.0
100
AcDbArc
 50
0.0
 51
90.0
  0
ARC
  5
5DC
100
AcDbEntity
  8
001
100
AcDbCircle
 10
266.0
 20
837.855322
 30
0.0
 40
5.0
100
AcDbArc
 50
180.0
 51
270.0
  0
LINE
  5
5DD
100
AcDbEntity
  8
001
100
AcDbLine
 10
271.0
 20
839.855322
 30
0.0
 11
279.0
 21
839.855322
 31
0.0
  0
ARC
  5
5DE
100
AcDbEntity
  8
001
100
AcDbCircle
 10
279.0
 20
834.855322
 30
0.0
 40
5.0
100
AcDbArc
 50
0.0
 51
90.0
  0
ARC
  5
5DF
100
AcDbEntity
  8
001
100
AcDbCircle
 10
271.0
 20
844.855322
 30
0.0
 40
5.0
100
AcDbArc
 50
180.0
 51
270.0
  0
LINE
  5
5E0
100
AcDbEntity
  8
001
100
AcDbLine
 10
344.956299
 20
832.837213
 30
0.0
 11
404.796464
 21
828.112999
 31
0.0
  0
LINE
  5
5E1
100
AcDbEntity
  8
001
100
AcDbLine
 10
387.381051
 20
969.179453
 30
0.0
 11
394.0
 21
951.693116
 31
0.0
  0
LINE
  5
5E2
100
AcDbEntity
  8
001
100
AcDbLine
 10
340.251093
 20
968.138802
 30
0.0
 11
334.0
 21
949.12923
 31
0.0
  0
ARC
  5
5E3
100
AcDbEntity
  8
001
100
AcDbCircle
 10
364.0
 20
960.329229
 30
0.0
 40
25.0
100
AcDbArc
 50
20.732717
 51
161.797106
  0
LINE
  5
5E4
100
AcDbEntity
  8
001
100
AcDbLine
 10
343.910217
 20
947.73866
 30
0.0
 11
343.910217
 21
832.919801
 31
0.0
  0
LINE
  5
5E5
100
AcDbEntity
  8
001
100
AcDbLine
 10
387.381051
 20
811.479005
 30
0.0
 11
394.0
 21
828.965342
 31
0.0
  0
ARC
  5
5E6
100
AcDbEntity
  8
001
100
AcDbCircle
 10
364.0
 20
820.329229
 30
0.0
 40
25.0
100
AcDbArc
 50
198.202894
 51
339.267283
  0
LINE
  5
5E7
100
AcDbEntity
  8
001
100
AcDbLine
 10
340.251093
 20
812.519656
 30
0.0
 11
334.0
 21
831.529228
 31
0.0
  0
LINE
  5
5E8
100
AcDbEntity
  8
001
100
AcDbLine
 10
570.644451
 20
940.404088
 30
0.0
 11
574.771439
 21
946.246431
 31
0.0
  0
LINE
  5
5E9
100
AcDbEntity
  8
001
100
AcDbLine
 10
570.644448
 20
840.254358
 30
0.0
 11
574.771439
 21
834.412027
 31
0.0
  0
ARC
  5
5EA
100
AcDbEntity
  8
001
100
AcDbCircle
 10
587.02301
 20
843.066463
 30
0.0
 40
15.0
100
AcDbArc
 50
215.237152
 51
274.513948
  0
LINE
  5
5EB
100
AcDbEntity
  8
001
100
AcDbLine
 10
588.203537
 20
828.112989
 30
0.0
 11
648.043701
 21
832.837213
 31
0.0
  0
LINE
  5
5EC
100
AcDbEntity
  8
001
100
AcDbLine
 10
584.322662
 20
833.468372
 30
0.0
 11
584.322662
 21
947.223657
 31
0.0
  0
ARC
  5
5ED
100
AcDbEntity
  8
001
100
AcDbCircle
 10
648.122391
 20
831.840315
 30
0.0
 40
1.0
100
AcDbArc
 50
20.148486
 51
94.513249
  0
ARC
  5
5EE
100
AcDbEntity
  8
001
100
AcDbCircle
 10
650.0
 20
832.529228
 30
0.0
 40
1.0
100
AcDbArc
 50
200.148684
 51
270.0
  0
LINE
  5
5EF
100
AcDbEntity
  8
001
100
AcDbLine
 10
650.0
 20
831.529228
 30
0.0
 11
671.0
 21
831.529228
 31
0.0
  0
ARC
  5
5F0
100
AcDbEntity
  8
001
100
AcDbCircle
 10
671.0
 20
828.529228
 30
0.0
 40
3.0
100
AcDbArc
 50
0.0
 51
90.0
  0
ARC
  5
5F1
100
AcDbEntity
  8
001
100
AcDbCircle
 10
676.0
 20
827.079229
 30
0.0
 40
2.0
100
AcDbArc
 50
180.0
 51
270.0
  0
LINE
  5
5F2
100
AcDbEntity
  8
001
100
AcDbLine
 10
676.0
 20
825.079229
 30
0.0
 11
686.007949
 21
825.079229
 31
0.0
  0
LINE
  5
5F3
100
AcDbEntity
  8
001
100
AcDbLine
 10
700.0
 20
816.329229
 30
0.0
 11
700.0
 21
823.794698
 31
0.0
  0
ARC
  5
5F4
100
AcDbEntity
  8
001
100
AcDbCircle
 10
697.0
 20
823.794698
 30
0.0
 40
3.0
100
AcDbArc
 50
0.0
 51
107.727752
  0
ARC
  5
5F5
100
AcDbEntity
  8
001
100
AcDbCircle
 10
686.0
 20
858.204228
 30
0.0
 40
33.125
100
AcDbArc
 50
269.986251
 51
288.740663
  0
ARC
  5
5F6
100
AcDbEntity
  8
001
100
AcDbCircle
 10
696.0
 20
828.729398
 30
0.0
 40
2.0
100
AcDbArc
 50
288.74086
 51
0.0
  0
ARC
  5
5F7
100
AcDbEntity
  8
001
100
AcDbCircle
 10
700.0
 20
834.829229
 30
0.0
 40
1.999999
100
AcDbArc
 50
90.0
 51
180.0
  0
LINE
  5
5F8
100
AcDbEntity
  8
001
100
AcDbLine
 10
700.0
 20
836.829229
 30
0.0
 11
707.0
 21
836.829229
 31
0.0
  0
ARC
  5
5F9
100
AcDbEntity
  8
001
100
AcDbCircle
 10
707.0
 20
838.829227
 30
0.0
 40
1.999999
100
AcDbArc
 50
270.0
 51
0.0
  0
ARC
  5
5FA
100
AcDbEntity
  8
001
100
AcDbCircle
 10
587.02301
 20
937.591997
 30
0.0
 40
15.0
100
AcDbArc
 50
85.486051
 51
144.762854
  0
ARC
  5
5FB
100
AcDbEntity
  8
001
100
AcDbCircle
 10
648.122391
 20
948.81814
 30
0.0
 40
1.0
100
AcDbArc
 50
265.486734
 51
339.851822
  0
ARC
  5
5FC
100
AcDbEntity
  8
001
100
AcDbCircle
 10
650.0
 20
948.129228
 30
0.0
 40
1.0
100
AcDbArc
 50
90.0
 51
159.851111
  0
LINE
  5
5FD
100
AcDbEntity
  8
001
100
AcDbLine
 10
650.0
 20
949.129228
 30
0.0
 11
671.0
 21
949.129228
 31
0.0
  0
ARC
  5
5FE
100
AcDbEntity
  8
001
100
AcDbCircle
 10
671.0
 20
952.129228
 30
0.0
 40
3.0
100
AcDbArc
 50
270.0
 51
0.0
  0
ARC
  5
5FF
100
AcDbEntity
  8
001
100
AcDbCircle
 10
676.0
 20
953.579225
 30
0.0
 40
2.0
100
AcDbArc
 50
90.0
 51
180.0
  0
LINE
  5
600
100
AcDbEntity
  8
001
100
AcDbLine
 10
676.0
 20
955.579225
 30
0.0
 11
680.0
 21
955.579225
 31
0.0
  0
ARC
  5
601
100
AcDbEntity
  8
001
100
AcDbCircle
 10
696.0
 20
951.929056
 30
0.0
 40
2.0
100
AcDbArc
 50
0.0
 51
42.629966
  0
ARC
  5
602
100
AcDbEntity
  8
001
100
AcDbCircle
 10
700.0
 20
945.829225
 30
0.0
 40
1.999999
100
AcDbArc
 50
180.0
 51
270.0
  0
LINE
  5
603
100
AcDbEntity
  8
001
100
AcDbLine
 10
700.0
 20
943.829225
 30
0.0
 11
707.0
 21
943.829225
 31
0.0
  0
ARC
  5
604
100
AcDbEntity
  8
001
100
AcDbCircle
 10
707.0
 20
941.829233
 30
0.0
 40
1.999999
100
AcDbArc
 50
0.0
 51
90.0
  0
LINE
  5
605
100
AcDbEntity
  8
001
100
AcDbLine
 10
698.0
 20
828.729398
 30
0.0
 11
698.0
 21
861.829229
 31
0.0
  0
LINE
  5
606
100
AcDbEntity
  8
001
100
AcDbLine
 10
698.0
 20
918.829229
 30
0.0
 11
698.0
 21
951.929056
 31
0.0
  0
LINE
  5
607
100
AcDbEntity
  8
001
100
AcDbLine
 10
727.0
 20
842.061078
 30
0.0
 11
727.0
 21
858.829229
 31
0.0
  0
LINE
  5
608
100
AcDbEntity
  8
001
100
AcDbLine
 10
719.0
 20
826.829229
 30
0.0
 11
727.0
 21
826.829229
 31
0.0
  0
LINE
  5
609
100
AcDbEntity
  8
001
100
AcDbLine
 10
756.853795
 20
835.692074
 30
0.0
 11
727.0
 21
826.829229
 31
0.0
  0
LINE
  5
60A
100
AcDbEntity
  8
001
100
AcDbLine
 10
716.0
 20
827.061078
 30
0.0
 11
716.0
 21
807.329229
 31
0.0
  0
LINE
  5
60B
100
AcDbEntity
  8
001
100
AcDbLine
 10
683.0
 20
804.329229
 30
0.0
 11
713.0
 21
804.329229
 31
0.0
  0
ARC
  5
60C
100
AcDbEntity
  8
001
100
AcDbCircle
 10
719.0
 20
823.829229
 30
0.0
 40
3.0
100
AcDbArc
 50
90.0
 51
180.0
  0
ARC
  5
60D
100
AcDbEntity
  8
001
100
AcDbCircle
 10
713.0
 20
807.329229
 30
0.0
 40
3.0
100
AcDbArc
 50
270.0
 51
0.0
  0
LINE
  5
60E
100
AcDbEntity
  8
001
100
AcDbLine
 10
680.0
 20
825.079229
 30
0.0
 11
680.0
 21
807.329229
 31
0.0
  0
ARC
  5
60F
100
AcDbEntity
  8
001
100
AcDbCircle
 10
683.0
 20
807.329229
 30
0.0
 40
3.0
100
AcDbArc
 50
180.0
 51
270.0
  0
LINE
  5
610
100
AcDbEntity
  8
001
100
AcDbLine
 10
687.0
 20
825.094326
 30
0.0
 11
687.0
 21
816.902794
 31
0.0
  0
ARC
  5
611
100
AcDbEntity
  8
001
100
AcDbCircle
 10
727.0
 20
832.044914
 30
0.0
 40
5.0
100
AcDbArc
 50
286.534838
 51
0.0
  0
LINE
  5
612
100
AcDbEntity
  8
001
100
AcDbLine
 10
680.0
 20
915.829229
 30
0.0
 11
680.0
 21
864.829229
 31
0.0
  0
LINE
  5
613
100
AcDbEntity
  8
001
100
AcDbLine
 10
727.0
 20
935.803136
 30
0.0
 11
727.0
 21
921.829229
 31
0.0
  0
LINE
  5
614
100
AcDbEntity
  8
001
100
AcDbLine
 10
719.0
 20
953.829229
 30
0.0
 11
727.0
 21
953.829229
 31
0.0
  0
LINE
  5
615
100
AcDbEntity
  8
001
100
AcDbLine
 10
756.853795
 20
944.966384
 30
0.0
 11
727.0
 21
953.829229
 31
0.0
  0
LINE
  5
616
100
AcDbEntity
  8
001
100
AcDbLine
 10
716.0
 20
950.803136
 30
0.0
 11
716.0
 21
973.329229
 31
0.0
  0
LINE
  5
617
100
AcDbEntity
  8
001
100
AcDbLine
 10
683.0
 20
976.329229
 30
0.0
 11
713.0
 21
976.329229
 31
0.0
  0
ARC
  5
618
100
AcDbEntity
  8
001
100
AcDbCircle
 10
719.0
 20
956.829229
 30
0.0
 40
3.0
100
AcDbArc
 50
180.0
 51
270.0
  0
ARC
  5
619
100
AcDbEntity
  8
001
100
AcDbCircle
 10
713.0
 20
973.329229
 30
0.0
 40
3.0
100
AcDbArc
 50
0.0
 51
90.0
  0
LINE
  5
61A
100
AcDbEntity
  8
001
100
AcDbLine
 10
680.0
 20
954.283578
 30
0.0
 11
680.0
 21
973.329229
 31
0.0
  0
ARC
  5
61B
100
AcDbEntity
  8
001
100
AcDbCircle
 10
683.0
 20
973.329229
 30
0.0
 40
3.0
100
AcDbArc
 50
90.0
 51
180.0
  0
LINE
  5
61C
100
AcDbEntity
  8
001
100
AcDbLine
 10
709.0
 20
950.283578
 30
0.0
 11
709.0
 21
918.829229
 31
0.0
  0
LINE
  5
61D
100
AcDbEntity
  8
001
100
AcDbLine
 10
683.0
 20
971.46954
 30
0.0
 11
713.0
 21
971.46954
 31
0.0
  0
ARC
  5
61E
100
AcDbEntity
  8
001
100
AcDbCircle
 10
713.0
 20
968.46954
 30
0.0
 40
3.0
100
AcDbArc
 50
0.0
 51
90.0
  0
ARC
  5
61F
100
AcDbEntity
  8
001
100
AcDbCircle
 10
683.0
 20
968.46954
 30
0.0
 40
3.0
100
AcDbArc
 50
90.0
 51
180.0
  0
LINE
  5
620
100
AcDbEntity
  8
001
100
AcDbLine
 10
732.0
 20
921.829229
 30
0.0
 11
732.0
 21
948.613544
 31
0.0
  0
ARC
  5
621
100
AcDbEntity
  8
001
100
AcDbCircle
 10
727.0
 20
948.613544
 30
0.0
 40
5.0
100
AcDbArc
 50
0.0
 51
73.465162
  0
LINE
  5
622
100
AcDbEntity
  8
001
100
AcDbLine
 10
714.763262
 20
886.329229
 30
0.0
 11
756.0
 21
886.329229
 31
0.0
  0
LINE
  5
623
100
AcDbEntity
  8
001
100
AcDbLine
 10
714.763262
 20
894.329229
 30
0.0
 11
756.0
 21
894.329229
 31
0.0
  0
ARC
  5
624
100
AcDbEntity
  8
001
100
AcDbCircle
 10
756.0
 20
838.568015
 30
0.0
 40
3.0
100
AcDbArc
 50
286.534838
 51
0.0
  0
ARC
  5
625
100
AcDbEntity
  8
001
100
AcDbCircle
 10
756.0
 20
942.090443
 30
0.0
 40
3.0
100
AcDbArc
 50
0.0
 51
73.465162
  0
LINE
  5
626
100
AcDbEntity
  8
001
100
AcDbLine
 10
757.763262
 20
836.140896
 30
0.0
 11
714.763262
 21
804.90211
 31
0.0
  0
LINE
  5
627
100
AcDbEntity
  8
001
100
AcDbLine
 10
757.763262
 20
944.517562
 30
0.0
 11
714.763262
 21
975.756348
 31
0.0
  0
ARC
  5
628
100
AcDbEntity
  8
001
100
AcDbCircle
 10
756.0
 20
883.329229
 30
0.0
 40
3.0
100
AcDbArc
 50
0.0
 51
90.0
  0
ARC
  5
629
100
AcDbEntity
  8
001
100
AcDbCircle
 10
756.0
 20
897.329229
 30
0.0
 40
3.0
100
AcDbArc
 50
270.0
 51
0.0
  0
ARC
  5
62A
100
AcDbEntity
  8
001
100
AcDbCircle
 10
719.0
 20
883.329229
 30
0.0
 40
3.0
100
AcDbArc
 50
90.0
 51
180.0
  0
ARC
  5
62B
100
AcDbEntity
  8
001
100
AcDbCircle
 10
719.0
 20
897.329229
 30
0.0
 40
3.0
100
AcDbArc
 50
180.0
 51
270.0
  0
LINE
  5
62C
100
AcDbEntity
  8
001
100
AcDbLine
 10
716.0
 20
915.829229
 30
0.0
 11
716.0
 21
897.329229
 31
0.0
  0
LINE
  5
62D
100
AcDbEntity
  8
001
100
AcDbLine
 10
716.0
 20
864.829229
 30
0.0
 11
716.0
 21
883.329229
 31
0.0
  0
LINE
  5
62E
100
AcDbEntity
  8
001
100
AcDbLine
 10
732.0
 20
897.329229
 30
0.0
 11
732.0
 21
916.633077
 31
0.0
  0
ARC
  5
62F
100
AcDbEntity
  8
001
100
AcDbCircle
 10
735.0
 20
883.329229
 30
0.0
 40
3.0
100
AcDbArc
 50
90.0
 51
180.0
  0
ARC
  5
630
100
AcDbEntity
  8
001
100
AcDbCircle
 10
735.0
 20
897.329229
 30
0.0
 40
3.0
100
AcDbArc
 50
180.0
 51
270.0
  0
LINE
  5
631
100
AcDbEntity
  8
001
100
AcDbLine
 10
671.0
 20
909.079229
 30
0.0
 11
671.0
 21
904.079229
 31
0.0
  0
LINE
  5
632
100
AcDbEntity
  8
001
100
AcDbLine
 10
718.0
 20
901.579229
 30
0.0
 11
716.0
 21
901.579229
 31
0.0
  0
LINE
  5
633
100
AcDbEntity
  8
001
100
AcDbLine
 10
718.0
 20
911.579229
 30
0.0
 11
716.0
 21
911.579229
 31
0.0
  0
LINE
  5
634
100
AcDbEntity
  8
001
100
AcDbLine
 10
718.0
 20
911.579229
 30
0.0
 11
718.0
 21
901.579229
 31
0.0
  0
LINE
  5
635
100
AcDbEntity
  8
001
100
AcDbLine
 10
671.0
 20
909.079229
 30
0.0
 11
680.0
 21
909.079229
 31
0.0
  0
LINE
  5
636
100
AcDbEntity
  8
001
100
AcDbLine
 10
671.0
 20
904.079229
 30
0.0
 11
680.0
 21
904.079229
 31
0.0
  0
LINE
  5
637
100
AcDbEntity
  8
001
  6
CENTER
100
AcDbLine
 10
723.0
 20
906.579229
 30
0.0
 11
666.0
 21
906.579229
 31
0.0
  0
POLYLINE
  5
638
100
AcDbEntity
  8
001
100
AcDb2dPolyline
 66
     1
 10
0.0
 20
0.0
 30
0.0
  0
VERTEX
  5
639
100
AcDbEntity
  8
001
100
AcDbVertex
100
AcDb2dVertex
 10
732.302982
 20
927.713892
 30
0.0
  0
VERTEX
  5
63A
100
AcDbEntity
  8
001
100
AcDbVertex
100
AcDb2dVertex
 10
732.335813
 20
926.844467
 30
0.0
  0
VERTEX
  5
63B
100
AcDbEntity
  8
001
100
AcDbVertex
100
AcDb2dVertex
 10
732.434058
 20
925.981658
 30
0.0
  0
VERTEX
  5
63C
100
AcDbEntity
  8
001
100
AcDbVertex
100
AcDb2dVertex
 10
732.596968
 20
925.132032
 30
0.0
  0
VERTEX
  5
63D
100
AcDbEntity
  8
001
100
AcDbVertex
100
AcDb2dVertex
 10
732.823303
 20
924.302056
 30
0.0
  0
VERTEX
  5
63E
100
AcDbEntity
  8
001
100
AcDbVertex
100
AcDb2dVertex
 10
733.111341
 20
923.498046
 30
0.0
  0
VERTEX
  5
63F
100
AcDbEntity
  8
001
100
AcDbVertex
100
AcDb2dVertex
 10
733.458891
 20
922.726121
 30
0.0
  0
VERTEX
  5
640
100
AcDbEntity
  8
001
100
AcDbVertex
100
AcDb2dVertex
 10
733.863306
 20
921.992156
 30
0.0
  0
VERTEX
  5
641
100
AcDbEntity
  8
001
100
AcDbVertex
100
AcDb2dVertex
 10
734.321508
 20
921.301738
 30
0.0
  0
VERTEX
  5
642
100
AcDbEntity
  8
001
100
AcDbVertex
100
AcDb2dVertex
 10
734.830012
 20
920.660119
 30
0.0
  0
VERTEX
  5
643
100
AcDbEntity
  8
001
100
AcDbVertex
100
AcDb2dVertex
 10
735.384946
 20
920.072184
 30
0.0
  0
VERTEX
  5
644
100
AcDbEntity
  8
001
100
AcDbVertex
100
AcDb2dVertex
 10
735.982088
 20
919.542407
 30
0.0
  0
VERTEX
  5
645
100
AcDbEntity
  8
001
100
AcDbVertex
100
AcDb2dVertex
 10
736.616893
 20
919.07482
 30
0.0
  0
VERTEX
  5
646
100
AcDbEntity
  8
001
100
AcDbVertex
100
AcDb2dVertex
 10
737.284528
 20
918.672981
 30
0.0
  0
VERTEX
  5
647
100
AcDbEntity
  8
001
100
AcDbVertex
100
AcDb2dVertex
 10
737.979915
 20
918.339949
 30
0.0
  0
VERTEX
  5
648
100
AcDbEntity
  8
001
100
AcDbVertex
100
AcDb2dVertex
 10
738.697759
 20
918.078259
 30
0.0
  0
VERTEX
  5
649
100
AcDbEntity
  8
001
100
AcDbVertex
100
AcDb2dVertex
 10
739.432598
 20
917.889901
 30
0.0
  0
VERTEX
  5
64A
100
AcDbEntity
  8
001
100
AcDbVertex
100
AcDb2dVertex
 10
740.178839
 20
917.77631
 30
0.0
  0
VERTEX
  5
64B
100
AcDbEntity
  8
001
100
AcDbVertex
100
AcDb2dVertex
 10
740.930803
 20
917.73835
 30
0.0
  0
SEQEND
  5
64C
100
AcDbEntity
  8
001
  0
LINE
  5
64D
100
AcDbEntity
  8
001
100
AcDbLine
 10
750.127822
 20
937.405864
 30
0.0
 11
750.127822
 21
925.426985
 31
0.0
  0
LINE
  5
64E
100
AcDbEntity
  8
001
100
AcDbLine
 10
732.872178
 20
941.066174
 30
0.0
 11
732.872178
 21
929.080841
 31
0.0
  0
POLYLINE
  5
64F
100
AcDbEntity
  8
001
100
AcDb2dPolyline
 66
     1
 10
0.0
 20
0.0
 30
0.0
  0
VERTEX
  5
650
100
AcDbEntity
  8
001
100
AcDbVertex
100
AcDb2dVertex
 10
750.127822
 20
937.405864
 30
0.0
  0
VERTEX
  5
651
100
AcDbEntity
  8
001
100
AcDbVertex
100
AcDb2dVertex
 10
750.09499
 20
938.046353
 30
0.0
  0
VERTEX
  5
652
100
AcDbEntity
  8
001
100
AcDbVertex
100
AcDb2dVertex
 10
749.996746
 20
938.681967
 30
0.0
  0
VERTEX
  5
653
100
AcDbEntity
  8
001
100
AcDbVertex
100
AcDb2dVertex
 10
749.833836
 20
939.307869
 30
0.0
  0
VERTEX
  5
654
100
AcDbEntity
  8
001
100
AcDbVertex
100
AcDb2dVertex
 10
749.6075
 20
939.919295
 30
0.0
  0
VERTEX
  5
655
100
AcDbEntity
  8
001
100
AcDbVertex
100
AcDb2dVertex
 10
749.319462
 20
940.511593
 30
0.0
  0
VERTEX
  5
656
100
AcDbEntity
  8
001
100
AcDbVertex
100
AcDb2dVertex
 10
748.971913
 20
941.080254
 30
0.0
  0
VERTEX
  5
657
100
AcDbEntity
  8
001
100
AcDbVertex
100
AcDb2dVertex
 10
748.567498
 20
941.620951
 30
0.0
  0
VERTEX
  5
658
100
AcDbEntity
  8
001
100
AcDbVertex
100
AcDb2dVertex
 10
748.109295
 20
942.129569
 30
0.0
  0
VERTEX
  5
659
100
AcDbEntity
  8
001
100
AcDbVertex
100
AcDb2dVertex
 10
747.600791
 20
942.602237
 30
0.0
  0
VERTEX
  5
65A
100
AcDbEntity
  8
001
100
AcDbVertex
100
AcDb2dVertex
 10
747.045857
 20
943.035357
 30
0.0
  0
VERTEX
  5
65B
100
AcDbEntity
  8
001
100
AcDbVertex
100
AcDb2dVertex
 10
746.448715
 20
943.425633
 30
0.0
  0
VERTEX
  5
65C
100
AcDbEntity
  8
001
100
AcDbVertex
100
AcDb2dVertex
 10
745.813911
 20
943.770095
 30
0.0
  0
VERTEX
  5
65D
100
AcDbEntity
  8
001
100
AcDbVertex
100
AcDb2dVertex
 10
745.146275
 20
944.066121
 30
0.0
  0
VERTEX
  5
65E
100
AcDbEntity
  8
001
100
AcDbVertex
100
AcDb2dVertex
 10
744.450889
 20
944.311459
 30
0.0
  0
VERTEX
  5
65F
100
AcDbEntity
  8
001
100
AcDbVertex
100
AcDb2dVertex
 10
743.733045
 20
944.504241
 30
0.0
  0
VERTEX
  5
660
100
AcDbEntity
  8
001
100
AcDbVertex
100
AcDb2dVertex
 10
742.998206
 20
944.643
 30
0.0
  0
VERTEX
  5
661
100
AcDbEntity
  8
001
100
AcDbVertex
100
AcDb2dVertex
 10
742.251964
 20
944.72668
 30
0.0
  0
VERTEX
  5
662
100
AcDbEntity
  8
001
100
AcDbVertex
100
AcDb2dVertex
 10
741.5
 20
944.754644
 30
0.0
  0
SEQEND
  5
663
100
AcDbEntity
  8
001
  0
POLYLINE
  5
664
100
AcDbEntity
  8
001
100
AcDb2dPolyline
 66
     1
 10
0.0
 20
0.0
 30
0.0
  0
VERTEX
  5
665
100
AcDbEntity
  8
001
100
AcDbVertex
100
AcDb2dVertex
 10
732.872178
 20
929.080841
 30
0.0
  0
VERTEX
  5
666
100
AcDbEntity
  8
001
100
AcDbVertex
100
AcDb2dVertex
 10
732.90501
 20
928.214272
 30
0.0
  0
VERTEX
  5
667
100
AcDbEntity
  8
001
100
AcDbVertex
100
AcDb2dVertex
 10
733.003254
 20
927.354299
 30
0.0
  0
VERTEX
  5
668
100
AcDbEntity
  8
001
100
AcDbVertex
100
AcDb2dVertex
 10
733.166164
 20
926.507466
 30
0.0
  0
VERTEX
  5
669
100
AcDbEntity
  8
001
100
AcDbVertex
100
AcDb2dVertex
 10
733.3925
 20
925.680218
 30
0.0
  0
VERTEX
  5
66A
100
AcDbEntity
  8
001
100
AcDbVertex
100
AcDb2dVertex
 10
733.680538
 20
924.878851
 30
0.0
  0
VERTEX
  5
66B
100
AcDbEntity
  8
001
100
AcDbVertex
100
AcDb2dVertex
 10
734.028087
 20
924.109463
 30
0.0
  0
VERTEX
  5
66C
100
AcDbEntity
  8
001
100
AcDbVertex
100
AcDb2dVertex
 10
734.432502
 20
923.377911
 30
0.0
  0
VERTEX
  5
66D
100
AcDbEntity
  8
001
100
AcDbVertex
100
AcDb2dVertex
 10
734.890705
 20
922.689761
 30
0.0
  0
VERTEX
  5
66E
100
AcDbEntity
  8
001
100
AcDbVertex
100
AcDb2dVertex
 10
735.399209
 20
922.050251
 30
0.0
  0
VERTEX
  5
66F
100
AcDbEntity
  8
001
100
AcDbVertex
100
AcDb2dVertex
 10
735.954143
 20
921.464249
 30
0.0
  0
VERTEX
  5
670
100
AcDbEntity
  8
001
100
AcDbVertex
100
AcDb2dVertex
 10
736.551285
 20
920.936213
 30
0.0
  0
VERTEX
  5
671
100
AcDbEntity
  8
001
100
AcDbVertex
100
AcDb2dVertex
 10
737.186089
 20
920.470163
 30
0.0
  0
VERTEX
  5
672
100
AcDbEntity
  8
001
100
AcDbVertex
100
AcDb2dVertex
 10
737.853725
 20
920.069645
 30
0.0
  0
VERTEX
  5
673
100
AcDbEntity
  8
001
100
AcDbVertex
100
AcDb2dVertex
 10
738.549111
 20
919.737708
 30
0.0
  0
VERTEX
  5
674
100
AcDbEntity
  8
001
100
AcDbVertex
100
AcDb2dVertex
 10
739.266955
 20
919.476877
 30
0.0
  0
VERTEX
  5
675
100
AcDbEntity
  8
001
100
AcDbVertex
100
AcDb2dVertex
 10
740.001794
 20
919.289139
 30
0.0
  0
VERTEX
  5
676
100
AcDbEntity
  8
001
100
AcDbVertex
100
AcDb2dVertex
 10
740.748036
 20
919.175921
 30
0.0
  0
VERTEX
  5
677
100
AcDbEntity
  8
001
100
AcDbVertex
100
AcDb2dVertex
 10
741.5
 20
919.138086
 30
0.0
  0
SEQEND
  5
678
100
AcDbEntity
  8
001
  0
POLYLINE
  5
679
100
AcDbEntity
  8
001
100
AcDb2dPolyline
 66
     1
 10
0.0
 20
0.0
 30
0.0
  0
VERTEX
  5
67A
100
AcDbEntity
  8
001
100
AcDbVertex
100
AcDb2dVertex
 10
741.5
 20
944.754644
 30
0.0
  0
VERTEX
  5
67B
100
AcDbEntity
  8
001
100
AcDbVertex
100
AcDb2dVertex
 10
740.748036
 20
944.740609
 30
0.0
  0
VERTEX
  5
67C
100
AcDbEntity
  8
001
100
AcDbVertex
100
AcDb2dVertex
 10
740.001794
 20
944.698608
 30
0.0
  0
VERTEX
  5
67D
100
AcDbEntity
  8
001
100
AcDbVertex
100
AcDb2dVertex
 10
739.266955
 20
944.628963
 30
0.0
  0
VERTEX
  5
67E
100
AcDbEntity
  8
001
100
AcDbVertex
100
AcDb2dVertex
 10
738.549111
 20
944.532202
 30
0.0
  0
VERTEX
  5
67F
100
AcDbEntity
  8
001
100
AcDbVertex
100
AcDb2dVertex
 10
737.853725
 20
944.409063
 30
0.0
  0
VERTEX
  5
680
100
AcDbEntity
  8
001
100
AcDbVertex
100
AcDb2dVertex
 10
737.186089
 20
944.260483
 30
0.0
  0
VERTEX
  5
681
100
AcDbEntity
  8
001
100
AcDbVertex
100
AcDb2dVertex
 10
736.551285
 20
944.087592
 30
0.0
  0
VERTEX
  5
682
100
AcDbEntity
  8
001
100
AcDbVertex
100
AcDb2dVertex
 10
735.954143
 20
943.891706
 30
0.0
  0
VERTEX
  5
683
100
AcDbEntity
  8
001
100
AcDbVertex
100
AcDb2dVertex
 10
735.399209
 20
943.674316
 30
0.0
  0
VERTEX
  5
684
100
AcDbEntity
  8
001
100
AcDbVertex
100
AcDb2dVertex
 10
734.890705
 20
943.437077
 30
0.0
  0
VERTEX
  5
685
100
AcDbEntity
  8
001
100
AcDbVertex
100
AcDb2dVertex
 10
734.432502
 20
943.181794
 30
0.0
  0
VERTEX
  5
686
100
AcDbEntity
  8
001
100
AcDbVertex
100
AcDb2dVertex
 10
734.028087
 20
942.910409
 30
0.0
  0
VERTEX
  5
687
100
AcDbEntity
  8
001
100
AcDbVertex
100
AcDb2dVertex
 10
733.680538
 20
942.624989
 30
0.0
  0
VERTEX
  5
688
100
AcDbEntity
  8
001
100
AcDbVertex
100
AcDb2dVertex
 10
733.3925
 20
942.327705
 30
0.0
  0
VERTEX
  5
689
100
AcDbEntity
  8
001
100
AcDbVertex
100
AcDb2dVertex
 10
733.166164
 20
942.02082
 30
0.0
  0
VERTEX
  5
68A
100
AcDbEntity
  8
001
100
AcDbVertex
100
AcDb2dVertex
 10
733.003254
 20
941.70667
 30
0.0
  0
VERTEX
  5
68B
100
AcDbEntity
  8
001
100
AcDbVertex
100
AcDb2dVertex
 10
732.90501
 20
941.387645
 30
0.0
  0
VERTEX
  5
68C
100
AcDbEntity
  8
001
100
AcDbVertex
100
AcDb2dVertex
 10
732.872178
 20
941.066174
 30
0.0
  0
SEQEND
  5
68D
100
AcDbEntity
  8
001
  0
LINE
  5
68E
100
AcDbEntity
  8
001
100
AcDbLine
 10
733.003626
 20
941.707572
 30
0.0
 11
732.430882
 21
940.320952
 31
0.0
  0
POLYLINE
  5
68F
100
AcDbEntity
  8
001
100
AcDb2dPolyline
 66
     1
 10
0.0
 20
0.0
 30
0.0
  0
VERTEX
  5
690
100
AcDbEntity
  8
001
100
AcDbVertex
100
AcDb2dVertex
 10
741.5
 20
919.138086
 30
0.0
  0
VERTEX
  5
691
100
AcDbEntity
  8
001
100
AcDbVertex
100
AcDb2dVertex
 10
742.251964
 20
919.162017
 30
0.0
  0
VERTEX
  5
692
100
AcDbEntity
  8
001
100
AcDbVertex
100
AcDb2dVertex
 10
742.998206
 20
919.233629
 30
0.0
  0
VERTEX
  5
693
100
AcDbEntity
  8
001
100
AcDbVertex
100
AcDb2dVertex
 10
743.733045
 20
919.352375
 30
0.0
  0
VERTEX
  5
694
100
AcDbEntity
  8
001
100
AcDbVertex
100
AcDb2dVertex
 10
744.450889
 20
919.517353
 30
0.0
  0
VERTEX
  5
695
100
AcDbEntity
  8
001
100
AcDbVertex
100
AcDb2dVertex
 10
745.146275
 20
919.727307
 30
0.0
  0
VERTEX
  5
696
100
AcDbEntity
  8
001
100
AcDbVertex
100
AcDb2dVertex
 10
745.813911
 20
919.980639
 30
0.0
  0
VERTEX
  5
697
100
AcDbEntity
  8
001
100
AcDbVertex
100
AcDb2dVertex
 10
746.448715
 20
920.275421
 30
0.0
  0
VERTEX
  5
698
100
AcDbEntity
  8
001
100
AcDbVertex
100
AcDb2dVertex
 10
747.045857
 20
920.609409
 30
0.0
  0
VERTEX
  5
699
100
AcDbEntity
  8
001
100
AcDbVertex
100
AcDb2dVertex
 10
747.600791
 20
920.980062
 30
0.0
  0
VERTEX
  5
69A
100
AcDbEntity
  8
001
100
AcDbVertex
100
AcDb2dVertex
 10
748.109295
 20
921.384559
 30
0.0
  0
VERTEX
  5
69B
100
AcDbEntity
  8
001
100
AcDbVertex
100
AcDb2dVertex
 10
748.567498
 20
921.819821
 30
0.0
  0
VERTEX
  5
69C
100
AcDbEntity
  8
001
100
AcDbVertex
100
AcDb2dVertex
 10
748.971913
 20
922.282536
 30
0.0
  0
VERTEX
  5
69D
100
AcDbEntity
  8
001
100
AcDbVertex
100
AcDb2dVertex
 10
749.319462
 20
922.769182
 30
0.0
  0
VERTEX
  5
69E
100
AcDbEntity
  8
001
100
AcDbVertex
100
AcDb2dVertex
 10
749.6075
 20
923.276055
 30
0.0
  0
VERTEX
  5
69F
100
AcDbEntity
  8
001
100
AcDbVertex
100
AcDb2dVertex
 10
749.833836
 20
923.799299
 30
0.0
  0
VERTEX
  5
6A0
100
AcDbEntity
  8
001
100
AcDbVertex
100
AcDb2dVertex
 10
749.996746
 20
924.33493
 30
0.0
  0
VERTEX
  5
6A1
100
AcDbEntity
  8
001
100
AcDbVertex
100
AcDb2dVertex
 10
750.09499
 20
924.878872
 30
0.0
  0
VERTEX
  5
6A2
100
AcDbEntity
  8
001
100
AcDbVertex
100
AcDb2dVertex
 10
750.127822
 20
925.426985
 30
0.0
  0
SEQEND
  5
6A3
100
AcDbEntity
  8
001
  0
POLYLINE
  5
6A4
100
AcDbEntity
  8
001
100
AcDb2dPolyline
 66
     1
 10
0.0
 20
0.0
 30
0.0
  0
VERTEX
  5
6A5
100
AcDbEntity
  8
001
100
AcDbVertex
100
AcDb2dVertex
 10
740.930803
 20
917.73835
 30
0.0
  0
VERTEX
  5
6A6
100
AcDbEntity
  8
001
100
AcDbVertex
100
AcDb2dVertex
 10
741.716665
 20
917.76462
 30
0.0
  0
VERTEX
  5
6A7
100
AcDbEntity
  8
001
100
AcDbVertex
100
AcDb2dVertex
 10
742.495994
 20
917.843213
 30
0.0
  0
VERTEX
  5
6A8
100
AcDbEntity
  8
001
100
AcDbVertex
100
AcDb2dVertex
 10
743.26231
 20
917.973473
 30
0.0
  0
VERTEX
  5
6A9
100
AcDbEntity
  8
001
100
AcDbVertex
100
AcDb2dVertex
 10
744.009242
 20
918.154319
 30
0.0
  0
VERTEX
  5
6AA
100
AcDbEntity
  8
001
100
AcDbVertex
100
AcDb2dVertex
 10
744.730582
 20
918.384248
 30
0.0
  0
VERTEX
  5
6AB
100
AcDbEntity
  8
001
100
AcDbVertex
100
AcDb2dVertex
 10
745.420331
 20
918.661346
 30
0.0
  0
VERTEX
  5
6AC
100
AcDbEntity
  8
001
100
AcDbVertex
100
AcDb2dVertex
 10
746.072756
 20
918.983312
 30
0.0
  0
VERTEX
  5
6AD
100
AcDbEntity
  8
001
100
AcDbVertex
100
AcDb2dVertex
 10
746.682432
 20
919.347468
 30
0.0
  0
VERTEX
  5
6AE
100
AcDbEntity
  8
001
100
AcDbVertex
100
AcDb2dVertex
 10
747.24429
 20
919.750786
 30
0.0
  0
VERTEX
  5
6AF
100
AcDbEntity
  8
001
100
AcDbVertex
100
AcDb2dVertex
 10
747.753661
 20
920.189914
 30
0.0
  0
VERTEX
  5
6B0
100
AcDbEntity
  8
001
100
AcDbVertex
100
AcDb2dVertex
 10
748.206308
 20
920.661201
 30
0.0
  0
VERTEX
  5
6B1
100
AcDbEntity
  8
001
100
AcDbVertex
100
AcDb2dVertex
 10
748.598469
 20
921.160728
 30
0.0
  0
VERTEX
  5
6B2
100
AcDbEntity
  8
001
100
AcDbVertex
100
AcDb2dVertex
 10
748.926884
 20
921.684343
 30
0.0
  0
VERTEX
  5
6B3
100
AcDbEntity
  8
001
100
AcDbVertex
100
AcDb2dVertex
 10
749.188822
 20
922.227693
 30
0.0
  0
SEQEND
  5
6B4
100
AcDbEntity
  8
001
  0
LINE
  5
6B5
100
AcDbEntity
  8
001
100
AcDbLine
 10
749.761392
 20
923.61367
 30
0.0
 11
749.188822
 21
922.227693
 31
0.0
  0
LINE
  5
6B6
100
AcDbEntity
  8
001
100
AcDbLine
 10
732.0
 20
858.829229
 30
0.0
 11
732.0
 21
832.044914
 31
0.0
  0
LINE
  5
6B7
100
AcDbEntity
  8
001
100
AcDbLine
 10
732.0
 20
883.329229
 30
0.0
 11
732.0
 21
864.025381
 31
0.0
  0
LINE
  5
6B8
100
AcDbEntity
  8
001
100
AcDbLine
 10
732.302982
 20
939.696996
 30
0.0
 11
732.302982
 21
927.713892
 31
0.0
  0
POLYLINE
  5
6B9
100
AcDbEntity
  8
001
100
AcDb2dPolyline
 66
     1
 10
0.0
 20
0.0
 30
0.0
  0
VERTEX
  5
6BA
100
AcDbEntity
  8
001
100
AcDbVertex
100
AcDb2dVertex
 10
732.430882
 20
940.320952
 30
0.0
  0
VERTEX
  5
6BB
100
AcDbEntity
  8
001
100
AcDbVertex
100
AcDb2dVertex
 10
732.302982
 20
939.696996
 30
0.0
  0
SEQEND
  5
6BC
100
AcDbEntity
  8
001
  0
LINE
  5
6BD
100
AcDbEntity
  8
001
100
AcDbLine
 10
729.0
 20
918.829229
 30
0.0
 11
683.0
 21
918.829229
 31
0.0
  0
LINE
  5
6BE
100
AcDbEntity
  8
001
100
AcDbLine
 10
729.0
 20
861.829229
 30
0.0
 11
683.0
 21
861.829229
 31
0.0
  0
ARC
  5
6BF
100
AcDbEntity
  8
001
100
AcDbCircle
 10
683.0
 20
864.829229
 30
0.0
 40
3.0
100
AcDbArc
 50
180.0
 51
270.0
  0
ARC
  5
6C0
100
AcDbEntity
  8
001
100
AcDbCircle
 10
713.0
 20
864.829229
 30
0.0
 40
3.0
100
AcDbArc
 50
270.0
 51
0.0
  0
ARC
  5
6C1
100
AcDbEntity
  8
001
100
AcDbCircle
 10
724.0
 20
858.829229
 30
0.0
 40
3.0
100
AcDbArc
 50
0.0
 51
90.0
  0
ARC
  5
6C2
100
AcDbEntity
  8
001
100
AcDbCircle
 10
729.0
 20
858.829229
 30
0.0
 40
3.0
100
AcDbArc
 50
0.0
 51
90.0
  0
ARC
  5
6C3
100
AcDbEntity
  8
001
100
AcDbCircle
 10
683.0
 20
915.829229
 30
0.0
 40
3.0
100
AcDbArc
 50
90.0
 51
180.0
  0
ARC
  5
6C4
100
AcDbEntity
  8
001
100
AcDbCircle
 10
713.0
 20
915.829229
 30
0.0
 40
3.0
100
AcDbArc
 50
0.0
 51
90.0
  0
ARC
  5
6C5
100
AcDbEntity
  8
001
100
AcDbCircle
 10
724.0
 20
921.829229
 30
0.0
 40
3.0
100
AcDbArc
 50
270.0
 51
0.0
  0
ARC
  5
6C6
100
AcDbEntity
  8
001
100
AcDbCircle
 10
729.0
 20
921.829229
 30
0.0
 40
3.0
100
AcDbArc
 50
270.0
 51
0.0
  0
LINE
  5
6C7
100
AcDbEntity
  8
001
100
AcDbLine
 10
674.0
 20
827.079229
 30
0.0
 11
674.0
 21
904.079229
 31
0.0
  0
LINE
  5
6C8
100
AcDbEntity
  8
001
100
AcDbLine
 10
674.0
 20
909.079229
 30
0.0
 11
674.0
 21
953.579225
 31
0.0
  0
LINE
  5
6C9
100
AcDbEntity
  8
001
100
AcDbLine
 10
709.0
 20
816.902794
 30
0.0
 11
709.0
 21
861.829229
 31
0.0
  0
LINE
  5
6CA
100
AcDbEntity
  8
001
100
AcDbLine
 10
713.0
 20
806.687134
 30
0.0
 11
683.0
 21
806.687134
 31
0.0
  0
LINE
  5
6CB
100
AcDbEntity
  8
001
100
AcDbLine
 10
706.0
 20
813.902794
 30
0.0
 11
690.0
 21
813.902794
 31
0.0
  0
ARC
  5
6CC
100
AcDbEntity
  8
001
100
AcDbCircle
 10
683.0
 20
809.687134
 30
0.0
 40
3.0
100
AcDbArc
 50
180.0
 51
270.0
  0
ARC
  5
6CD
100
AcDbEntity
  8
001
100
AcDbCircle
 10
713.0
 20
809.687134
 30
0.0
 40
3.0
100
AcDbArc
 50
270.0
 51
0.0
  0
ARC
  5
6CE
100
AcDbEntity
  8
001
100
AcDbCircle
 10
690.0
 20
816.902794
 30
0.0
 40
3.0
100
AcDbArc
 50
180.0
 51
270.0
  0
ARC
  5
6CF
100
AcDbEntity
  8
001
100
AcDbCircle
 10
706.0
 20
816.902794
 30
0.0
 40
3.0
100
AcDbArc
 50
270.0
 51
0.0
  0
LINE
  5
6D0
100
AcDbEntity
  8
001
100
AcDbLine
 10
707.0
 20
814.329229
 30
0.0
 11
702.0
 21
814.329229
 31
0.0
  0
ARC
  5
6D1
100
AcDbEntity
  8
001
100
AcDbCircle
 10
702.0
 20
816.329229
 30
0.0
 40
2.0
100
AcDbArc
 50
180.0
 51
270.0
  0
ARC
  5
6D2
100
AcDbEntity
  8
001
100
AcDbCircle
 10
707.0
 20
816.329229
 30
0.0
 40
2.0
100
AcDbArc
 50
270.0
 51
292.922366
  0
LINE
  5
6D3
100
AcDbEntity
  8
001
100
AcDbLine
 10
686.0
 20
824.813964
 30
0.0
 11
681.0
 21
824.813964
 31
0.0
  0
ARC
  5
6D4
100
AcDbEntity
  8
001
100
AcDbCircle
 10
681.0
 20
823.813964
 30
0.0
 40
1.0
100
AcDbArc
 50
90.0
 51
180.0
  0
ARC
  5
6D5
100
AcDbEntity
  8
001
100
AcDbCircle
 10
686.0
 20
823.813964
 30
0.0
 40
1.0
100
AcDbArc
 50
0.0
 51
90.0
  0
LINE
  5
6D6
100
AcDbEntity
  8
001
100
AcDbLine
 10
727.0
 20
830.061078
 30
0.0
 11
719.0
 21
830.061078
 31
0.0
  0
ARC
  5
6D7
100
AcDbEntity
  8
001
100
AcDbCircle
 10
719.0
 20
827.061078
 30
0.0
 40
3.0
100
AcDbArc
 50
90.0
 51
180.0
  0
ARC
  5
6D8
100
AcDbEntity
  8
001
100
AcDbCircle
 10
727.0
 20
835.061078
 30
0.0
 40
5.0
100
AcDbArc
 50
270.0
 51
0.0
  0
LINE
  5
6D9
100
AcDbEntity
  8
001
100
AcDbLine
 10
722.0
 20
837.061078
 30
0.0
 11
714.0
 21
837.061078
 31
0.0
  0
ARC
  5
6DA
100
AcDbEntity
  8
001
100
AcDbCircle
 10
714.0
 20
832.061078
 30
0.0
 40
5.0
100
AcDbArc
 50
90.0
 51
180.0
  0
ARC
  5
6DB
100
AcDbEntity
  8
001
100
AcDbCircle
 10
722.0
 20
842.061078
 30
0.0
 40
5.0
100
AcDbArc
 50
270.0
 51
0.0
  0
LINE
  5
6DC
100
AcDbEntity
  8
001
100
AcDbLine
 10
706.0
 20
953.283578
 30
0.0
 11
681.0
 21
953.283578
 31
0.0
  0
ARC
  5
6DD
100
AcDbEntity
  8
001
100
AcDbCircle
 10
681.0
 20
954.283578
 30
0.0
 40
1.0
100
AcDbArc
 50
180.0
 51
270.0
  0
ARC
  5
6DE
100
AcDbEntity
  8
001
100
AcDbCircle
 10
706.0
 20
950.283578
 30
0.0
 40
3.0
100
AcDbArc
 50
0.0
 51
90.0
  0
LINE
  5
6DF
100
AcDbEntity
  8
001
100
AcDbLine
 10
727.0
 20
947.803136
 30
0.0
 11
719.0
 21
947.803136
 31
0.0
  0
ARC
  5
6E0
100
AcDbEntity
  8
001
100
AcDbCircle
 10
719.0
 20
950.803136
 30
0.0
 40
3.0
100
AcDbArc
 50
180.0
 51
270.0
  0
ARC
  5
6E1
100
AcDbEntity
  8
001
100
AcDbCircle
 10
727.0
 20
942.803136
 30
0.0
 40
5.0
100
AcDbArc
 50
0.0
 51
90.0
  0
LINE
  5
6E2
100
AcDbEntity
  8
001
100
AcDbLine
 10
722.0
 20
940.803136
 30
0.0
 11
714.0
 21
940.803136
 31
0.0
  0
ARC
  5
6E3
100
AcDbEntity
  8
001
100
AcDbCircle
 10
714.0
 20
945.803136
 30
0.0
 40
5.0
100
AcDbArc
 50
180.0
 51
270.0
  0
ARC
  5
6E4
100
AcDbEntity
  8
001
100
AcDbCircle
 10
722.0
 20
935.803136
 30
0.0
 40
5.0
100
AcDbArc
 50
0.0
 51
90.0
  0
LINE
  5
6E5
100
AcDbEntity
  8
001
100
AcDbLine
 10
648.043701
 20
947.821245
 30
0.0
 11
588.203536
 21
952.545459
 31
0.0
  0
LINE
  5
6E6
100
AcDbEntity
  8
001
100
AcDbLine
 10
605.618949
 20
811.479005
 30
0.0
 11
599.0
 21
828.965342
 31
0.0
  0
LINE
  5
6E7
100
AcDbEntity
  8
001
100
AcDbLine
 10
652.748907
 20
812.519656
 30
0.0
 11
659.0
 21
831.529228
 31
0.0
  0
ARC
  5
6E8
100
AcDbEntity
  8
001
100
AcDbCircle
 10
629.0
 20
820.329229
 30
0.0
 40
25.0
100
AcDbArc
 50
200.732717
 51
341.797106
  0
LINE
  5
6E9
100
AcDbEntity
  8
001
100
AcDbLine
 10
649.089783
 20
832.919798
 30
0.0
 11
649.089783
 21
947.738657
 31
0.0
  0
LINE
  5
6EA
100
AcDbEntity
  8
001
100
AcDbLine
 10
605.618949
 20
969.179453
 30
0.0
 11
599.0
 21
951.693116
 31
0.0
  0
ARC
  5
6EB
100
AcDbEntity
  8
001
100
AcDbCircle
 10
629.0
 20
960.329229
 30
0.0
 40
25.0
100
AcDbArc
 50
18.202894
 51
159.267283
  0
CIRCLE
  5
6EC
100
AcDbEntity
  8
001
100
AcDbCircle
 10
629.0
 20
960.329229
 30
0.0
 40
10.0
  0
LINE
  5
6ED
100
AcDbEntity
  8
001
100
AcDbLine
 10
652.748907
 20
968.138802
 30
0.0
 11
659.0
 21
949.12923
 31
0.0
  0
LINE
  5
6EE
100
AcDbEntity
  8
001
  6
CENTER
100
AcDbLine
 10
435.5
 20
437.2
 30
0.0
 11
435.5
 21
505.2
 31
0.0
  0
LINE
  5
6EF
100
AcDbEntity
  8
001
  6
CENTER
100
AcDbLine
 10
557.5
 20
437.2
 30
0.0
 11
557.5
 21
505.2
 31
0.0
  0
ARC
  5
6F0
100
AcDbEntity
  8
001
100
AcDbCircle
 10
427.272776
 20
447.344745
 30
0.0
 40
4.856074
100
AcDbArc
 50
244.384255
 51
304.384126
  0
ARC
  5
6F1
100
AcDbEntity
  8
001
100
AcDbCircle
 10
435.50001
 20
460.640186
 30
0.0
 40
18.151531
100
AcDbArc
 50
252.412073
 51
287.587915
  0
ARC
  5
6F2
100
AcDbEntity
  8
001
100
AcDbCircle
 10
443.727232
 20
447.344745
 30
0.0
 40
4.856074
100
AcDbArc
 50
235.6158
 51
295.615745
  0
LINE
  5
6F3
100
AcDbEntity
  8
001
100
AcDbLine
 10
426.500002
 20
442.2
 30
0.0
 11
424.530352
 21
443.337177
 31
0.0
  0
LINE
  5
6F4
100
AcDbEntity
  8
001
100
AcDbLine
 10
444.499998
 20
442.2
 30
0.0
 11
446.469648
 21
443.337177
 31
0.0
  0
LINE
  5
6F5
100
AcDbEntity
  8
001
100
AcDbLine
 10
424.530352
 20
450.2
 30
0.0
 11
424.530352
 21
443.337177
 31
0.0
  0
LINE
  5
6F6
100
AcDbEntity
  8
001
100
AcDbLine
 10
430.015177
 20
450.2
 30
0.0
 11
430.015177
 21
443.337177
 31
0.0
  0
LINE
  5
6F7
100
AcDbEntity
  8
001
100
AcDbLine
 10
440.984831
 20
450.2
 30
0.0
 11
440.984831
 21
443.337177
 31
0.0
  0
LINE
  5
6F8
100
AcDbEntity
  8
001
100
AcDbLine
 10
446.469648
 20
450.2
 30
0.0
 11
446.469648
 21
443.337177
 31
0.0
  0
LINE
  5
6F9
100
AcDbEntity
  8
001
100
AcDbLine
 10
426.500002
 20
442.2
 30
0.0
 11
444.500013
 21
442.2
 31
0.0
  0
ARC
  5
6FA
100
AcDbEntity
  8
001
100
AcDbCircle
 10
427.272766
 20
487.655255
 30
0.0
 40
4.856074
100
AcDbArc
 50
55.6158
 51
115.615582
  0
ARC
  5
6FB
100
AcDbEntity
  8
001
100
AcDbCircle
 10
435.5
 20
474.359814
 30
0.0
 40
18.151531
100
AcDbArc
 50
72.41205
 51
107.587904
  0
ARC
  5
6FC
100
AcDbEntity
  8
001
100
AcDbCircle
 10
443.727234
 20
487.655255
 30
0.0
 40
4.856074
100
AcDbArc
 50
64.384418
 51
124.3842
  0
LINE
  5
6FD
100
AcDbEntity
  8
001
100
AcDbLine
 10
426.5
 20
492.8
 30
0.0
 11
424.53035
 21
491.662823
 31
0.0
  0
LINE
  5
6FE
100
AcDbEntity
  8
001
100
AcDbLine
 10
444.5
 20
492.8
 30
0.0
 11
446.46965
 21
491.662823
 31
0.0
  0
LINE
  5
6FF
100
AcDbEntity
  8
001
100
AcDbLine
 10
426.5
 20
492.8
 30
0.0
 11
444.5
 21
492.8
 31
0.0
  0
LINE
  5
700
100
AcDbEntity
  8
001
100
AcDbLine
 10
424.53035
 20
482.8
 30
0.0
 11
424.53035
 21
491.662823
 31
0.0
  0
LINE
  5
701
100
AcDbEntity
  8
001
100
AcDbLine
 10
430.015167
 20
482.8
 30
0.0
 11
430.015167
 21
491.662823
 31
0.0
  0
LINE
  5
702
100
AcDbEntity
  8
001
100
AcDbLine
 10
440.984833
 20
482.8
 30
0.0
 11
440.984833
 21
491.662823
 31
0.0
  0
LINE
  5
703
100
AcDbEntity
  8
001
100
AcDbLine
 10
446.46965
 20
482.8
 30
0.0
 11
446.46965
 21
491.662823
 31
0.0
  0
LINE
  5
704
100
AcDbEntity
  8
001
100
AcDbLine
 10
423.5
 20
450.2
 30
0.0
 11
447.5
 21
450.2
 31
0.0
  0
LINE
  5
705
100
AcDbEntity
  8
001
100
AcDbLine
 10
423.5
 20
482.8
 30
0.0
 11
447.5
 21
482.8
 31
0.0
  0
LINE
  5
706
100
AcDbEntity
  8
001
100
AcDbLine
 10
429.5
 20
498.2
 30
0.0
 11
441.5
 21
498.2
 31
0.0
  0
ARC
  5
707
100
AcDbEntity
  8
001
100
AcDbCircle
 10
435.5
 20
490.2
 30
0.0
 40
10.0
100
AcDbArc
 50
53.130102
 51
126.869898
  0
ARC
  5
708
100
AcDbEntity
  8
001
100
AcDbCircle
 10
549.272776
 20
447.344745
 30
0.0
 40
4.856074
100
AcDbArc
 50
244.384255
 51
304.384126
  0
ARC
  5
709
100
AcDbEntity
  8
001
100
AcDbCircle
 10
557.50001
 20
460.640186
 30
0.0
 40
18.151531
100
AcDbArc
 50
252.412073
 51
287.587915
  0
ARC
  5
70A
100
AcDbEntity
  8
001
100
AcDbCircle
 10
565.727232
 20
447.344745
 30
0.0
 40
4.856074
100
AcDbArc
 50
235.6158
 51
295.615745
  0
LINE
  5
70B
100
AcDbEntity
  8
001
100
AcDbLine
 10
548.500002
 20
442.2
 30
0.0
 11
546.530352
 21
443.337177
 31
0.0
  0
LINE
  5
70C
100
AcDbEntity
  8
001
100
AcDbLine
 10
566.499998
 20
442.2
 30
0.0
 11
568.469648
 21
443.337177
 31
0.0
  0
LINE
  5
70D
100
AcDbEntity
  8
001
100
AcDbLine
 10
546.530352
 20
450.2
 30
0.0
 11
546.530352
 21
443.337177
 31
0.0
  0
LINE
  5
70E
100
AcDbEntity
  8
001
100
AcDbLine
 10
552.015177
 20
450.2
 30
0.0
 11
552.015177
 21
443.337177
 31
0.0
  0
LINE
  5
70F
100
AcDbEntity
  8
001
100
AcDbLine
 10
562.984831
 20
450.2
 30
0.0
 11
562.984831
 21
443.337177
 31
0.0
  0
LINE
  5
710
100
AcDbEntity
  8
001
100
AcDbLine
 10
568.469648
 20
450.2
 30
0.0
 11
568.469648
 21
443.337177
 31
0.0
  0
LINE
  5
711
100
AcDbEntity
  8
001
100
AcDbLine
 10
548.500002
 20
442.2
 30
0.0
 11
566.500013
 21
442.2
 31
0.0
  0
ARC
  5
712
100
AcDbEntity
  8
001
100
AcDbCircle
 10
549.272766
 20
487.655255
 30
0.0
 40
4.856074
100
AcDbArc
 50
55.6158
 51
115.615582
  0
ARC
  5
713
100
AcDbEntity
  8
001
100
AcDbCircle
 10
557.5
 20
474.359814
 30
0.0
 40
18.151531
100
AcDbArc
 50
72.41205
 51
107.587904
  0
ARC
  5
714
100
AcDbEntity
  8
001
100
AcDbCircle
 10
565.727234
 20
487.655255
 30
0.0
 40
4.856074
100
AcDbArc
 50
64.384418
 51
124.3842
  0
LINE
  5
715
100
AcDbEntity
  8
001
100
AcDbLine
 10
548.5
 20
492.8
 30
0.0
 11
546.53035
 21
491.662823
 31
0.0
  0
LINE
  5
716
100
AcDbEntity
  8
001
100
AcDbLine
 10
566.5
 20
492.8
 30
0.0
 11
568.46965
 21
491.662823
 31
0.0
  0
LINE
  5
717
100
AcDbEntity
  8
001
100
AcDbLine
 10
548.5
 20
492.8
 30
0.0
 11
566.5
 21
492.8
 31
0.0
  0
LINE
  5
718
100
AcDbEntity
  8
001
100
AcDbLine
 10
546.53035
 20
482.8
 30
0.0
 11
546.53035
 21
491.662823
 31
0.0
  0
LINE
  5
719
100
AcDbEntity
  8
001
100
AcDbLine
 10
552.015167
 20
482.8
 30
0.0
 11
552.015167
 21
491.662823
 31
0.0
  0
LINE
  5
71A
100
AcDbEntity
  8
001
100
AcDbLine
 10
562.984833
 20
482.8
 30
0.0
 11
562.984833
 21
491.662823
 31
0.0
  0
LINE
  5
71B
100
AcDbEntity
  8
001
100
AcDbLine
 10
568.46965
 20
482.8
 30
0.0
 11
568.46965
 21
491.662823
 31
0.0
  0
LINE
  5
71C
100
AcDbEntity
  8
001
100
AcDbLine
 10
545.5
 20
450.2
 30
0.0
 11
569.5
 21
450.2
 31
0.0
  0
LINE
  5
71D
100
AcDbEntity
  8
001
100
AcDbLine
 10
545.5
 20
482.8
 30
0.0
 11
569.5
 21
482.8
 31
0.0
  0
LINE
  5
71E
100
AcDbEntity
  8
001
100
AcDbLine
 10
551.5
 20
498.2
 30
0.0
 11
563.5
 21
498.2
 31
0.0
  0
ARC
  5
71F
100
AcDbEntity
  8
001
100
AcDbCircle
 10
557.5
 20
490.2
 30
0.0
 40
10.0
100
AcDbArc
 50
53.130102
 51
126.869898
  0
ARC
  5
720
100
AcDbEntity
  8
001
100
AcDbCircle
 10
1009.75
 20
456.208392
 30
0.0
 40
13.719723
100
AcDbArc
 50
249.743897
 51
290.256103
  0
ARC
  5
721
100
AcDbEntity
  8
001
100
AcDbCircle
 10
1019.25
 20
456.208392
 30
0.0
 40
13.719723
100
AcDbArc
 50
249.743897
 51
290.256103
  0
LINE
  5
722
100
AcDbEntity
  8
001
100
AcDbLine
 10
1005.0
 20
442.488666
 30
0.0
 11
1005.5
 21
442.2
 31
0.0
  0
LINE
  5
723
100
AcDbEntity
  8
001
100
AcDbLine
 10
1024.0
 20
442.488666
 30
0.0
 11
1023.5
 21
442.2
 31
0.0
  0
LINE
  5
724
100
AcDbEntity
  8
001
100
AcDbLine
 10
1005.5
 20
442.2
 30
0.0
 11
1023.500015
 21
442.2
 31
0.0
  0
LINE
  5
725
100
AcDbEntity
  8
001
100
AcDbLine
 10
1005.0
 20
450.2
 30
0.0
 11
1005.0
 21
442.488666
 31
0.0
  0
LINE
  5
726
100
AcDbEntity
  8
001
100
AcDbLine
 10
1024.0
 20
450.2
 30
0.0
 11
1024.0
 21
442.488666
 31
0.0
  0
LINE
  5
727
100
AcDbEntity
  8
001
100
AcDbLine
 10
1014.5
 20
450.2
 30
0.0
 11
1014.5
 21
443.337177
 31
0.0
  0
LINE
  5
728
100
AcDbEntity
  8
001
100
AcDbLine
 10
1002.5
 20
450.2
 30
0.0
 11
1026.5
 21
450.2
 31
0.0
  0
LINE
  5
729
100
AcDbEntity
  8
001
  6
CENTER
100
AcDbLine
 10
1014.5
 20
437.2
 30
0.0
 11
1014.5
 21
505.2
 31
0.0
  0
ARC
  5
72A
100
AcDbEntity
  8
001
100
AcDbCircle
 10
1009.75
 20
478.791608
 30
0.0
 40
13.719723
100
AcDbArc
 50
69.743897
 51
110.256103
  0
ARC
  5
72B
100
AcDbEntity
  8
001
100
AcDbCircle
 10
1019.25
 20
478.791608
 30
0.0
 40
13.719723
100
AcDbArc
 50
69.743897
 51
110.256103
  0
LINE
  5
72C
100
AcDbEntity
  8
001
100
AcDbLine
 10
1005.0
 20
492.511334
 30
0.0
 11
1005.5
 21
492.8
 31
0.0
  0
LINE
  5
72D
100
AcDbEntity
  8
001
100
AcDbLine
 10
1024.0
 20
492.511334
 30
0.0
 11
1023.5
 21
492.8
 31
0.0
  0
LINE
  5
72E
100
AcDbEntity
  8
001
100
AcDbLine
 10
1005.5
 20
492.8
 30
0.0
 11
1023.5
 21
492.8
 31
0.0
  0
LINE
  5
72F
100
AcDbEntity
  8
001
100
AcDbLine
 10
1005.0
 20
482.8
 30
0.0
 11
1005.0
 21
492.511334
 31
0.0
  0
LINE
  5
730
100
AcDbEntity
  8
001
100
AcDbLine
 10
1024.0
 20
482.8
 30
0.0
 11
1024.0
 21
492.511334
 31
0.0
  0
LINE
  5
731
100
AcDbEntity
  8
001
100
AcDbLine
 10
1014.5
 20
482.8
 30
0.0
 11
1014.5
 21
491.662823
 31
0.0
  0
LINE
  5
732
100
AcDbEntity
  8
001
100
AcDbLine
 10
1002.5
 20
482.8
 30
0.0
 11
1026.5
 21
482.8
 31
0.0
  0
LINE
  5
733
100
AcDbEntity
  8
001
100
AcDbLine
 10
1008.5
 20
498.2
 30
0.0
 11
1020.5
 21
498.2
 31
0.0
  0
ARC
  5
734
100
AcDbEntity
  8
001
100
AcDbCircle
 10
1014.5
 20
490.2
 30
0.0
 40
10.0
100
AcDbArc
 50
53.130102
 51
126.869898
  0
ARC
  5
735
100
AcDbEntity
  8
001
100
AcDbCircle
 10
1090.75
 20
456.208392
 30
0.0
 40
13.719723
100
AcDbArc
 50
249.743897
 51
290.256103
  0
ARC
  5
736
100
AcDbEntity
  8
001
100
AcDbCircle
 10
1100.25
 20
456.208392
 30
0.0
 40
13.719723
100
AcDbArc
 50
249.743897
 51
290.256103
  0
LINE
  5
737
100
AcDbEntity
  8
001
100
AcDbLine
 10
1086.0
 20
442.488666
 30
0.0
 11
1086.5
 21
442.2
 31
0.0
  0
LINE
  5
738
100
AcDbEntity
  8
001
100
AcDbLine
 10
1105.0
 20
442.488666
 30
0.0
 11
1104.5
 21
442.2
 31
0.0
  0
LINE
  5
739
100
AcDbEntity
  8
001
100
AcDbLine
 10
1086.5
 20
442.2
 30
0.0
 11
1104.500015
 21
442.2
 31
0.0
  0
LINE
  5
73A
100
AcDbEntity
  8
001
100
AcDbLine
 10
1086.0
 20
450.2
 30
0.0
 11
1086.0
 21
442.488666
 31
0.0
  0
LINE
  5
73B
100
AcDbEntity
  8
001
100
AcDbLine
 10
1105.0
 20
450.2
 30
0.0
 11
1105.0
 21
442.488666
 31
0.0
  0
LINE
  5
73C
100
AcDbEntity
  8
001
100
AcDbLine
 10
1095.5
 20
450.2
 30
0.0
 11
1095.5
 21
443.337177
 31
0.0
  0
LINE
  5
73D
100
AcDbEntity
  8
001
100
AcDbLine
 10
1083.5
 20
450.2
 30
0.0
 11
1107.5
 21
450.2
 31
0.0
  0
LINE
  5
73E
100
AcDbEntity
  8
001
  6
CENTER
100
AcDbLine
 10
1095.5
 20
437.2
 30
0.0
 11
1095.5
 21
505.2
 31
0.0
  0
ARC
  5
73F
100
AcDbEntity
  8
001
100
AcDbCircle
 10
1090.75
 20
478.791608
 30
0.0
 40
13.719723
100
AcDbArc
 50
69.743897
 51
110.256103
  0
ARC
  5
740
100
AcDbEntity
  8
001
100
AcDbCircle
 10
1100.25
 20
478.791608
 30
0.0
 40
13.719723
100
AcDbArc
 50
69.743897
 51
110.256103
  0
LINE
  5
741
100
AcDbEntity
  8
001
100
AcDbLine
 10
1086.0
 20
492.511334
 30
0.0
 11
1086.5
 21
492.8
 31
0.0
  0
LINE
  5
742
100
AcDbEntity
  8
001
100
AcDbLine
 10
1105.0
 20
492.511334
 30
0.0
 11
1104.5
 21
492.8
 31
0.0
  0
LINE
  5
743
100
AcDbEntity
  8
001
100
AcDbLine
 10
1086.5
 20
492.8
 30
0.0
 11
1104.5
 21
492.8
 31
0.0
  0
LINE
  5
744
100
AcDbEntity
  8
001
100
AcDbLine
 10
1086.0
 20
482.8
 30
0.0
 11
1086.0
 21
492.511334
 31
0.0
  0
LINE
  5
745
100
AcDbEntity
  8
001
100
AcDbLine
 10
1105.0
 20
482.8
 30
0.0
 11
1105.0
 21
492.511334
 31
0.0
  0
LINE
  5
746
100
AcDbEntity
  8
001
100
AcDbLine
 10
1095.5
 20
482.8
 30
0.0
 11
1095.5
 21
491.662823
 31
0.0
  0
LINE
  5
747
100
AcDbEntity
  8
001
100
AcDbLine
 10
1083.5
 20
482.8
 30
0.0
 11
1107.5
 21
482.8
 31
0.0
  0
LINE
  5
748
100
AcDbEntity
  8
001
100
AcDbLine
 10
1089.5
 20
498.2
 30
0.0
 11
1101.5
 21
498.2
 31
0.0
  0
ARC
  5
749
100
AcDbEntity
  8
001
100
AcDbCircle
 10
1095.5
 20
490.2
 30
0.0
 40
10.0
100
AcDbArc
 50
53.130102
 51
126.869898
  0
LINE
  5
74A
100
AcDbEntity
  8
001
  6
CENTER
100
AcDbLine
 10
614.0
 20
960.329229
 30
0.0
 11
644.0
 21
960.329229
 31
0.0
  0
LINE
  5
74B
100
AcDbEntity
  8
001
  6
CENTER
100
AcDbLine
 10
629.0
 20
945.329229
 30
0.0
 11
629.0
 21
975.329229
 31
0.0
  0
CIRCLE
  5
74C
100
AcDbEntity
  8
001
100
AcDbCircle
 10
364.0
 20
960.329229
 30
0.0
 40
10.0
  0
LINE
  5
74D
100
AcDbEntity
  8
001
  6
CENTER
100
AcDbLine
 10
379.0
 20
960.329229
 30
0.0
 11
349.0
 21
960.329229
 31
0.0
  0
LINE
  5
74E
100
AcDbEntity
  8
001
  6
CENTER
100
AcDbLine
 10
364.0
 20
945.329229
 30
0.0
 11
364.0
 21
975.329229
 31
0.0
  0
CIRCLE
  5
74F
100
AcDbEntity
  8
001
100
AcDbCircle
 10
629.0
 20
820.329229
 30
0.0
 40
10.0
  0
LINE
  5
750
100
AcDbEntity
  8
001
  6
CENTER
100
AcDbLine
 10
614.0
 20
820.329229
 30
0.0
 11
644.0
 21
820.329229
 31
0.0
  0
LINE
  5
751
100
AcDbEntity
  8
001
  6
CENTER
100
AcDbLine
 10
629.0
 20
835.329229
 30
0.0
 11
629.0
 21
805.329229
 31
0.0
  0
CIRCLE
  5
752
100
AcDbEntity
  8
001
100
AcDbCircle
 10
364.0
 20
820.329229
 30
0.0
 40
10.0
  0
LINE
  5
753
100
AcDbEntity
  8
001
  6
CENTER
100
AcDbLine
 10
379.0
 20
820.329229
 30
0.0
 11
349.0
 21
820.329229
 31
0.0
  0
LINE
  5
754
100
AcDbEntity
  8
001
  6
CENTER
100
AcDbLine
 10
364.0
 20
835.329229
 30
0.0
 11
364.0
 21
805.329229
 31
0.0
  0
LINE
  5
755
100
AcDbEntity
  8
001
100
AcDbLine
 10
759.0
 20
385.261214
 30
0.0
 11
759.0
 21
281.738786
 31
0.0
  0
LINE
  5
756
100
AcDbEntity
  8
001
100
AcDbLine
 10
234.0
 20
385.261214
 30
0.0
 11
234.0
 21
281.738786
 31
0.0
  0
LINE
  5
757
100
AcDbEntity
  8
001
100
AcDbLine
 10
759.0
 20
942.090443
 30
0.0
 11
759.0
 21
838.568015
 31
0.0
  0
LINE
  5
758
100
AcDbEntity
  8
001
100
AcDbLine
 10
234.0
 20
942.090443
 30
0.0
 11
234.0
 21
838.568015
 31
0.0
  0
LINE
  5
759
100
AcDbEntity
  8
001
 62
     3
100
AcDbLine
 10
1304.0
 20
64.0
 30
0.0
 11
1620.0
 21
64.0
 31
0.0
  0
TEXT
  5
75B
100
AcDbEntity
  8
001
 62
     3
100
AcDbText
 10
1333.0
 20
68.0
 30
0.0
 40
16.0
  1
塩ビ管用継手　　　　　　型両受け
 41
0.833333
100
AcDbText
  0
TEXT
  5
75C
100
AcDbEntity
  8
001
 62
     3
100
AcDbText
 10
1421.0
 20
68.0
 30
0.0
 40
16.0
  1
(SGR-N)
 41
1.105263
100
AcDbText
  0
TEXT
  5
75D
100
AcDbEntity
  8
001
 62
     3
100
AcDbText
 10
1333.0
 20
88.0
 30
0.0
 40
20.0
  1
浅層埋設対応型　ソフトシール仕切弁
 41
0.666667
100
AcDbText
  0
POLYLINE
  5
75E
100
AcDbEntity
  8
001
 62
     2
100
AcDb2dPolyline
 66
     1
 10
0.0
 20
0.0
 30
0.0
 70
     1
  0
VERTEX
  5
75F
100
AcDbEntity
  8
001
 62
     2
100
AcDbVertex
100
AcDb2dVertex
 10
1304.0
 20
40.0
 30
0.0
  0
VERTEX
  5
760
100
AcDbEntity
  8
001
 62
     2
100
AcDbVertex
100
AcDb2dVertex
 10
1620.0
 20
40.0
 30
0.0
  0
VERTEX
  5
761
100
AcDbEntity
  8
001
 62
     2
100
AcDbVertex
100
AcDb2dVertex
 10
1620.0
 20
134.0
 30
0.0
  0
VERTEX
  5
762
100
AcDbEntity
  8
001
 62
     2
100
AcDbVertex
100
AcDb2dVertex
 10
1304.0
 20
134.0
 30
0.0
  0
SEQEND
  5
763
100
AcDbEntity
  8
001
 62
     2
  0
TEXT
  5
764
100
AcDbEntity
  8
001
 62
     3
100
AcDbText
 10
1319.0
 20
112.0
 30
0.0
 40
18.0
  1
ＪＷＷＡ　Ｂ　１２０準拠　φ７５
 41
0.648148
100
AcDbText
  0
LINE
  5
766
100
AcDbEntity
  8
001
100
AcDbLine
 10
1043.0
 20
558.1
 30
0.0
 11
1067.0
 21
558.1
 31
0.0
  0
LINE
  5
767
100
AcDbEntity
  8
001
100
AcDbLine
 10
1043.0
 20
558.1
 30
0.0
 11
1044.962991
 21
561.5
 31
0.0
  0
LINE
  5
768
100
AcDbEntity
  8
001
100
AcDbLine
 10
1067.0
 20
558.1
 30
0.0
 11
1065.037009
 21
561.5
 31
0.0
  0
LINE
  5
769
100
AcDbEntity
  8
001
100
AcDbLine
 10
508.5
 20
558.1
 30
0.0
 11
506.537009
 21
561.5
 31
0.0
  0
LINE
  5
76A
100
AcDbEntity
  8
001
100
AcDbLine
 10
508.5
 20
558.1
 30
0.0
 11
484.5
 21
558.1
 31
0.0
  0
LINE
  5
76B
100
AcDbEntity
  8
001
100
AcDbLine
 10
484.5
 20
558.1
 30
0.0
 11
486.462991
 21
561.5
 31
0.0
  0
CIRCLE
  5
76C
100
AcDbEntity
  8
001
100
AcDbCircle
 10
557.5
 20
849.829229
 30
0.0
 40
12.0
  0
CIRCLE
  5
76D
100
AcDbEntity
  8
001
100
AcDbCircle
 10
496.5
 20
809.329229
 30
0.0
 40
12.0
  0
ARC
  5
76E
100
AcDbEntity
  8
001
  6
CENTER
100
AcDbCircle
 10
496.5
 20
854.329229
 30
0.0
 40
117.0
100
AcDbArc
 50
81.672393
 51
98.327607
  0
LINE
  5
76F
100
AcDbEntity
  8
001
100
AcDbLine
 10
491.015172
 20
980.829229
 30
0.0
 11
501.984828
 21
980.829229
 31
0.0
  0
LINE
  5
770
100
AcDbEntity
  8
001
100
AcDbLine
 10
491.015172
 20
961.829229
 30
0.0
 11
501.984828
 21
961.829229
 31
0.0
  0
LINE
  5
771
100
AcDbEntity
  8
001
100
AcDbLine
 10
507.469655
 20
971.329229
 30
0.0
 11
501.984828
 21
980.829229
 31
0.0
  0
LINE
  5
772
100
AcDbEntity
  8
001
100
AcDbLine
 10
485.530345
 20
971.329229
 30
0.0
 11
491.015172
 21
961.829229
 31
0.0
  0
LINE
  5
773
100
AcDbEntity
  8
001
100
AcDbLine
 10
501.984828
 20
961.829229
 30
0.0
 11
507.469655
 21
971.329229
 31
0.0
  0
LINE
  5
774
100
AcDbEntity
  8
001
100
AcDbLine
 10
491.015172
 20
980.829229
 30
0.0
 11
485.530345
 21
971.329229
 31
0.0
  0
CIRCLE
  5
775
100
AcDbEntity
  8
001
100
AcDbCircle
 10
496.5
 20
971.329229
 30
0.0
 40
9.0
  0
CIRCLE
  5
776
100
AcDbEntity
  8
001
100
AcDbCircle
 10
496.5
 20
971.329229
 30
0.0
 40
6.0
  0
CIRCLE
  5
777
100
AcDbEntity
  8
001
100
AcDbCircle
 10
496.5
 20
971.329229
 30
0.0
 40
5.055
  0
CIRCLE
  5
778
100
AcDbEntity
  8
001
100
AcDbCircle
 10
496.5
 20
971.329229
 30
0.0
 40
12.0
  0
LINE
  5
779
100
AcDbEntity
  8
001
100
AcDbLine
 10
440.984828
 20
840.329229
 30
0.0
 11
430.015172
 21
840.329229
 31
0.0
  0
LINE
  5
77A
100
AcDbEntity
  8
001
100
AcDbLine
 10
440.984828
 20
859.329229
 30
0.0
 11
430.015172
 21
859.329229
 31
0.0
  0
LINE
  5
77B
100
AcDbEntity
  8
001
100
AcDbLine
 10
424.530345
 20
849.829229
 30
0.0
 11
430.015172
 21
840.329229
 31
0.0
  0
LINE
  5
77C
100
AcDbEntity
  8
001
100
AcDbLine
 10
446.469655
 20
849.829229
 30
0.0
 11
440.984828
 21
859.329229
 31
0.0
  0
LINE
  5
77D
100
AcDbEntity
  8
001
100
AcDbLine
 10
430.015172
 20
859.329229
 30
0.0
 11
424.530345
 21
849.829229
 31
0.0
  0
LINE
  5
77E
100
AcDbEntity
  8
001
100
AcDbLine
 10
440.984828
 20
840.329229
 30
0.0
 11
446.469655
 21
849.829229
 31
0.0
  0
CIRCLE
  5
77F
100
AcDbEntity
  8
001
100
AcDbCircle
 10
435.5
 20
849.829229
 30
0.0
 40
9.0
  0
CIRCLE
  5
780
100
AcDbEntity
  8
001
100
AcDbCircle
 10
435.5
 20
849.829229
 30
0.0
 40
6.0
  0
CIRCLE
  5
781
100
AcDbEntity
  8
001
100
AcDbCircle
 10
435.5
 20
849.829229
 30
0.0
 40
5.055
  0
ARC
  5
782
100
AcDbEntity
  8
001
  6
CENTER
100
AcDbCircle
 10
481.0001
 20
857.041762
 30
0.0
 40
46.068208
100
AcDbArc
 50
186.877045
 51
210.193097
  0
LINE
  5
783
100
AcDbEntity
  8
001
  6
CENTER
100
AcDbLine
 10
452.290358
 20
852.490784
 30
0.0
 11
418.709642
 21
847.167674
 31
0.0
  0
ARC
  5
784
100
AcDbEntity
  8
001
  6
CENTER
100
AcDbCircle
 10
757.0
 20
890.329229
 30
0.0
 40
324.068208
100
AcDbArc
 50
184.174012
 51
186.877045
  0
CIRCLE
  5
785
100
AcDbEntity
  8
001
100
AcDbCircle
 10
435.5
 20
849.829229
 30
0.0
 40
12.0
  0
LINE
  5
786
100
AcDbEntity
  8
001
100
AcDbLine
 10
552.015172
 20
940.329229
 30
0.0
 11
562.984828
 21
940.329229
 31
0.0
  0
LINE
  5
787
100
AcDbEntity
  8
001
100
AcDbLine
 10
552.015172
 20
921.329229
 30
0.0
 11
562.984828
 21
921.329229
 31
0.0
  0
LINE
  5
788
100
AcDbEntity
  8
001
100
AcDbLine
 10
568.469655
 20
930.829229
 30
0.0
 11
562.984828
 21
940.329229
 31
0.0
  0
LINE
  5
789
100
AcDbEntity
  8
001
100
AcDbLine
 10
546.530345
 20
930.829229
 30
0.0
 11
552.015172
 21
921.329229
 31
0.0
  0
LINE
  5
78A
100
AcDbEntity
  8
001
100
AcDbLine
 10
562.984828
 20
921.329229
 30
0.0
 11
568.469655
 21
930.829229
 31
0.0
  0
LINE
  5
78B
100
AcDbEntity
  8
001
100
AcDbLine
 10
552.015172
 20
940.329229
 30
0.0
 11
546.530345
 21
930.829229
 31
0.0
  0
CIRCLE
  5
78C
100
AcDbEntity
  8
001
100
AcDbCircle
 10
557.5
 20
930.829229
 30
0.0
 40
9.0
  0
CIRCLE
  5
78D
100
AcDbEntity
  8
001
100
AcDbCircle
 10
557.5
 20
930.829229
 30
0.0
 40
6.0
  0
CIRCLE
  5
78E
100
AcDbEntity
  8
001
100
AcDbCircle
 10
557.5
 20
930.829229
 30
0.0
 40
5.055
  0
ARC
  5
78F
100
AcDbEntity
  8
001
  6
CENTER
100
AcDbCircle
 10
511.9999
 20
923.616696
 30
0.0
 40
46.068208
100
AcDbArc
 50
6.877045
 51
30.193097
  0
LINE
  5
790
100
AcDbEntity
  8
001
  6
CENTER
100
AcDbLine
 10
540.709642
 20
928.167674
 30
0.0
 11
574.290358
 21
933.490784
 31
0.0
  0
ARC
  5
791
100
AcDbEntity
  8
001
  6
CENTER
100
AcDbCircle
 10
236.0
 20
890.329229
 30
0.0
 40
324.068208
100
AcDbArc
 50
4.174012
 51
6.877045
  0
CIRCLE
  5
792
100
AcDbEntity
  8
001
100
AcDbCircle
 10
557.5
 20
930.829229
 30
0.0
 40
12.0
  0
LINE
  5
793
100
AcDbEntity
  8
001
100
AcDbLine
 10
440.984828
 20
940.329229
 30
0.0
 11
430.015172
 21
940.329229
 31
0.0
  0
LINE
  5
794
100
AcDbEntity
  8
001
100
AcDbLine
 10
440.984828
 20
921.329229
 30
0.0
 11
430.015172
 21
921.329229
 31
0.0
  0
LINE
  5
795
100
AcDbEntity
  8
001
100
AcDbLine
 10
424.530345
 20
930.829229
 30
0.0
 11
430.015172
 21
940.329229
 31
0.0
  0
LINE
  5
796
100
AcDbEntity
  8
001
100
AcDbLine
 10
446.469655
 20
930.829229
 30
0.0
 11
440.984828
 21
921.329229
 31
0.0
  0
LINE
  5
797
100
AcDbEntity
  8
001
100
AcDbLine
 10
430.015172
 20
921.329229
 30
0.0
 11
424.530345
 21
930.829229
 31
0.0
  0
LINE
  5
798
100
AcDbEntity
  8
001
100
AcDbLine
 10
440.984828
 20
940.329229
 30
0.0
 11
446.469655
 21
930.829229
 31
0.0
  0
CIRCLE
  5
799
100
AcDbEntity
  8
001
100
AcDbCircle
 10
435.5
 20
930.829229
 30
0.0
 40
9.0
  0
CIRCLE
  5
79A
100
AcDbEntity
  8
001
100
AcDbCircle
 10
435.5
 20
930.829229
 30
0.0
 40
6.0
  0
CIRCLE
  5
79B
100
AcDbEntity
  8
001
100
AcDbCircle
 10
435.5
 20
930.829229
 30
0.0
 40
5.055
  0
ARC
  5
79C
100
AcDbEntity
  8
001
  6
CENTER
100
AcDbCircle
 10
481.0001
 20
923.616696
 30
0.0
 40
46.068208
100
AcDbArc
 50
149.806903
 51
173.122955
  0
LINE
  5
79D
100
AcDbEntity
  8
001
  6
CENTER
100
AcDbLine
 10
452.290358
 20
928.167674
 30
0.0
 11
418.709642
 21
933.490784
 31
0.0
  0
ARC
  5
79E
100
AcDbEntity
  8
001
  6
CENTER
100
AcDbCircle
 10
757.0
 20
890.329229
 30
0.0
 40
324.068208
100
AcDbArc
 50
173.122955
 51
175.825988
  0
CIRCLE
  5
79F
100
AcDbEntity
  8
001
100
AcDbCircle
 10
435.5
 20
930.829229
 30
0.0
 40
12.0
  0
LINE
  5
7A0
100
AcDbEntity
  8
001
100
AcDbLine
 10
429.5
 20
492.8
 30
0.0
 11
429.5
 21
498.2
 31
0.0
  0
LINE
  5
7A1
100
AcDbEntity
  8
001
100
AcDbLine
 10
430.445
 20
492.8
 30
0.0
 11
430.445
 21
498.828266
 31
0.0
  0
LINE
  5
7A2
100
AcDbEntity
  8
001
100
AcDbLine
 10
441.5
 20
492.8
 30
0.0
 11
441.5
 21
498.2
 31
0.0
  0
LINE
  5
7A3
100
AcDbEntity
  8
001
100
AcDbLine
 10
440.555
 20
492.8
 30
0.0
 11
440.555
 21
498.828266
 31
0.0
  0
LINE
  5
7A4
100
AcDbEntity
  8
001
100
AcDbLine
 10
490.5
 20
492.8
 30
0.0
 11
490.5
 21
498.2
 31
0.0
  0
LINE
  5
7A5
100
AcDbEntity
  8
001
100
AcDbLine
 10
491.445
 20
492.8
 30
0.0
 11
491.445
 21
498.828266
 31
0.0
  0
LINE
  5
7A6
100
AcDbEntity
  8
001
100
AcDbLine
 10
502.5
 20
492.8
 30
0.0
 11
502.5
 21
498.2
 31
0.0
  0
LINE
  5
7A7
100
AcDbEntity
  8
001
100
AcDbLine
 10
501.555
 20
492.8
 30
0.0
 11
501.555
 21
498.828266
 31
0.0
  0
LINE
  5
7A8
100
AcDbEntity
  8
001
100
AcDbLine
 10
551.5
 20
492.8
 30
0.0
 11
551.5
 21
498.2
 31
0.0
  0
LINE
  5
7A9
100
AcDbEntity
  8
001
100
AcDbLine
 10
552.445
 20
492.8
 30
0.0
 11
552.445
 21
498.828266
 31
0.0
  0
LINE
  5
7AA
100
AcDbEntity
  8
001
100
AcDbLine
 10
563.5
 20
492.8
 30
0.0
 11
563.5
 21
498.2
 31
0.0
  0
LINE
  5
7AB
100
AcDbEntity
  8
001
100
AcDbLine
 10
562.555
 20
492.8
 30
0.0
 11
562.555
 21
498.828266
 31
0.0
  0
LINE
  5
7AC
100
AcDbEntity
  8
001
100
AcDbLine
 10
980.0
 20
492.8
 30
0.0
 11
980.0
 21
498.2
 31
0.0
  0
LINE
  5
7AD
100
AcDbEntity
  8
001
100
AcDbLine
 10
979.055
 20
492.8
 30
0.0
 11
979.055
 21
498.828266
 31
0.0
  0
LINE
  5
7AE
100
AcDbEntity
  8
001
100
AcDbLine
 10
968.0
 20
492.8
 30
0.0
 11
968.0
 21
498.2
 31
0.0
  0
LINE
  5
7AF
100
AcDbEntity
  8
001
100
AcDbLine
 10
968.945
 20
492.8
 30
0.0
 11
968.945
 21
498.828266
 31
0.0
  0
LINE
  5
7B0
100
AcDbEntity
  8
001
100
AcDbLine
 10
1008.5
 20
492.8
 30
0.0
 11
1008.5
 21
498.2
 31
0.0
  0
LINE
  5
7B1
100
AcDbEntity
  8
001
100
AcDbLine
 10
1009.445
 20
492.8
 30
0.0
 11
1009.445
 21
498.828266
 31
0.0
  0
LINE
  5
7B2
100
AcDbEntity
  8
001
100
AcDbLine
 10
1020.5
 20
492.8
 30
0.0
 11
1020.5
 21
498.2
 31
0.0
  0
LINE
  5
7B3
100
AcDbEntity
  8
001
100
AcDbLine
 10
1019.555
 20
492.8
 30
0.0
 11
1019.555
 21
498.828266
 31
0.0
  0
LINE
  5
7B4
100
AcDbEntity
  8
001
100
AcDbLine
 10
1089.5
 20
492.8
 30
0.0
 11
1089.5
 21
498.2
 31
0.0
  0
LINE
  5
7B5
100
AcDbEntity
  8
001
100
AcDbLine
 10
1090.445
 20
492.8
 30
0.0
 11
1090.445
 21
498.828266
 31
0.0
  0
LINE
  5
7B6
100
AcDbEntity
  8
001
100
AcDbLine
 10
1101.5
 20
492.8
 30
0.0
 11
1101.5
 21
498.2
 31
0.0
  0
LINE
  5
7B7
100
AcDbEntity
  8
001
100
AcDbLine
 10
1100.555
 20
492.8
 30
0.0
 11
1100.555
 21
498.828266
 31
0.0
  0
LINE
  5
7B8
100
AcDbEntity
  8
001
100
AcDbLine
 10
1130.0
 20
492.8
 30
0.0
 11
1130.0
 21
498.2
 31
0.0
  0
LINE
  5
7B9
100
AcDbEntity
  8
001
100
AcDbLine
 10
1130.945
 20
492.8
 30
0.0
 11
1130.945
 21
498.828266
 31
0.0
  0
LINE
  5
7BA
100
AcDbEntity
  8
001
100
AcDbLine
 10
1142.0
 20
492.8
 30
0.0
 11
1142.0
 21
498.2
 31
0.0
  0
LINE
  5
7BB
100
AcDbEntity
  8
001
100
AcDbLine
 10
1141.055
 20
492.8
 30
0.0
 11
1141.055
 21
498.828266
 31
0.0
  0
LINE
  5
7BC
100
AcDbEntity
  8
001
100
AcDbLine
 10
423.5
 20
450.2
 30
0.0
 11
423.5
 21
452.5
 31
0.0
  0
LINE
  5
7BD
100
AcDbEntity
  8
001
100
AcDbLine
 10
423.5
 20
480.5
 30
0.0
 11
423.5
 21
482.8
 31
0.0
  0
LINE
  5
7BE
100
AcDbEntity
  8
001
100
AcDbLine
 10
447.5
 20
450.2
 30
0.0
 11
447.5
 21
452.5
 31
0.0
  0
LINE
  5
7BF
100
AcDbEntity
  8
001
100
AcDbLine
 10
447.5
 20
480.5
 30
0.0
 11
447.5
 21
482.8
 31
0.0
  0
LINE
  5
7C0
100
AcDbEntity
  8
001
100
AcDbLine
 10
508.5
 20
450.2
 30
0.0
 11
508.5
 21
452.5
 31
0.0
  0
LINE
  5
7C1
100
AcDbEntity
  8
001
100
AcDbLine
 10
508.5
 20
480.5
 30
0.0
 11
508.5
 21
482.8
 31
0.0
  0
LINE
  5
7C2
100
AcDbEntity
  8
001
100
AcDbLine
 10
484.5
 20
450.2
 30
0.0
 11
484.5
 21
452.5
 31
0.0
  0
LINE
  5
7C3
100
AcDbEntity
  8
001
100
AcDbLine
 10
484.5
 20
480.5
 30
0.0
 11
484.5
 21
482.8
 31
0.0
  0
LINE
  5
7C4
100
AcDbEntity
  8
001
100
AcDbLine
 10
569.5
 20
450.2
 30
0.0
 11
569.5
 21
452.5
 31
0.0
  0
LINE
  5
7C5
100
AcDbEntity
  8
001
100
AcDbLine
 10
569.5
 20
480.5
 30
0.0
 11
569.5
 21
482.8
 31
0.0
  0
LINE
  5
7C6
100
AcDbEntity
  8
001
100
AcDbLine
 10
545.5
 20
450.2
 30
0.0
 11
545.5
 21
452.5
 31
0.0
  0
LINE
  5
7C7
100
AcDbEntity
  8
001
100
AcDbLine
 10
545.5
 20
480.5
 30
0.0
 11
545.5
 21
482.8
 31
0.0
  0
LINE
  5
7C8
100
AcDbEntity
  8
001
100
AcDbLine
 10
986.0
 20
450.2
 30
0.0
 11
986.0
 21
452.5
 31
0.0
  0
LINE
  5
7C9
100
AcDbEntity
  8
001
100
AcDbLine
 10
986.0
 20
480.5
 30
0.0
 11
986.0
 21
482.8
 31
0.0
  0
LINE
  5
7CA
100
AcDbEntity
  8
001
100
AcDbLine
 10
962.0
 20
450.2
 30
0.0
 11
962.0
 21
452.5
 31
0.0
  0
LINE
  5
7CB
100
AcDbEntity
  8
001
100
AcDbLine
 10
962.0
 20
480.5
 30
0.0
 11
962.0
 21
482.8
 31
0.0
  0
LINE
  5
7CC
100
AcDbEntity
  8
001
100
AcDbLine
 10
1026.5
 20
450.2
 30
0.0
 11
1026.5
 21
452.5
 31
0.0
  0
LINE
  5
7CD
100
AcDbEntity
  8
001
100
AcDbLine
 10
1026.5
 20
480.5
 30
0.0
 11
1026.5
 21
482.8
 31
0.0
  0
LINE
  5
7CE
100
AcDbEntity
  8
001
100
AcDbLine
 10
1002.5
 20
450.2
 30
0.0
 11
1002.5
 21
452.5
 31
0.0
  0
LINE
  5
7CF
100
AcDbEntity
  8
001
100
AcDbLine
 10
1002.5
 20
480.5
 30
0.0
 11
1002.5
 21
482.8
 31
0.0
  0
LINE
  5
7D0
100
AcDbEntity
  8
001
100
AcDbLine
 10
1148.0
 20
450.2
 30
0.0
 11
1148.0
 21
452.5
 31
0.0
  0
LINE
  5
7D1
100
AcDbEntity
  8
001
100
AcDbLine
 10
1148.0
 20
480.5
 30
0.0
 11
1148.0
 21
482.8
 31
0.0
  0
LINE
  5
7D2
100
AcDbEntity
  8
001
100
AcDbLine
 10
1124.0
 20
450.2
 30
0.0
 11
1124.0
 21
452.5
 31
0.0
  0
LINE
  5
7D3
100
AcDbEntity
  8
001
100
AcDbLine
 10
1124.0
 20
480.5
 30
0.0
 11
1124.0
 21
482.8
 31
0.0
  0
LINE
  5
7D4
100
AcDbEntity
  8
001
100
AcDbLine
 10
1107.5
 20
450.2
 30
0.0
 11
1107.5
 21
452.5
 31
0.0
  0
LINE
  5
7D5
100
AcDbEntity
  8
001
100
AcDbLine
 10
1107.5
 20
480.5
 30
0.0
 11
1107.5
 21
482.8
 31
0.0
  0
LINE
  5
7D6
100
AcDbEntity
  8
001
100
AcDbLine
 10
1083.5
 20
450.2
 30
0.0
 11
1083.5
 21
452.5
 31
0.0
  0
LINE
  5
7D7
100
AcDbEntity
  8
001
100
AcDbLine
 10
1083.5
 20
480.5
 30
0.0
 11
1083.5
 21
482.8
 31
0.0
  0
INSERT
  5
82C
100
AcDbEntity
  8
0
  6
CONTINUOUS
100
AcDbBlockReference
  2
A$C4D0D3218
 10
466.5
 20
591.856109
 30
0.0
  0
INSERT
  5
82D
100
AcDbEntity
  8
0
  6
CONTINUOUS
100
AcDbBlockReference
  2
A$C4D0D3218
 10
1085.0
 20
591.856109
 30
0.0
 41
-1.0
  0
ARC
  5
82E
100
AcDbEntity
  8
001
100
AcDbCircle
 10
1031.0
 20
596.5
 30
0.0
 40
1.0
100
AcDbArc
 50
90.0
 51
180.0
  0
ARC
  5
82F
100
AcDbEntity
  8
001
100
AcDbCircle
 10
1079.0
 20
596.5
 30
0.0
 40
1.0
100
AcDbArc
 50
0.0
 51
90.0
  0
ARC
  5
831
100
AcDbEntity
  8
001
100
AcDbCircle
 10
472.5
 20
596.5
 30
0.0
 40
1.0
100
AcDbArc
 50
90.0
 51
180.0
  0
ARC
  5
832
100
AcDbEntity
  8
001
100
AcDbCircle
 10
520.5
 20
596.5
 30
0.0
 40
1.0
100
AcDbArc
 50
0.0
 51
90.0
  0
LINE
  5
833
100
AcDbEntity
  8
001
100
AcDbLine
 10
496.5
 20
648.5
 30
0.0
 11
512.293988
 21
648.5
 31
0.0
  0
ENDSEC
  0
SECTION
  2
OBJECTS
  0
DICTIONARY
  5
C
100
AcDbDictionary
  3
ACAD_GROUP
350
D
  3
ACAD_MLINESTYLE
350
1B
  0
DICTIONARY
  5
D
102
{ACAD_REACTORS
330
C
102
}
100
AcDbDictionary
  0
DICTIONARY
  5
1B
102
{ACAD_REACTORS
330
C
102
}
100
AcDbDictionary
  3
STANDARD
350
1C
  0
MLINESTYLE
  5
1C
102
{ACAD_REACTORS
330
1B
102
}
100
AcDbMlineStyle
  2
STANDARD
 70
     0
  3

 62
   256
 51
90.0
 52
90.0
 71
     2
 49
0.5
 62
   256
  6
BYLAYER
 49
-0.5
 62
   256
  6
BYLAYER
  0
ENDSEC
  0
EOF
