  0
SECTION
  2
HEADER
  9
$ACADVER
  1
AC1014
  9
$ACADMAINTVER
 70
     0
  9
$DWGCODEPAGE
  3
ANSI_932
  9
$INSBASE
 10
0.0
 20
0.0
 30
0.0
  9
$EXTMIN
 10
39.834009
 20
11.541911
 30
0.0
  9
$EXTMAX
 10
395.935346
 20
266.76693
 30
0.0
  9
$LIMMIN
 10
0.0
 20
0.0
  9
$LIMMAX
 10
420.0
 20
297.0
  9
$ORTHOMODE
 70
     0
  9
$REGENMODE
 70
     1
  9
$FILLMODE
 70
     1
  9
$QTEXTMODE
 70
     0
  9
$MIRRTEXT
 70
     1
  9
$DRAGMODE
 70
     2
  9
$LTSCALE
 40
1.0
  9
$OSMODE
 70
     0
  9
$ATTMODE
 70
     1
  9
$TEXTSIZE
 40
0.2
  9
$TRACEWID
 40
0.05
  9
$TEXTSTYLE
  7
STANDARD
  9
$CLAYER
  8
M0
  9
$CELTYPE
  6
BYLAYER
  9
$CECOLOR
 62
   256
  9
$CELTSCALE
 40
1.0
  9
$DELOBJ
 70
     1
  9
$DISPSILH
 70
     0
  9
$DIMSCALE
 40
1.0
  9
$DIMASZ
 40
0.18
  9
$DIMEXO
 40
0.0625
  9
$DIMDLI
 40
0.38
  9
$DIMRND
 40
0.0
  9
$DIMDLE
 40
0.0
  9
$DIMEXE
 40
0.18
  9
$DIMTP
 40
0.0
  9
$DIMTM
 40
0.0
  9
$DIMTXT
 40
0.18
  9
$DIMCEN
 40
0.09
  9
$DIMTSZ
 40
0.0
  9
$DIMTOL
 70
     0
  9
$DIMLIM
 70
     0
  9
$DIMTIH
 70
     1
  9
$DIMTOH
 70
     1
  9
$DIMSE1
 70
     0
  9
$DIMSE2
 70
     0
  9
$DIMTAD
 70
     0
  9
$DIMZIN
 70
     0
  9
$DIMBLK
  1

  9
$DIMASO
 70
     1
  9
$DIMSHO
 70
     1
  9
$DIMPOST
  1

  9
$DIMAPOST
  1

  9
$DIMALT
 70
     0
  9
$DIMALTD
 70
     2
  9
$DIMALTF
 40
25.4
  9
$DIMLFAC
 40
1.0
  9
$DIMTOFL
 70
     0
  9
$DIMTVP
 40
0.0
  9
$DIMTIX
 70
     0
  9
$DIMSOXD
 70
     0
  9
$DIMSAH
 70
     0
  9
$DIMBLK1
  1

  9
$DIMBLK2
  1

  9
$DIMSTYLE
  2
STANDARD
  9
$DIMCLRD
 70
     0
  9
$DIMCLRE
 70
     0
  9
$DIMCLRT
 70
     0
  9
$DIMTFAC
 40
1.0
  9
$DIMGAP
 40
0.09
  9
$DIMJUST
 70
     0
  9
$DIMSD1
 70
     0
  9
$DIMSD2
 70
     0
  9
$DIMTOLJ
 70
     1
  9
$DIMTZIN
 70
     0
  9
$DIMALTZ
 70
     0
  9
$DIMALTTZ
 70
     0
  9
$DIMFIT
 70
     3
  9
$DIMUPT
 70
     0
  9
$DIMUNIT
 70
     2
  9
$DIMDEC
 70
     4
  9
$DIMTDEC
 70
     4
  9
$DIMALTU
 70
     2
  9
$DIMALTTD
 70
     2
  9
$DIMTXSTY
  7
STANDARD
  9
$DIMAUNIT
 70
     0
  9
$LUNITS
 70
     2
  9
$LUPREC
 70
     4
  9
$SKETCHINC
 40
0.1
  9
$FILLETRAD
 40
0.0
  9
$AUNITS
 70
     0
  9
$AUPREC
 70
     0
  9
$MENU
  1
ACAD
  9
$ELEVATION
 40
0.0
  9
$PELEVATION
 40
0.0
  9
$THICKNESS
 40
0.0
  9
$LIMCHECK
 70
     0
  9
$BLIPMODE
 70
     1
  9
$CHAMFERA
 40
0.0
  9
$CHAMFERB
 40
0.0
  9
$CHAMFERC
 40
0.0
  9
$CHAMFERD
 40
0.0
  9
$SKPOLY
 70
     0
  9
$TDCREATE
 40
0.0000000000
  9
$TDUPDATE
 40
0.0000000000
  9
$TDINDWG
 40
0.0000000000
  9
$TDUSRTIMER
 40
0.0000000000
  9
$USRTIMER
 70
     1
  9
$ANGBASE
 50
0.0
  9
$ANGDIR
 70
     0
  9
$PDMODE
 70
     0
  9
$PDSIZE
 40
0.0
  9
$PLINEWID
 40
0.0
  9
$COORDS
 70
     0
  9
$SPLFRAME
 70
     0
  9
$SPLINETYPE
 70
     6
  9
$SPLINESEGS
 70
     8
  9
$ATTDIA
 70
     0
  9
$ATTREQ
 70
     1
  9
$HANDLING
 70
     1
  9
$HANDSEED
  5
345
  9
$SURFTAB1
 70
     6
  9
$SURFTAB2
 70
     6
  9
$SURFTYPE
 70
     6
  9
$SURFU
 70
     6
  9
$SURFV
 70
     6
  9
$UCSNAME
  2

  9
$UCSORG
 10
0.0
 20
0.0
 30
0.0
  9
$UCSXDIR
 10
1.0
 20
0.0
 30
0.0
  9
$UCSYDIR
 10
0.0
 20
1.0
 30
0.0
  9
$PUCSNAME
  2

  9
$PUCSORG
 10
0.0
 20
0.0
 30
0.0
  9
$PUCSXDIR
 10
1.0
 20
0.0
 30
0.0
  9
$PUCSYDIR
 10
0.0
 20
1.0
 30
0.0
  9
$USERI1
 70
     0
  9
$USERI2
 70
     0
  9
$USERI3
 70
     0
  9
$USERI4
 70
     0
  9
$USERI5
 70
     0
  9
$USERR1
 40
0.0
  9
$USERR2
 40
0.0
  9
$USERR3
 40
0.0
  9
$USERR4
 40
0.0
  9
$USERR5
 40
0.0
  9
$WORLDVIEW
 70
     1
  9
$SHADEDGE
 70
     3
  9
$SHADEDIF
 70
    70
  9
$TILEMODE
 70
     1
  9
$MAXACTVP
 70
    48
  9
$PINSBASE
 10
0.0
 20
0.0
 30
0.0
  9
$PLIMCHECK
 70
     0
  9
$PEXTMIN
 10
1.000000E+20
 20
1.000000E+20
 30
1.000000E+20
  9
$PEXTMAX
 10
-1.000000E+20
 20
-1.000000E+20
 30
-1.000000E+20
  9
$PLIMMIN
 10
0.0
 20
0.0
  9
$PLIMMAX
 10
12.0
 20
9.0
  9
$UNITMODE
 70
     0
  9
$VISRETAIN
 70
     1
  9
$PLINEGEN
 70
     0
  9
$PSLTSCALE
 70
     1
  9
$TREEDEPTH
 70
  3020
  9
$PICKSTYLE
 70
     1
  9
$CMLSTYLE
  2
STANDARD
  9
$CMLJUST
 70
     0
  9
$CMLSCALE
 40
1.0
  9
$PROXYGRAPHICS
 70
     1
  9
$MEASUREMENT
 70
     0
  0
ENDSEC
  0
SECTION
  2
CLASSES
  0
ENDSEC
  0
SECTION
  2
TABLES
  0
TABLE
  2
VPORT
  5
8
100
AcDbSymbolTable
 70
     2
  0
VPORT
  5
344
100
AcDbSymbolTableRecord
100
AcDbViewportTableRecord
  2
*ACTIVE
 70
     0
 10
0.0
 20
0.0
 11
1.0
 21
1.0
 12
242.952297
 22
148.5
 13
0.0
 23
0.0
 14
1.0
 24
1.0
 15
0.0
 25
0.0
 16
0.0
 26
0.0
 36
1.0
 17
0.0
 27
0.0
 37
0.0
 40
297.0
 41
1.636042
 42
50.0
 43
0.0
 44
0.0
 50
0.0
 51
0.0
 71
     0
 72
   100
 73
     1
 74
     1
 75
     0
 76
     0
 77
     0
 78
     0
  0
ENDTAB
  0
TABLE
  2
LTYPE
  5
5
100
AcDbSymbolTable
 70
     5
  0
LTYPE
  5
12
100
AcDbSymbolTableRecord
100
AcDbLinetypeTableRecord
  2
BYBLOCK
 70
     0
  3

 72
    65
 73
     0
 40
0.0
  0
LTYPE
  5
13
100
AcDbSymbolTableRecord
100
AcDbLinetypeTableRecord
  2
BYLAYER
 70
     0
  3

 72
    65
 73
     0
 40
0.0
  0
LTYPE
  5
14
100
AcDbSymbolTableRecord
100
AcDbLinetypeTableRecord
  2
CONTINUOUS
 70
     0
  3
Solid line
 72
    65
 73
     0
 40
0.0
  0
LTYPE
  5
20
100
AcDbSymbolTableRecord
100
AcDbLinetypeTableRecord
  2
DASHED
 70
     0
  3
__ __ __ __ __ __ __ __ __ __ __ __ __ __ __ __
 72
    65
 73
     2
 40
0.75
 49
0.5
 74
     0
 49
-0.25
 74
     0
  0
LTYPE
  5
21
100
AcDbSymbolTableRecord
100
AcDbLinetypeTableRecord
  2
DASHDOT
 70
     0
  3
__ . __ . __ . __ . __ . __ . __ . __ . __ . __
 72
    65
 73
     4
 40
1.0
 49
0.5
 74
     0
 49
-0.25
 74
     0
 49
0.0
 74
     0
 49
-0.25
 74
     0
  0
LTYPE
  5
22
100
AcDbSymbolTableRecord
100
AcDbLinetypeTableRecord
  2
DIVIDE
 70
     0
  3
____ . . ____ . . ____ . . ____ . . ____ . . __
 72
    65
 73
     6
 40
1.25
 49
0.5
 74
     0
 49
-0.25
 74
     0
 49
0.0
 74
     0
 49
-0.25
 74
     0
 49
0.0
 74
     0
 49
-0.25
 74
     0
  0
LTYPE
  5
23
100
AcDbSymbolTableRecord
100
AcDbLinetypeTableRecord
  2
DOT
 70
     0
  3
. . . . . . . . . . . . . . . . . . . . . . . .
 72
    65
 73
     2
 40
0.25
 49
0.0
 74
     0
 49
-0.25
 74
     0
  0
ENDTAB
  0
TABLE
  2
LAYER
  5
2
100
AcDbSymbolTable
 70
     4
  0
LAYER
  5
E
100
AcDbSymbolTableRecord
100
AcDbLayerTableRecord
  2
0
 70
     0
 62
     7
  6
CONTINUOUS
  0
LAYER
  5
1F
100
AcDbSymbolTableRecord
100
AcDbLayerTableRecord
  2
M0
 70
     0
 62
     3
  6
CONTINUOUS
  0
LAYER
  5
24
100
AcDbSymbolTableRecord
100
AcDbLayerTableRecord
  2
DD0
 70
     0
 62
     4
  6
CONTINUOUS
  0
LAYER
  5
25
100
AcDbSymbolTableRecord
100
AcDbLayerTableRecord
  2
DN0
 70
     0
 62
     2
  6
CONTINUOUS
  0
ENDTAB
  0
TABLE
  2
STYLE
  5
3
100
AcDbSymbolTable
 70
     1
  0
STYLE
  5
F
100
AcDbSymbolTableRecord
100
AcDbTextStyleTableRecord
  2
STANDARD
 70
     0
 40
0.0
 41
1.0
 50
0.0
 71
     0
 42
0.2
  3
txt
  4
BIGFONT
  0
ENDTAB
  0
TABLE
  2
VIEW
  5
6
100
AcDbSymbolTable
 70
     0
  0
ENDTAB
  0
TABLE
  2
UCS
  5
7
100
AcDbSymbolTable
 70
     0
  0
ENDTAB
  0
TABLE
  2
APPID
  5
9
100
AcDbSymbolTable
 70
     1
  0
APPID
  5
10
100
AcDbSymbolTableRecord
100
AcDbRegAppTableRecord
  2
ACAD
 70
     0
  0
ENDTAB
  0
TABLE
  2
DIMSTYLE
  5
A
100
AcDbSymbolTable
 70
     1
  0
DIMSTYLE
105
342
100
AcDbSymbolTableRecord
100
AcDbDimStyleTableRecord
  2
STANDARD
 70
     0
  3

  4

  5

  6

  7

 40
1.0
 41
0.18
 42
0.0625
 43
0.38
 44
0.18
 45
0.0
 46
0.0
 47
0.0
 48
0.0
140
0.18
141
0.09
142
0.0
143
25.4
144
1.0
145
0.0
146
1.0
147
0.09
 71
     0
 72
     0
 73
     1
 74
     1
 75
     0
 76
     0
 77
     0
 78
     0
170
     0
171
     2
172
     0
173
     0
174
     0
175
     0
176
     0
177
     0
178
     0
270
     2
271
     4
272
     4
273
     2
274
     2
340
F
275
     0
280
     0
281
     0
282
     0
283
     1
284
     0
285
     0
286
     0
287
     3
288
     0
  0
ENDTAB
  0
TABLE
  2
BLOCK_RECORD
  5
1
100
AcDbSymbolTable
 70
     6
  0
BLOCK_RECORD
  5
18
100
AcDbSymbolTableRecord
100
AcDbBlockTableRecord
  2
*MODEL_SPACE
  0
BLOCK_RECORD
  5
15
100
AcDbSymbolTableRecord
100
AcDbBlockTableRecord
  2
*PAPER_SPACE
  0
BLOCK_RECORD
  5
27
100
AcDbSymbolTableRecord
100
AcDbBlockTableRecord
  2
DIMS0
  0
BLOCK_RECORD
  5
32
100
AcDbSymbolTableRecord
100
AcDbBlockTableRecord
  2
DIMS1
  0
BLOCK_RECORD
  5
3D
100
AcDbSymbolTableRecord
100
AcDbBlockTableRecord
  2
DIMS2
  0
BLOCK_RECORD
  5
48
100
AcDbSymbolTableRecord
100
AcDbBlockTableRecord
  2
DIMS3
  0
BLOCK_RECORD
  5
52
100
AcDbSymbolTableRecord
100
AcDbBlockTableRecord
  2
DIMS4
  0
BLOCK_RECORD
  5
5D
100
AcDbSymbolTableRecord
100
AcDbBlockTableRecord
  2
DIMS5
  0
ENDTAB
  0
ENDSEC
  0
SECTION
  2
BLOCKS
  0
BLOCK
  5
19
100
AcDbEntity
  8
0
100
AcDbBlockBegin
  2
*MODEL_SPACE
 70
     0
 10
0.0
 20
0.0
 30
0.0
  3
*MODEL_SPACE
  1

  0
ENDBLK
  5
1A
100
AcDbEntity
  8
0
100
AcDbBlockEnd
  0
BLOCK
  5
16
100
AcDbEntity
 67
     1
  8
0
100
AcDbBlockBegin
  2
*PAPER_SPACE
 70
     0
 10
0.0
 20
0.0
 30
0.0
  3
*PAPER_SPACE
  1

  0
ENDBLK
  5
17
100
AcDbEntity
 67
     1
  8
0
100
AcDbBlockEnd
  0
BLOCK
  5
28
100
AcDbEntity
  8
DD0
100
AcDbBlockBegin
  2
DIMS0
 70
     0
 10
0.0
 20
0.0
 30
0.0
  3
DIMS0
  1

  0
LINE
  5
29
100
AcDbEntity
  8
DD0
100
AcDbLine
 10
85.783844
 20
62.988476
 30
0.0
 11
85.783844
 21
45.819107
 31
0.0
  0
LINE
  5
2A
100
AcDbEntity
  8
DD0
100
AcDbLine
 10
135.783844
 20
62.988476
 30
0.0
 11
135.783844
 21
45.819107
 31
0.0
  0
LINE
  5
2B
100
AcDbEntity
  8
DD0
100
AcDbLine
 10
88.681621
 20
48.095564
 30
0.0
 11
85.783844
 21
47.319107
 31
0.0
  0
LINE
  5
2C
100
AcDbEntity
  8
DD0
100
AcDbLine
 10
85.783844
 20
47.319107
 30
0.0
 11
88.681621
 21
46.54265
 31
0.0
  0
LINE
  5
2D
100
AcDbEntity
  8
DD0
100
AcDbLine
 10
132.886067
 20
46.54265
 30
0.0
 11
135.783844
 21
47.319107
 31
0.0
  0
LINE
  5
2E
100
AcDbEntity
  8
DD0
100
AcDbLine
 10
135.783844
 20
47.319107
 30
0.0
 11
132.886067
 21
48.095564
 31
0.0
  0
LINE
  5
2F
100
AcDbEntity
  8
DD0
100
AcDbLine
 10
85.783844
 20
47.319107
 30
0.0
 11
135.783844
 21
47.319107
 31
0.0
  0
TEXT
  5
30
100
AcDbEntity
  8
DD0
100
AcDbText
 10
105.122178
 20
48.319107
 30
0.0
 40
4.0
  1
４００
 41
0.833333
100
AcDbText
  0
ENDBLK
  5
31
100
AcDbEntity
  8
DD0
100
AcDbBlockEnd
  0
BLOCK
  5
33
100
AcDbEntity
  8
DD0
100
AcDbBlockBegin
  2
DIMS1
 70
     0
 10
0.0
 20
0.0
 30
0.0
  3
DIMS1
  1

  0
LINE
  5
34
100
AcDbEntity
  8
DD0
100
AcDbLine
 10
239.603714
 20
175.36348
 30
0.0
 11
284.224731
 21
175.36348
 31
0.0
  0
LINE
  5
35
100
AcDbEntity
  8
DD0
100
AcDbLine
 10
241.471344
 20
169.11348
 30
0.0
 11
284.224731
 21
169.11348
 31
0.0
  0
LINE
  5
36
100
AcDbEntity
  8
DD0
100
AcDbLine
 10
281.948274
 20
178.261257
 30
0.0
 11
282.724731
 21
175.36348
 31
0.0
  0
LINE
  5
37
100
AcDbEntity
  8
DD0
100
AcDbLine
 10
282.724731
 20
175.36348
 30
0.0
 11
283.501189
 21
178.261257
 31
0.0
  0
LINE
  5
38
100
AcDbEntity
  8
DD0
100
AcDbLine
 10
283.501189
 20
166.215702
 30
0.0
 11
282.724731
 21
169.11348
 31
0.0
  0
LINE
  5
39
100
AcDbEntity
  8
DD0
100
AcDbLine
 10
282.724731
 20
169.11348
 30
0.0
 11
281.948274
 21
166.215702
 31
0.0
  0
LINE
  5
3A
100
AcDbEntity
  8
DD0
100
AcDbLine
 10
282.724731
 20
187.66348
 30
0.0
 11
282.724731
 21
165.81348
 31
0.0
  0
TEXT
  5
3B
100
AcDbEntity
  8
DD0
100
AcDbText
 10
281.724731
 20
179.001809
 30
0.0
 40
4.0
  1
５０
 50
90.000003
 41
0.833333
100
AcDbText
  0
ENDBLK
  5
3C
100
AcDbEntity
  8
DD0
100
AcDbBlockEnd
  0
BLOCK
  5
3E
100
AcDbEntity
  8
DD0
100
AcDbBlockBegin
  2
DIMS2
 70
     0
 10
0.0
 20
0.0
 30
0.0
  3
DIMS2
  1

  0
LINE
  5
3F
100
AcDbEntity
  8
DD0
100
AcDbLine
 10
239.603714
 20
175.36348
 30
0.0
 11
295.620911
 21
175.36348
 31
0.0
  0
LINE
  5
40
100
AcDbEntity
  8
DD0
100
AcDbLine
 10
275.654846
 20
86.613472
 30
0.0
 11
295.620911
 21
86.613472
 31
0.0
  0
LINE
  5
41
100
AcDbEntity
  8
DD0
100
AcDbLine
 10
294.897368
 20
172.465702
 30
0.0
 11
294.120911
 21
175.36348
 31
0.0
  0
LINE
  5
42
100
AcDbEntity
  8
DD0
100
AcDbLine
 10
294.120911
 20
175.36348
 30
0.0
 11
293.344453
 21
172.465702
 31
0.0
  0
LINE
  5
43
100
AcDbEntity
  8
DD0
100
AcDbLine
 10
293.344453
 20
89.511249
 30
0.0
 11
294.120911
 21
86.613472
 31
0.0
  0
LINE
  5
44
100
AcDbEntity
  8
DD0
100
AcDbLine
 10
294.120911
 20
86.613472
 30
0.0
 11
294.897368
 21
89.511249
 31
0.0
  0
LINE
  5
45
100
AcDbEntity
  8
DD0
100
AcDbLine
 10
294.120911
 20
175.36348
 30
0.0
 11
294.120911
 21
86.613472
 31
0.0
  0
TEXT
  5
46
100
AcDbEntity
  8
DD0
100
AcDbText
 10
293.120911
 20
125.326806
 30
0.0
 40
4.0
  1
７１０
 50
90.000003
 41
0.833333
100
AcDbText
  0
ENDBLK
  5
47
100
AcDbEntity
  8
DD0
100
AcDbBlockEnd
  0
BLOCK
  5
49
100
AcDbEntity
  8
DD0
100
AcDbBlockBegin
  2
DIMS3
 70
     0
 10
0.0
 20
0.0
 30
0.0
  3
DIMS3
  1

  0
LINE
  5
4A
100
AcDbEntity
  8
DD0
100
AcDbLine
 10
255.971344
 20
57.613476
 30
0.0
 11
295.620911
 21
57.613476
 31
0.0
  0
LINE
  5
4B
100
AcDbEntity
  8
DD0
100
AcDbLine
 10
294.897368
 20
83.715695
 30
0.0
 11
294.120911
 21
86.613472
 31
0.0
  0
LINE
  5
4C
100
AcDbEntity
  8
DD0
100
AcDbLine
 10
294.120911
 20
86.613472
 30
0.0
 11
293.344453
 21
83.715695
 31
0.0
  0
LINE
  5
4D
100
AcDbEntity
  8
DD0
100
AcDbLine
 10
293.344453
 20
60.511253
 30
0.0
 11
294.120911
 21
57.613476
 31
0.0
  0
LINE
  5
4E
100
AcDbEntity
  8
DD0
100
AcDbLine
 10
294.120911
 20
57.613476
 30
0.0
 11
294.897368
 21
60.511253
 31
0.0
  0
LINE
  5
4F
100
AcDbEntity
  8
DD0
100
AcDbLine
 10
294.120911
 20
86.613472
 30
0.0
 11
294.120911
 21
57.613476
 31
0.0
  0
TEXT
  5
50
100
AcDbEntity
  8
DD0
100
AcDbText
 10
293.120911
 20
66.451806
 30
0.0
 40
4.0
  1
２３２
 50
90.000003
 41
0.833333
100
AcDbText
  0
ENDBLK
  5
51
100
AcDbEntity
  8
DD0
100
AcDbBlockEnd
  0
BLOCK
  5
53
100
AcDbEntity
  8
DD0
100
AcDbBlockBegin
  2
DIMS4
 70
     0
 10
0.0
 20
0.0
 30
0.0
  3
DIMS4
  1

  0
LINE
  5
54
100
AcDbEntity
  8
DD0
100
AcDbLine
 10
238.603714
 20
176.36348
 30
0.0
 11
238.603714
 21
192.416611
 31
0.0
  0
LINE
  5
55
100
AcDbEntity
  8
DD0
100
AcDbLine
 10
242.337341
 20
176.36348
 30
0.0
 11
242.337341
 21
192.416611
 31
0.0
  0
LINE
  5
56
100
AcDbEntity
  8
DD0
100
AcDbLine
 10
235.705937
 20
190.140154
 30
0.0
 11
238.603714
 21
190.916611
 31
0.0
  0
LINE
  5
57
100
AcDbEntity
  8
DD0
100
AcDbLine
 10
238.603714
 20
190.916611
 30
0.0
 11
235.705937
 21
191.693068
 31
0.0
  0
LINE
  5
58
100
AcDbEntity
  8
DD0
100
AcDbLine
 10
245.235119
 20
191.693068
 30
0.0
 11
242.337341
 21
190.916611
 31
0.0
  0
LINE
  5
59
100
AcDbEntity
  8
DD0
100
AcDbLine
 10
242.337341
 20
190.916611
 30
0.0
 11
245.235119
 21
190.140154
 31
0.0
  0
LINE
  5
5A
100
AcDbEntity
  8
DD0
100
AcDbLine
 10
214.303715
 20
190.916611
 30
0.0
 11
245.637341
 21
190.916611
 31
0.0
  0
TEXT
  5
5B
100
AcDbEntity
  8
DD0
100
AcDbText
 10
215.072046
 20
191.916611
 30
0.0
 40
4.0
  1
□３３．５
 41
0.833333
100
AcDbText
  0
ENDBLK
  5
5C
100
AcDbEntity
  8
DD0
100
AcDbBlockEnd
  0
BLOCK
  5
5E
100
AcDbEntity
  8
DD0
100
AcDbBlockBegin
  2
DIMS5
 70
     0
 10
0.0
 20
0.0
 30
0.0
  3
DIMS5
  1

  0
LINE
  5
5F
100
AcDbEntity
  8
DD0
100
AcDbLine
 10
237.540359
 20
170.166199
 30
0.0
 11
228.141129
 21
183.865341
 31
0.0
  0
LINE
  5
60
100
AcDbEntity
  8
DD0
100
AcDbLine
 10
242.270813
 20
170.166199
 30
0.0
 11
232.871567
 21
183.865341
 31
0.0
  0
LINE
  5
61
100
AcDbEntity
  8
DD0
100
AcDbLine
 10
226.091984
 20
181.852022
 30
0.0
 11
228.989761
 21
182.628479
 31
0.0
  0
LINE
  5
62
100
AcDbEntity
  8
DD0
100
AcDbLine
 10
228.989761
 20
182.628479
 30
0.0
 11
226.091984
 21
183.404936
 31
0.0
  0
LINE
  5
63
100
AcDbEntity
  8
DD0
100
AcDbLine
 10
236.617977
 20
183.404936
 30
0.0
 11
233.7202
 21
182.628479
 31
0.0
  0
LINE
  5
64
100
AcDbEntity
  8
DD0
100
AcDbLine
 10
233.7202
 20
182.628479
 30
0.0
 11
236.617977
 21
181.852022
 31
0.0
  0
LINE
  5
65
100
AcDbEntity
  8
DD0
100
AcDbLine
 10
212.689762
 20
182.628479
 30
0.0
 11
237.0202
 21
182.628479
 31
0.0
  0
TEXT
  5
66
100
AcDbEntity
  8
DD0
100
AcDbText
 10
213.458093
 20
183.628479
 30
0.0
 40
4.0
  1
□３８
 41
0.833333
100
AcDbText
  0
ENDBLK
  5
67
100
AcDbEntity
  8
DD0
100
AcDbBlockEnd
  0
ENDSEC
  0
SECTION
  2
ENTITIES
  0
INSERT
  5
68
100
AcDbEntity
  8
DD0
100
AcDbBlockReference
  2
DIMS0
 10
0.0
 20
0.0
 30
0.0
  0
INSERT
  5
69
100
AcDbEntity
  8
DD0
100
AcDbBlockReference
  2
DIMS1
 10
0.0
 20
0.0
 30
0.0
  0
INSERT
  5
6A
100
AcDbEntity
  8
DD0
100
AcDbBlockReference
  2
DIMS2
 10
0.0
 20
0.0
 30
0.0
  0
INSERT
  5
6B
100
AcDbEntity
  8
DD0
100
AcDbBlockReference
  2
DIMS3
 10
0.0
 20
0.0
 30
0.0
  0
INSERT
  5
6C
100
AcDbEntity
  8
DD0
100
AcDbBlockReference
  2
DIMS4
 10
0.0
 20
0.0
 30
0.0
  0
INSERT
  5
6D
100
AcDbEntity
  8
DD0
100
AcDbBlockReference
  2
DIMS5
 10
0.0
 20
0.0
 30
0.0
  0
CIRCLE
  5
6E
100
AcDbEntity
  8
M0
100
AcDbCircle
 10
112.172919
 20
233.456797
 30
0.0
 40
6.25
  0
LINE
  5
6F
100
AcDbEntity
  8
M0
100
AcDbLine
 10
108.637385
 20
236.992331
 30
0.0
 11
107.753501
 21
237.876214
 31
0.0
  0
LINE
  5
70
100
AcDbEntity
  8
M0
100
AcDbLine
 10
110.879359
 20
228.629164
 30
0.0
 11
110.878824
 21
228.627168
 31
0.0
  0
LINE
  5
71
100
AcDbEntity
  8
M0
100
AcDbLine
 10
110.393538
 20
230.438279
 30
0.0
 11
111.240677
 21
227.276714
 31
0.0
  0
LINE
  5
72
100
AcDbEntity
  8
M0
100
AcDbLine
 10
110.393538
 20
230.438279
 30
0.0
 11
109.64549
 21
229.142622
 31
0.0
  0
ARC
  5
73
100
AcDbEntity
  8
M0
100
AcDbCircle
 10
112.172919
 20
233.456797
 30
0.0
 40
5.0
100
AcDbArc
 50
135.0
 51
239.584455
  0
LINE
  5
74
100
AcDbEntity
  8
M0
100
AcDbLine
 10
115.223167
 20
235.18122
 30
0.0
 11
116.070306
 21
238.342785
 31
0.0
  0
LINE
  5
75
100
AcDbEntity
  8
M0
100
AcDbLine
 10
115.223167
 20
235.18122
 30
0.0
 11
116.518824
 21
235.929268
 31
0.0
  0
ARC
  5
76
100
AcDbEntity
  8
M0
100
AcDbCircle
 10
112.172919
 20
233.456797
 30
0.0
 40
5.0
100
AcDbArc
 50
285.0
 51
29.584455
  0
LINE
  5
77
100
AcDbEntity
  8
M0
100
AcDbLine
 10
113.467014
 20
228.627168
 30
0.0
 11
113.790538
 21
227.419761
 31
0.0
  0
LINE
  5
78
100
AcDbEntity
  8
M0
100
AcDbLine
 10
114.547919
 20
231.706797
 30
0.0
 11
113.922919
 21
231.081797
 31
0.0
  0
LINE
  5
79
100
AcDbEntity
  8
M0
100
AcDbLine
 10
113.922919
 20
231.456797
 30
0.0
 11
114.172919
 21
231.706797
 31
0.0
  0
LINE
  5
7A
100
AcDbEntity
  8
M0
100
AcDbLine
 10
114.172919
 20
231.706797
 30
0.0
 11
114.547919
 21
231.706797
 31
0.0
  0
LINE
  5
7B
100
AcDbEntity
  8
M0
100
AcDbLine
 10
114.547919
 20
231.706797
 30
0.0
 11
114.547919
 21
235.206797
 31
0.0
  0
LINE
  5
7C
100
AcDbEntity
  8
M0
100
AcDbLine
 10
114.172919
 20
235.206797
 30
0.0
 11
114.547919
 21
235.206797
 31
0.0
  0
LINE
  5
7D
100
AcDbEntity
  8
M0
100
AcDbLine
 10
114.547919
 20
235.206797
 30
0.0
 11
113.922919
 21
235.831797
 31
0.0
  0
LINE
  5
7E
100
AcDbEntity
  8
M0
100
AcDbLine
 10
113.922919
 20
235.456797
 30
0.0
 11
114.172919
 21
235.206797
 31
0.0
  0
LINE
  5
7F
100
AcDbEntity
  8
M0
100
AcDbLine
 10
110.422919
 20
235.456797
 30
0.0
 11
113.922919
 21
235.456797
 31
0.0
  0
LINE
  5
80
100
AcDbEntity
  8
M0
100
AcDbLine
 10
110.422919
 20
235.831797
 30
0.0
 11
113.922919
 21
235.831797
 31
0.0
  0
LINE
  5
81
100
AcDbEntity
  8
M0
100
AcDbLine
 10
110.422919
 20
235.831797
 30
0.0
 11
110.422919
 21
235.456797
 31
0.0
  0
LINE
  5
82
100
AcDbEntity
  8
M0
100
AcDbLine
 10
110.422919
 20
235.456797
 30
0.0
 11
110.172919
 21
235.206797
 31
0.0
  0
LINE
  5
83
100
AcDbEntity
  8
M0
100
AcDbLine
 10
113.922919
 20
235.831797
 30
0.0
 11
113.922919
 21
235.456797
 31
0.0
  0
LINE
  5
84
100
AcDbEntity
  8
M0
100
AcDbLine
 10
110.172919
 20
235.206797
 30
0.0
 11
109.797919
 21
235.206797
 31
0.0
  0
LINE
  5
85
100
AcDbEntity
  8
M0
100
AcDbLine
 10
109.797919
 20
235.206797
 30
0.0
 11
110.422919
 21
235.831797
 31
0.0
  0
LINE
  5
86
100
AcDbEntity
  8
M0
100
AcDbLine
 10
110.172919
 20
231.706797
 30
0.0
 11
110.172919
 21
235.206797
 31
0.0
  0
LINE
  5
87
100
AcDbEntity
  8
M0
100
AcDbLine
 10
109.797919
 20
231.706797
 30
0.0
 11
109.797919
 21
235.206797
 31
0.0
  0
LINE
  5
88
100
AcDbEntity
  8
M0
100
AcDbLine
 10
110.172919
 20
231.706797
 30
0.0
 11
109.797919
 21
231.706797
 31
0.0
  0
LINE
  5
89
100
AcDbEntity
  8
M0
100
AcDbLine
 10
109.797919
 20
231.706797
 30
0.0
 11
110.422919
 21
231.081797
 31
0.0
  0
LINE
  5
8A
100
AcDbEntity
  8
M0
100
AcDbLine
 10
110.422919
 20
231.456797
 30
0.0
 11
110.172919
 21
231.706797
 31
0.0
  0
LINE
  5
8B
100
AcDbEntity
  8
M0
100
AcDbLine
 10
110.422919
 20
231.081797
 30
0.0
 11
110.422919
 21
231.456797
 31
0.0
  0
LINE
  5
8C
100
AcDbEntity
  8
M0
100
AcDbLine
 10
110.422919
 20
231.456797
 30
0.0
 11
113.922919
 21
231.456797
 31
0.0
  0
LINE
  5
8D
100
AcDbEntity
  8
M0
100
AcDbLine
 10
110.422919
 20
231.081797
 30
0.0
 11
113.922919
 21
231.081797
 31
0.0
  0
LINE
  5
8E
100
AcDbEntity
  8
M0
100
AcDbLine
 10
113.922919
 20
231.081797
 30
0.0
 11
113.922919
 21
231.456797
 31
0.0
  0
ARC
  5
8F
100
AcDbEntity
  8
M0
100
AcDbCircle
 10
112.985419
 20
232.394297
 30
0.0
 40
0.4375
100
AcDbArc
 50
270.0
 51
0.0
  0
LINE
  5
90
100
AcDbEntity
  8
M0
100
AcDbLine
 10
113.422919
 20
232.772259
 30
0.0
 11
113.422919
 21
232.394297
 31
0.0
  0
LINE
  5
91
100
AcDbEntity
  8
M0
100
AcDbLine
 10
111.339618
 20
233.81708
 30
0.0
 11
113.131028
 21
233.184817
 31
0.0
  0
ARC
  5
92
100
AcDbEntity
  8
M0
100
AcDbCircle
 10
112.985419
 20
232.772259
 30
0.0
 40
0.4375
100
AcDbArc
 50
0.0
 51
70.559965
  0
LINE
  5
93
100
AcDbEntity
  8
M0
100
AcDbLine
 10
113.172919
 20
234.206797
 30
0.0
 11
113.297919
 21
234.206797
 31
0.0
  0
ARC
  5
94
100
AcDbEntity
  8
M0
100
AcDbCircle
 10
113.297919
 20
234.331797
 30
0.0
 40
0.125
100
AcDbArc
 50
270.0
 51
0.0
  0
LINE
  5
95
100
AcDbEntity
  8
M0
100
AcDbLine
 10
113.422919
 20
234.331797
 30
0.0
 11
113.422919
 21
234.519297
 31
0.0
  0
ARC
  5
96
100
AcDbEntity
  8
M0
100
AcDbCircle
 10
112.985419
 20
234.519297
 30
0.0
 40
0.4375
100
AcDbArc
 50
0.0
 51
90.0
  0
ARC
  5
97
100
AcDbEntity
  8
M0
100
AcDbCircle
 10
113.172919
 20
234.331797
 30
0.0
 40
0.125
100
AcDbArc
 50
180.0
 51
270.0
  0
LINE
  5
98
100
AcDbEntity
  8
M0
100
AcDbLine
 10
113.047919
 20
234.519297
 30
0.0
 11
113.047919
 21
234.331797
 31
0.0
  0
ARC
  5
99
100
AcDbEntity
  8
M0
100
AcDbCircle
 10
112.985419
 20
234.519297
 30
0.0
 40
0.0625
100
AcDbArc
 50
0.0
 51
90.0
  0
LINE
  5
9A
100
AcDbEntity
  8
M0
100
AcDbLine
 10
111.360419
 20
234.581797
 30
0.0
 11
112.985419
 21
234.581797
 31
0.0
  0
LINE
  5
9B
100
AcDbEntity
  8
M0
100
AcDbLine
 10
111.360419
 20
234.956797
 30
0.0
 11
112.985419
 21
234.956797
 31
0.0
  0
ARC
  5
9C
100
AcDbEntity
  8
M0
100
AcDbCircle
 10
111.360419
 20
234.519297
 30
0.0
 40
0.4375
100
AcDbArc
 50
90.0
 51
180.0
  0
ARC
  5
9D
100
AcDbEntity
  8
M0
100
AcDbCircle
 10
111.360419
 20
234.519297
 30
0.0
 40
0.0625
100
AcDbArc
 50
90.0
 51
180.0
  0
LINE
  5
9E
100
AcDbEntity
  8
M0
100
AcDbLine
 10
111.297919
 20
234.519297
 30
0.0
 11
111.297919
 21
233.876017
 31
0.0
  0
ARC
  5
9F
100
AcDbEntity
  8
M0
100
AcDbCircle
 10
111.360419
 20
233.876017
 30
0.0
 40
0.0625
100
AcDbArc
 50
180.0
 51
250.559965
  0
ARC
  5
A0
100
AcDbEntity
  8
M0
100
AcDbCircle
 10
111.360419
 20
233.876017
 30
0.0
 40
0.4375
100
AcDbArc
 50
180.0
 51
250.559965
  0
LINE
  5
A1
100
AcDbEntity
  8
M0
100
AcDbLine
 10
110.922919
 20
233.876017
 30
0.0
 11
110.922919
 21
234.519297
 31
0.0
  0
LINE
  5
A2
100
AcDbEntity
  8
M0
100
AcDbLine
 10
111.21481
 20
233.463458
 30
0.0
 11
113.00622
 21
232.831196
 31
0.0
  0
LINE
  5
A3
100
AcDbEntity
  8
M0
100
AcDbLine
 10
113.047919
 20
232.394297
 30
0.0
 11
113.047919
 21
232.772259
 31
0.0
  0
ARC
  5
A4
100
AcDbEntity
  8
M0
100
AcDbCircle
 10
112.985419
 20
232.772259
 30
0.0
 40
0.0625
100
AcDbArc
 50
0.0
 51
70.559965
  0
LINE
  5
A5
100
AcDbEntity
  8
M0
100
AcDbLine
 10
112.985419
 20
232.331797
 30
0.0
 11
111.360419
 21
232.331797
 31
0.0
  0
ARC
  5
A6
100
AcDbEntity
  8
M0
100
AcDbCircle
 10
112.985419
 20
232.394297
 30
0.0
 40
0.0625
100
AcDbArc
 50
270.0
 51
0.0
  0
LINE
  5
A7
100
AcDbEntity
  8
M0
100
AcDbLine
 10
112.985419
 20
231.956797
 30
0.0
 11
111.360419
 21
231.956797
 31
0.0
  0
ARC
  5
A8
100
AcDbEntity
  8
M0
100
AcDbCircle
 10
111.360419
 20
232.394297
 30
0.0
 40
0.4375
100
AcDbArc
 50
180.0
 51
270.0
  0
ARC
  5
A9
100
AcDbEntity
  8
M0
100
AcDbCircle
 10
111.360419
 20
232.394297
 30
0.0
 40
0.0625
100
AcDbArc
 50
180.0
 51
270.0
  0
LINE
  5
AA
100
AcDbEntity
  8
M0
100
AcDbLine
 10
111.297919
 20
232.394297
 30
0.0
 11
111.297919
 21
232.581797
 31
0.0
  0
ARC
  5
AB
100
AcDbEntity
  8
M0
100
AcDbCircle
 10
111.172919
 20
232.581797
 30
0.0
 40
0.125
100
AcDbArc
 50
0.0
 51
90.0
  0
LINE
  5
AC
100
AcDbEntity
  8
M0
100
AcDbLine
 10
111.172919
 20
232.706797
 30
0.0
 11
111.047919
 21
232.706797
 31
0.0
  0
ARC
  5
AD
100
AcDbEntity
  8
M0
100
AcDbCircle
 10
111.047919
 20
232.581797
 30
0.0
 40
0.125
100
AcDbArc
 50
90.0
 51
180.0
  0
LINE
  5
AE
100
AcDbEntity
  8
M0
100
AcDbLine
 10
110.922919
 20
232.581797
 30
0.0
 11
110.922919
 21
232.394297
 31
0.0
  0
LINE
  5
AF
100
AcDbEntity
  8
M0
100
AcDbLine
 10
112.735419
 20
236.769297
 30
0.0
 11
112.735419
 21
237.519297
 31
0.0
  0
LINE
  5
B0
100
AcDbEntity
  8
M0
100
AcDbLine
 10
111.610419
 20
236.769297
 30
0.0
 11
111.610419
 21
237.519297
 31
0.0
  0
LINE
  5
B1
100
AcDbEntity
  8
M0
100
AcDbLine
 10
112.485419
 20
236.769297
 30
0.0
 11
112.485419
 21
237.519297
 31
0.0
  0
LINE
  5
B2
100
AcDbEntity
  8
M0
100
AcDbLine
 10
111.860419
 20
236.769297
 30
0.0
 11
111.860419
 21
237.519297
 31
0.0
  0
ARC
  5
B3
100
AcDbEntity
  8
M0
100
AcDbCircle
 10
112.172919
 20
236.769297
 30
0.0
 40
0.3125
100
AcDbArc
 50
180.0
 51
0.0
  0
ARC
  5
B4
100
AcDbEntity
  8
M0
100
AcDbCircle
 10
112.172919
 20
236.769297
 30
0.0
 40
0.5625
100
AcDbArc
 50
180.0
 51
270.0
  0
ARC
  5
B5
100
AcDbEntity
  8
M0
100
AcDbCircle
 10
112.172919
 20
236.769297
 30
0.0
 40
0.5625
100
AcDbArc
 50
270.0
 51
0.0
  0
ARC
  5
B6
100
AcDbEntity
  8
M0
100
AcDbCircle
 10
112.172919
 20
237.519297
 30
0.0
 40
0.3125
100
AcDbArc
 50
0.0
 51
180.0
  0
ARC
  5
B7
100
AcDbEntity
  8
M0
100
AcDbCircle
 10
112.172919
 20
237.519297
 30
0.0
 40
0.5625
100
AcDbArc
 50
0.0
 51
90.0
  0
ARC
  5
B8
100
AcDbEntity
  8
M0
100
AcDbCircle
 10
112.172919
 20
237.519297
 30
0.0
 40
0.5625
100
AcDbArc
 50
90.0
 51
180.0
  0
LINE
  5
B9
100
AcDbEntity
  8
M0
100
AcDbLine
 10
115.682864
 20
236.966742
 30
0.0
 11
115.708453
 21
236.992331
 31
0.0
  0
LINE
  5
BA
100
AcDbEntity
  8
M0
100
AcDbLine
 10
114.172919
 20
231.706797
 30
0.0
 11
114.172919
 21
235.206797
 31
0.0
  0
LINE
  5
BB
100
AcDbEntity
  8
M0
100
AcDbLine
 10
104.533842
 20
168.488754
 30
0.0
 11
104.533842
 21
168.869565
 31
0.0
  0
LINE
  5
BC
100
AcDbEntity
  8
M0
  6
DASHDOT
100
AcDbLine
 10
110.783842
 20
164.113474
 30
0.0
 11
110.783842
 21
176.727012
 31
0.0
  0
LINE
  5
BD
100
AcDbEntity
  8
M0
100
AcDbLine
 10
110.783842
 20
169.113754
 30
0.0
 11
108.242662
 21
169.113754
 31
0.0
  0
LINE
  5
BE
100
AcDbEntity
  8
M0
100
AcDbLine
 10
108.41862
 20
169.341905
 30
0.0
 11
108.666432
 21
175.124179
 31
0.0
  0
LINE
  5
BF
100
AcDbEntity
  8
M0
100
AcDbLine
 10
107.658842
 20
164.363474
 30
0.0
 11
107.658842
 21
168.113754
 31
0.0
  0
LINE
  5
C0
100
AcDbEntity
  8
M0
100
AcDbLine
 10
116.946511
 20
168.988754
 30
0.0
 11
104.621174
 21
168.988754
 31
0.0
  0
LINE
  5
C1
100
AcDbEntity
  8
M0
100
AcDbLine
 10
104.652897
 20
168.994423
 30
0.0
 11
108.180741
 21
169.102892
 31
0.0
  0
ARC
  5
C2
100
AcDbEntity
  8
M0
100
AcDbCircle
 10
108.16885
 20
169.352609
 30
0.0
 40
0.25
100
AcDbArc
 50
272.726311
 51
357.545968
  0
ARC
  5
C3
100
AcDbEntity
  8
M0
100
AcDbCircle
 10
107.408842
 20
168.113754
 30
0.0
 40
0.25
100
AcDbArc
 50
0.0
 51
90.0
  0
ARC
  5
C4
100
AcDbEntity
  8
M0
100
AcDbCircle
 10
104.658842
 20
168.488754
 30
0.0
 40
0.125
100
AcDbArc
 50
180.0
 51
270.0
  0
ARC
  5
C5
100
AcDbEntity
  8
M0
100
AcDbCircle
 10
104.658842
 20
168.869565
 30
0.0
 40
0.125
100
AcDbArc
 50
92.726311
 51
180.0
  0
LINE
  5
C6
100
AcDbEntity
  8
M0
100
AcDbLine
 10
108.910523
 20
175.363473
 30
0.0
 11
108.909625
 21
169.364016
 31
0.0
  0
ARC
  5
C7
100
AcDbEntity
  8
M0
100
AcDbCircle
 10
109.159625
 20
169.363978
 30
0.0
 40
0.25
100
AcDbArc
 50
179.99142
 51
269.99142
  0
ARC
  5
C8
100
AcDbEntity
  8
M0
100
AcDbCircle
 10
116.908842
 20
168.488754
 30
0.0
 40
0.125
100
AcDbArc
 50
270.0
 51
0.0
  0
LINE
  5
C9
100
AcDbEntity
  8
M0
100
AcDbLine
 10
117.033842
 20
168.488754
 30
0.0
 11
117.033842
 21
168.869565
 31
0.0
  0
ARC
  5
CA
100
AcDbEntity
  8
M0
100
AcDbCircle
 10
116.908842
 20
168.869565
 30
0.0
 40
0.125
100
AcDbArc
 50
0.0
 51
87.273689
  0
ARC
  5
CB
100
AcDbEntity
  8
M0
100
AcDbCircle
 10
114.158286
 20
168.113754
 30
0.0
 40
0.25
100
AcDbArc
 50
90.0
 51
180.008789
  0
LINE
  5
CC
100
AcDbEntity
  8
M0
100
AcDbLine
 10
116.914788
 20
168.994423
 30
0.0
 11
113.386944
 21
169.102892
 31
0.0
  0
ARC
  5
CD
100
AcDbEntity
  8
M0
100
AcDbCircle
 10
113.398835
 20
169.352609
 30
0.0
 40
0.25
100
AcDbArc
 50
182.454032
 51
267.273689
  0
LINE
  5
CE
100
AcDbEntity
  8
M0
100
AcDbLine
 10
116.908842
 20
168.363754
 30
0.0
 11
104.658842
 21
168.363754
 31
0.0
  0
LINE
  5
CF
100
AcDbEntity
  8
M0
100
AcDbLine
 10
108.916165
 20
175.363474
 30
0.0
 11
112.649789
 21
175.364033
 31
0.0
  0
ARC
  5
D0
100
AcDbEntity
  8
M0
100
AcDbCircle
 10
108.916203
 20
175.113474
 30
0.0
 40
0.25
100
AcDbArc
 50
90.00858
 51
177.545968
  0
LINE
  5
D1
100
AcDbEntity
  8
M0
100
AcDbLine
 10
112.657161
 20
175.364034
 30
0.0
 11
108.909587
 21
169.113754
 31
0.0
  0
LINE
  5
D2
100
AcDbEntity
  8
M0
100
AcDbLine
 10
108.910523
 20
175.363473
 30
0.0
 11
112.658097
 21
169.114034
 31
0.0
  0
LINE
  5
D3
100
AcDbEntity
  8
M0
100
AcDbLine
 10
113.323804
 20
169.114134
 30
0.0
 11
110.783133
 21
169.113754
 31
0.0
  0
LINE
  5
D4
100
AcDbEntity
  8
M0
  6
DASHDOT
100
AcDbLine
 10
114.738604
 20
165.863754
 30
0.0
 11
112.672347
 21
165.863754
 31
0.0
  0
LINE
  5
D5
100
AcDbEntity
  8
M0
100
AcDbLine
 10
112.657161
 20
175.364034
 30
0.0
 11
112.65806
 21
169.364016
 31
0.0
  0
LINE
  5
D6
100
AcDbEntity
  8
M0
100
AcDbLine
 10
112.899596
 20
175.124775
 30
0.0
 11
113.147806
 21
169.353403
 31
0.0
  0
LINE
  5
D7
100
AcDbEntity
  8
M0
100
AcDbLine
 10
113.908804
 20
164.363513
 30
0.0
 11
113.908286
 21
168.113716
 31
0.0
  0
ARC
  5
D8
100
AcDbEntity
  8
M0
  6
DASHED
100
AcDbCircle
 10
110.783565
 20
165.863754
 30
0.0
 40
0.5
100
AcDbArc
 50
270.009778
 51
270.031751
  0
ARC
  5
D9
100
AcDbEntity
  8
M0
  6
DASHED
100
AcDbCircle
 10
110.783565
 20
165.863754
 30
0.0
 40
0.625
100
AcDbArc
 50
270.00958
 51
270.025401
  0
ARC
  5
DA
100
AcDbEntity
  8
M0
100
AcDbCircle
 10
112.40806
 20
169.363978
 30
0.0
 40
0.25
100
AcDbArc
 50
270.00858
 51
0.00858
  0
ARC
  5
DB
100
AcDbEntity
  8
M0
100
AcDbCircle
 10
112.649827
 20
175.114033
 30
0.0
 40
0.25
100
AcDbArc
 50
2.462611
 51
90.00858
  0
LINE
  5
DC
100
AcDbEntity
  8
M0
100
AcDbLine
 10
107.908842
 20
164.113474
 30
0.0
 11
113.658804
 21
164.113474
 31
0.0
  0
ARC
  5
DD
100
AcDbEntity
  8
M0
100
AcDbCircle
 10
107.908842
 20
164.363474
 30
0.0
 40
0.25
100
AcDbArc
 50
180.0
 51
270.0
  0
ARC
  5
DE
100
AcDbEntity
  8
M0
100
AcDbCircle
 10
113.658804
 20
164.363474
 30
0.0
 40
0.25
100
AcDbArc
 50
270.0
 51
0.008789
  0
LINE
  5
DF
100
AcDbEntity
  8
M0
100
AcDbLine
 10
243.011302
 20
169.113854
 30
0.0
 11
240.47063
 21
169.113474
 31
0.0
  0
LINE
  5
E0
100
AcDbEntity
  8
M0
  6
DASHDOT
100
AcDbLine
 10
241.538494
 20
165.863474
 30
0.0
 11
239.403631
 21
165.863474
 31
0.0
  0
ARC
  5
E1
100
AcDbEntity
  8
M0
  6
DASHED
100
AcDbCircle
 10
240.471062
 20
165.863474
 30
0.0
 40
0.5
100
AcDbArc
 50
270.009778
 51
270.031751
  0
ARC
  5
E2
100
AcDbEntity
  8
M0
  6
DASHED
100
AcDbCircle
 10
240.471062
 20
165.863474
 30
0.0
 40
0.625
100
AcDbArc
 50
270.00958
 51
270.025401
  0
LINE
  5
E3
100
AcDbEntity
  8
M0
100
AcDbLine
 10
242.344659
 20
175.363474
 30
0.0
 11
242.345557
 21
169.363736
 31
0.0
  0
LINE
  5
E4
100
AcDbEntity
  8
M0
100
AcDbLine
 10
242.587105
 20
175.124216
 30
0.0
 11
242.835303
 21
169.353123
 31
0.0
  0
LINE
  5
E5
100
AcDbEntity
  8
M0
100
AcDbLine
 10
243.596301
 20
164.363513
 30
0.0
 11
243.595783
 21
168.113436
 31
0.0
  0
ARC
  5
E6
100
AcDbEntity
  8
M0
100
AcDbCircle
 10
243.346301
 20
164.363474
 30
0.0
 40
0.25
100
AcDbArc
 50
270.0
 51
0.008789
  0
ARC
  5
E7
100
AcDbEntity
  8
M0
100
AcDbCircle
 10
242.095557
 20
169.363698
 30
0.0
 40
0.25
100
AcDbArc
 50
270.00858
 51
0.00858
  0
CIRCLE
  5
E8
100
AcDbEntity
  8
M0
100
AcDbCircle
 10
240.471062
 20
165.863474
 30
0.0
 40
0.5
  0
CIRCLE
  5
E9
100
AcDbEntity
  8
M0
100
AcDbCircle
 10
240.471062
 20
165.863474
 30
0.0
 40
0.625
  0
ARC
  5
EA
100
AcDbEntity
  8
M0
100
AcDbCircle
 10
234.346339
 20
168.869285
 30
0.0
 40
0.125
100
AcDbArc
 50
92.726311
 51
180.0
  0
ARC
  5
EB
100
AcDbEntity
  8
M0
100
AcDbCircle
 10
234.346339
 20
168.488474
 30
0.0
 40
0.125
100
AcDbArc
 50
180.0
 51
270.0
  0
ARC
  5
EC
100
AcDbEntity
  8
M0
100
AcDbCircle
 10
237.856347
 20
169.352329
 30
0.0
 40
0.25
100
AcDbArc
 50
272.726311
 51
357.545968
  0
ARC
  5
ED
100
AcDbEntity
  8
M0
100
AcDbCircle
 10
237.096339
 20
168.113474
 30
0.0
 40
0.25
100
AcDbArc
 50
0.0
 51
90.0
  0
ARC
  5
EE
100
AcDbEntity
  8
M0
100
AcDbCircle
 10
243.845783
 20
168.113474
 30
0.0
 40
0.25
100
AcDbArc
 50
90.0
 51
180.008789
  0
ARC
  5
EF
100
AcDbEntity
  8
M0
100
AcDbCircle
 10
243.086332
 20
169.352329
 30
0.0
 40
0.25
100
AcDbArc
 50
182.454032
 51
267.273689
  0
ARC
  5
F0
100
AcDbEntity
  8
M0
100
AcDbCircle
 10
246.596339
 20
168.869285
 30
0.0
 40
0.125
100
AcDbArc
 50
0.0
 51
87.273689
  0
ARC
  5
F1
100
AcDbEntity
  8
M0
100
AcDbCircle
 10
238.847122
 20
169.363698
 30
0.0
 40
0.25
100
AcDbArc
 50
179.99142
 51
269.99142
  0
ARC
  5
F2
100
AcDbEntity
  8
M0
100
AcDbCircle
 10
246.596339
 20
168.488474
 30
0.0
 40
0.125
100
AcDbArc
 50
270.0
 51
0.0
  0
LINE
  5
F3
100
AcDbEntity
  8
M0
100
AcDbLine
 10
246.634008
 20
168.988474
 30
0.0
 11
234.308671
 21
168.988474
 31
0.0
  0
LINE
  5
F4
100
AcDbEntity
  8
M0
100
AcDbLine
 10
234.340394
 20
168.994143
 30
0.0
 11
237.868238
 21
169.102612
 31
0.0
  0
LINE
  5
F5
100
AcDbEntity
  8
M0
100
AcDbLine
 10
238.106117
 20
169.341625
 30
0.0
 11
238.353941
 21
175.124179
 31
0.0
  0
LINE
  5
F6
100
AcDbEntity
  8
M0
100
AcDbLine
 10
240.471339
 20
169.113474
 30
0.0
 11
237.930159
 21
169.113474
 31
0.0
  0
LINE
  5
F7
100
AcDbEntity
  8
M0
100
AcDbLine
 10
246.602285
 20
168.994143
 30
0.0
 11
243.074441
 21
169.102612
 31
0.0
  0
LINE
  5
F8
100
AcDbEntity
  8
M0
100
AcDbLine
 10
246.596339
 20
168.363474
 30
0.0
 11
234.346339
 21
168.363474
 31
0.0
  0
LINE
  5
F9
100
AcDbEntity
  8
M0
100
AcDbLine
 10
246.721339
 20
168.488474
 30
0.0
 11
246.721339
 21
168.869285
 31
0.0
  0
LINE
  5
FA
100
AcDbEntity
  8
M0
100
AcDbLine
 10
238.59802
 20
175.363474
 30
0.0
 11
238.597122
 21
169.363736
 31
0.0
  0
LINE
  5
FB
100
AcDbEntity
  8
M0
100
AcDbLine
 10
234.221339
 20
168.488474
 30
0.0
 11
234.221339
 21
168.869285
 31
0.0
  0
LINE
  5
FC
100
AcDbEntity
  8
M0
  6
DASHDOT
100
AcDbLine
 10
240.471339
 20
164.113474
 30
0.0
 11
240.471339
 21
176.726732
 31
0.0
  0
LINE
  5
FD
100
AcDbEntity
  8
M0
100
AcDbLine
 10
243.346301
 20
164.113474
 30
0.0
 11
237.596339
 21
164.113474
 31
0.0
  0
LINE
  5
FE
100
AcDbEntity
  8
M0
100
AcDbLine
 10
237.346339
 20
164.363474
 30
0.0
 11
237.346339
 21
168.113474
 31
0.0
  0
ARC
  5
FF
100
AcDbEntity
  8
M0
100
AcDbCircle
 10
237.596339
 20
164.363474
 30
0.0
 40
0.25
100
AcDbArc
 50
180.0
 51
270.0
  0
LINE
  5
100
100
AcDbEntity
  8
M0
100
AcDbLine
 10
242.337336
 20
175.363474
 30
0.0
 11
238.603712
 21
175.363474
 31
0.0
  0
ARC
  5
101
100
AcDbEntity
  8
M0
100
AcDbCircle
 10
242.337336
 20
175.113474
 30
0.0
 40
0.25
100
AcDbArc
 50
2.462611
 51
90.0
  0
ARC
  5
102
100
AcDbEntity
  8
M0
100
AcDbCircle
 10
238.603712
 20
175.113474
 30
0.0
 40
0.25
100
AcDbArc
 50
90.0
 51
177.545968
  0
LINE
  5
103
100
AcDbEntity
  8
M0
100
AcDbLine
 10
238.59802
 20
175.363474
 30
0.0
 11
242.345594
 21
169.113754
 31
0.0
  0
LINE
  5
104
100
AcDbEntity
  8
M0
100
AcDbLine
 10
242.344659
 20
175.363474
 30
0.0
 11
238.597084
 21
169.113474
 31
0.0
  0
LINE
  5
105
100
AcDbEntity
  8
M0
100
AcDbLine
 10
230.817474
 20
157.675974
 30
0.0
 11
227.087013
 21
150.455679
 31
0.0
  0
LINE
  5
106
100
AcDbEntity
  8
M0
100
AcDbLine
 10
235.463533
 20
157.675974
 30
0.0
 11
235.463533
 21
151.988474
 31
0.0
  0
LINE
  5
107
100
AcDbEntity
  8
M0
100
AcDbLine
 10
271.65884
 20
131.613473
 30
0.0
 11
209.283839
 21
131.613473
 31
0.0
  0
LINE
  5
108
100
AcDbEntity
  8
M0
100
AcDbLine
 10
209.283839
 20
133.988473
 30
0.0
 11
271.65884
 21
133.988473
 31
0.0
  0
ARC
  5
109
100
AcDbEntity
  8
M0
100
AcDbCircle
 10
209.283839
 20
133.613473
 30
0.0
 40
0.375
100
AcDbArc
 50
90.0
 51
180.0
  0
ARC
  5
10A
100
AcDbEntity
  8
M0
100
AcDbCircle
 10
224.458011
 20
154.652182
 30
0.0
 40
1.25
100
AcDbArc
 50
102.490434
 51
159.939929
  0
ARC
  5
10B
100
AcDbEntity
  8
M0
100
AcDbCircle
 10
209.283839
 20
131.988473
 30
0.0
 40
0.375
100
AcDbArc
 50
180.0
 51
270.0
  0
ARC
  5
10C
100
AcDbEntity
  8
M0
100
AcDbCircle
 10
224.044675
 20
149.511534
 30
0.0
 40
2.25
100
AcDbArc
 50
298.166068
 51
339.940051
  0
LINE
  5
10D
100
AcDbEntity
  8
M0
  6
DASHDOT
100
AcDbLine
 10
211.721339
 20
135.628488
 30
0.0
 11
211.721339
 21
131.613473
 31
0.0
  0
ARC
  5
10E
100
AcDbEntity
  8
M0
100
AcDbCircle
 10
223.074541
 20
150.863474
 30
0.0
 40
0.375
100
AcDbArc
 50
270.0
 51
339.93981
  0
LINE
  5
10F
100
AcDbEntity
  8
M0
100
AcDbLine
 10
261.95855
 20
142.837363
 30
0.0
 11
218.984129
 21
142.837363
 31
0.0
  0
LINE
  5
110
100
AcDbEntity
  8
M0
100
AcDbLine
 10
229.537747
 20
157.675974
 30
0.0
 11
229.410296
 21
157.325804
 31
0.0
  0
ARC
  5
111
100
AcDbEntity
  8
M0
100
AcDbCircle
 10
221.096339
 20
139.992636
 30
0.0
 40
4.75
100
AcDbArc
 50
118.166061
 51
180.0
  0
LINE
  5
112
100
AcDbEntity
  8
M0
100
AcDbLine
 10
264.596339
 20
136.988473
 30
0.0
 11
216.346339
 21
136.988473
 31
0.0
  0
LINE
  5
113
100
AcDbEntity
  8
M0
100
AcDbLine
 10
216.346339
 20
139.992636
 30
0.0
 11
216.346339
 21
136.988473
 31
0.0
  0
LINE
  5
114
100
AcDbEntity
  8
M0
100
AcDbLine
 10
237.447993
 20
157.675974
 30
0.0
 11
237.447993
 21
152.363474
 31
0.0
  0
LINE
  5
115
100
AcDbEntity
  8
M0
100
AcDbLine
 10
208.908839
 20
133.613473
 30
0.0
 11
208.908839
 21
131.988473
 31
0.0
  0
LINE
  5
116
100
AcDbEntity
  8
M0
100
AcDbLine
 10
224.316314
 20
153.170855
 30
0.0
 11
223.426791
 21
150.734846
 31
0.0
  0
ARC
  5
117
100
AcDbEntity
  8
M0
100
AcDbCircle
 10
225.842732
 20
152.613474
 30
0.0
 40
1.625
100
AcDbArc
 50
339.940032
 51
159.940031
  0
LINE
  5
118
100
AcDbEntity
  8
M0
100
AcDbLine
 10
223.283844
 20
155.080939
 30
0.0
 11
221.79078
 21
150.9921
 31
0.0
  0
LINE
  5
119
100
AcDbEntity
  8
M0
100
AcDbLine
 10
223.074541
 20
150.488474
 30
0.0
 11
222.14303
 21
150.488474
 31
0.0
  0
LINE
  5
11A
100
AcDbEntity
  8
M0
100
AcDbLine
 10
227.36915
 20
152.056094
 30
0.0
 11
226.158177
 21
148.739777
 31
0.0
  0
LINE
  5
11B
100
AcDbEntity
  8
M0
100
AcDbLine
 10
232.386869
 20
151.425993
 30
0.0
 11
218.854203
 21
144.180157
 31
0.0
  0
LINE
  5
11C
100
AcDbEntity
  8
M0
100
AcDbLine
 10
216.346339
 20
136.988473
 30
0.0
 11
215.928643
 21
134.98353
 31
0.0
  0
LINE
  5
11D
100
AcDbEntity
  8
M0
100
AcDbLine
 10
246.313673
 20
151.988474
 30
0.0
 11
234.629006
 21
151.988474
 31
0.0
  0
LINE
  5
11E
100
AcDbEntity
  8
M0
100
AcDbLine
 10
253.475152
 20
148.097733
 30
0.0
 11
227.467527
 21
148.097733
 31
0.0
  0
ARC
  5
11F
100
AcDbEntity
  8
M0
100
AcDbCircle
 10
222.14303
 20
150.863474
 30
0.0
 40
0.375
100
AcDbArc
 50
159.940109
 51
270.0
  0
ARC
  5
120
100
AcDbEntity
  8
M0
100
AcDbCircle
 10
228.822988
 20
157.539568
 30
0.0
 40
0.625
100
AcDbArc
 50
282.490406
 51
339.999862
  0
ARC
  5
121
100
AcDbEntity
  8
M0
100
AcDbCircle
 10
214.704917
 20
135.238473
 30
0.0
 40
1.25
100
AcDbArc
 50
270.0
 51
348.231706
  0
ARC
  5
122
100
AcDbEntity
  8
M0
100
AcDbCircle
 10
237.822993
 20
152.363474
 30
0.0
 40
0.375
100
AcDbArc
 50
180.0
 51
270.0
  0
LINE
  5
123
100
AcDbEntity
  8
M0
100
AcDbLine
 10
228.958162
 20
156.929358
 30
0.0
 11
224.187665
 21
155.872599
 31
0.0
  0
ARC
  5
124
100
AcDbEntity
  8
M0
100
AcDbCircle
 10
234.629006
 20
147.238474
 30
0.0
 40
4.75
100
AcDbArc
 50
90.0
 51
118.166077
  0
LINE
  5
125
100
AcDbEntity
  8
M0
  6
DASHDOT
100
AcDbLine
 10
240.471339
 20
157.675974
 30
0.0
 11
240.471339
 21
131.613473
 31
0.0
  0
ARC
  5
126
100
AcDbEntity
  8
M0
100
AcDbCircle
 10
271.65884
 20
131.988473
 30
0.0
 40
0.375
100
AcDbArc
 50
270.0
 51
0.0
  0
ARC
  5
127
100
AcDbEntity
  8
M0
100
AcDbCircle
 10
256.484668
 20
154.652182
 30
0.0
 40
1.25
100
AcDbArc
 50
20.060071
 51
77.509566
  0
ARC
  5
128
100
AcDbEntity
  8
M0
100
AcDbCircle
 10
257.868138
 20
150.863474
 30
0.0
 40
0.375
100
AcDbArc
 50
200.06019
 51
270.0
  0
ARC
  5
129
100
AcDbEntity
  8
M0
100
AcDbCircle
 10
256.898004
 20
149.511534
 30
0.0
 40
2.25
100
AcDbArc
 50
200.059949
 51
241.833932
  0
ARC
  5
12A
100
AcDbEntity
  8
M0
100
AcDbCircle
 10
271.65884
 20
133.613473
 30
0.0
 40
0.375
100
AcDbArc
 50
0.0
 51
90.0
  0
ARC
  5
12B
100
AcDbEntity
  8
M0
100
AcDbCircle
 10
266.237762
 20
135.238473
 30
0.0
 40
1.25
100
AcDbArc
 50
191.768294
 51
270.0
  0
ARC
  5
12C
100
AcDbEntity
  8
M0
100
AcDbCircle
 10
252.119691
 20
157.539568
 30
0.0
 40
0.625
100
AcDbArc
 50
200.000138
 51
257.509594
  0
ARC
  5
12D
100
AcDbEntity
  8
M0
100
AcDbCircle
 10
246.313673
 20
147.238474
 30
0.0
 40
4.75
100
AcDbArc
 50
61.833923
 51
90.0
  0
ARC
  5
12E
100
AcDbEntity
  8
M0
100
AcDbCircle
 10
255.099947
 20
152.613474
 30
0.0
 40
1.625
100
AcDbArc
 50
20.059969
 51
200.059968
  0
ARC
  5
12F
100
AcDbEntity
  8
M0
100
AcDbCircle
 10
259.84634
 20
139.992636
 30
0.0
 40
4.75
100
AcDbArc
 50
0.0
 51
61.833939
  0
ARC
  5
130
100
AcDbEntity
  8
M0
100
AcDbCircle
 10
243.119686
 20
152.363474
 30
0.0
 40
0.375
100
AcDbArc
 50
270.0
 51
0.0
  0
ARC
  5
131
100
AcDbEntity
  8
M0
100
AcDbCircle
 10
258.799649
 20
150.863474
 30
0.0
 40
0.375
100
AcDbArc
 50
270.0
 51
20.059891
  0
LINE
  5
132
100
AcDbEntity
  8
M0
100
AcDbLine
 10
264.596339
 20
139.992636
 30
0.0
 11
264.596339
 21
136.988473
 31
0.0
  0
LINE
  5
133
100
AcDbEntity
  8
M0
100
AcDbLine
 10
251.404932
 20
157.675974
 30
0.0
 11
251.532383
 21
157.325804
 31
0.0
  0
LINE
  5
134
100
AcDbEntity
  8
M0
100
AcDbLine
 10
272.03384
 20
133.613473
 30
0.0
 11
272.03384
 21
131.988473
 31
0.0
  0
LINE
  5
135
100
AcDbEntity
  8
M0
100
AcDbLine
 10
245.479146
 20
157.675974
 30
0.0
 11
245.479146
 21
151.988474
 31
0.0
  0
LINE
  5
136
100
AcDbEntity
  8
M0
100
AcDbLine
 10
250.125205
 20
157.675974
 30
0.0
 11
253.855666
 21
150.455679
 31
0.0
  0
LINE
  5
137
100
AcDbEntity
  8
M0
100
AcDbLine
 10
243.494686
 20
157.675974
 30
0.0
 11
243.494686
 21
152.363474
 31
0.0
  0
LINE
  5
138
100
AcDbEntity
  8
M0
  6
DASHDOT
100
AcDbLine
 10
269.22134
 20
135.628488
 30
0.0
 11
269.22134
 21
131.613473
 31
0.0
  0
LINE
  5
139
100
AcDbEntity
  8
M0
100
AcDbLine
 10
248.55581
 20
151.425993
 30
0.0
 11
262.088476
 21
144.180157
 31
0.0
  0
LINE
  5
13A
100
AcDbEntity
  8
M0
100
AcDbLine
 10
253.573529
 20
152.056094
 30
0.0
 11
254.784502
 21
148.739777
 31
0.0
  0
LINE
  5
13B
100
AcDbEntity
  8
M0
100
AcDbLine
 10
251.984517
 20
156.929358
 30
0.0
 11
256.755014
 21
155.872599
 31
0.0
  0
LINE
  5
13C
100
AcDbEntity
  8
M0
100
AcDbLine
 10
257.658835
 20
155.080939
 30
0.0
 11
259.151899
 21
150.9921
 31
0.0
  0
LINE
  5
13D
100
AcDbEntity
  8
M0
100
AcDbLine
 10
256.626365
 20
153.170855
 30
0.0
 11
257.515888
 21
150.734846
 31
0.0
  0
LINE
  5
13E
100
AcDbEntity
  8
M0
100
AcDbLine
 10
264.596339
 20
136.988473
 30
0.0
 11
265.014036
 21
134.98353
 31
0.0
  0
LINE
  5
13F
100
AcDbEntity
  8
M0
100
AcDbLine
 10
257.868138
 20
150.488474
 30
0.0
 11
258.799649
 21
150.488474
 31
0.0
  0
LINE
  5
140
100
AcDbEntity
  8
M0
100
AcDbLine
 10
235.783839
 20
139.800974
 30
0.0
 11
235.533839
 21
139.800974
 31
0.0
  0
LINE
  5
141
100
AcDbEntity
  8
M0
100
AcDbLine
 10
235.408839
 20
138.050974
 30
0.0
 11
235.658839
 21
138.050974
 31
0.0
  0
ARC
  5
142
100
AcDbEntity
  8
M0
100
AcDbCircle
 10
236.471339
 20
139.800974
 30
0.0
 40
0.9375
100
AcDbArc
 50
301.002719
 51
180.0
  0
ARC
  5
143
100
AcDbEntity
  8
M0
100
AcDbCircle
 10
236.471339
 20
138.050974
 30
0.0
 40
1.0625
100
AcDbArc
 50
180.0
 51
62.968438
  0
LINE
  5
144
100
AcDbEntity
  8
M0
100
AcDbLine
 10
236.471339
 20
139.113474
 30
0.0
 11
236.471339
 21
138.863474
 31
0.0
  0
ARC
  5
145
100
AcDbEntity
  8
M0
100
AcDbCircle
 10
236.471339
 20
139.800974
 30
0.0
 40
0.6875
100
AcDbArc
 50
270.0
 51
180.0
  0
ARC
  5
146
100
AcDbEntity
  8
M0
100
AcDbCircle
 10
236.471339
 20
138.050974
 30
0.0
 40
0.8125
100
AcDbArc
 50
180.0
 51
90.0
  0
LINE
  5
147
100
AcDbEntity
  8
M0
100
AcDbLine
 10
241.533839
 20
138.050974
 30
0.0
 11
241.533839
 21
139.675974
 31
0.0
  0
LINE
  5
148
100
AcDbEntity
  8
M0
100
AcDbLine
 10
239.408839
 20
139.675974
 30
0.0
 11
239.408839
 21
138.050974
 31
0.0
  0
LINE
  5
149
100
AcDbEntity
  8
M0
100
AcDbLine
 10
241.283839
 20
139.675974
 30
0.0
 11
241.283839
 21
138.050974
 31
0.0
  0
LINE
  5
14A
100
AcDbEntity
  8
M0
100
AcDbLine
 10
239.658839
 20
139.675974
 30
0.0
 11
239.658839
 21
138.050974
 31
0.0
  0
ARC
  5
14B
100
AcDbEntity
  8
M0
100
AcDbCircle
 10
240.471339
 20
139.675974
 30
0.0
 40
1.0625
100
AcDbArc
 50
0.0
 51
180.0
  0
ARC
  5
14C
100
AcDbEntity
  8
M0
100
AcDbCircle
 10
240.471339
 20
139.675974
 30
0.0
 40
0.8125
100
AcDbArc
 50
0.0
 51
180.0
  0
ARC
  5
14D
100
AcDbEntity
  8
M0
100
AcDbCircle
 10
240.471339
 20
138.050974
 30
0.0
 40
1.0625
100
AcDbArc
 50
180.0
 51
0.0
  0
ARC
  5
14E
100
AcDbEntity
  8
M0
100
AcDbCircle
 10
240.471339
 20
138.050974
 30
0.0
 40
0.8125
100
AcDbArc
 50
180.0
 51
0.0
  0
LINE
  5
14F
100
AcDbEntity
  8
M0
100
AcDbLine
 10
245.533839
 20
138.050974
 30
0.0
 11
245.533839
 21
139.675974
 31
0.0
  0
LINE
  5
150
100
AcDbEntity
  8
M0
100
AcDbLine
 10
243.408839
 20
139.675974
 30
0.0
 11
243.408839
 21
138.050974
 31
0.0
  0
LINE
  5
151
100
AcDbEntity
  8
M0
100
AcDbLine
 10
245.283839
 20
139.675974
 30
0.0
 11
245.283839
 21
138.050974
 31
0.0
  0
LINE
  5
152
100
AcDbEntity
  8
M0
100
AcDbLine
 10
243.658839
 20
139.675974
 30
0.0
 11
243.658839
 21
138.050974
 31
0.0
  0
ARC
  5
153
100
AcDbEntity
  8
M0
100
AcDbCircle
 10
244.471339
 20
139.675974
 30
0.0
 40
1.0625
100
AcDbArc
 50
0.0
 51
180.0
  0
ARC
  5
154
100
AcDbEntity
  8
M0
100
AcDbCircle
 10
244.471339
 20
139.675974
 30
0.0
 40
0.8125
100
AcDbArc
 50
0.0
 51
180.0
  0
ARC
  5
155
100
AcDbEntity
  8
M0
100
AcDbCircle
 10
244.471339
 20
138.050974
 30
0.0
 40
1.0625
100
AcDbArc
 50
180.0
 51
0.0
  0
ARC
  5
156
100
AcDbEntity
  8
M0
100
AcDbCircle
 10
244.471339
 20
138.050974
 30
0.0
 40
0.8125
100
AcDbArc
 50
180.0
 51
0.0
  0
LINE
  5
157
100
AcDbEntity
  8
M0
100
AcDbLine
 10
242.658839
 20
164.113474
 30
0.0
 11
238.283839
 21
164.113474
 31
0.0
  0
LINE
  5
158
100
AcDbEntity
  8
M0
100
AcDbLine
 10
242.971339
 20
163.572207
 30
0.0
 11
242.971339
 21
162.050974
 31
0.0
  0
LINE
  5
159
100
AcDbEntity
  8
M0
100
AcDbLine
 10
242.971339
 20
163.572207
 30
0.0
 11
237.971339
 21
163.572207
 31
0.0
  0
LINE
  5
15A
100
AcDbEntity
  8
M0
100
AcDbLine
 10
238.283839
 20
164.113474
 30
0.0
 11
237.971339
 21
163.572207
 31
0.0
  0
LINE
  5
15B
100
AcDbEntity
  8
M0
100
AcDbLine
 10
237.971339
 20
163.572207
 30
0.0
 11
237.971339
 21
162.050974
 31
0.0
  0
LINE
  5
15C
100
AcDbEntity
  8
M0
100
AcDbLine
 10
242.658839
 20
164.113474
 30
0.0
 11
242.971339
 21
163.572207
 31
0.0
  0
LINE
  5
15D
100
AcDbEntity
  8
M0
  6
DASHDOT
100
AcDbLine
 10
240.471339
 20
164.113474
 30
0.0
 11
240.471339
 21
162.050974
 31
0.0
  0
LINE
  5
15E
100
AcDbEntity
  8
M0
100
AcDbLine
 10
208.908839
 20
131.238473
 30
0.0
 11
208.908839
 21
129.238474
 31
0.0
  0
LINE
  5
15F
100
AcDbEntity
  8
M0
100
AcDbLine
 10
209.283839
 20
128.863474
 30
0.0
 11
271.65884
 21
128.863474
 31
0.0
  0
CIRCLE
  5
160
100
AcDbEntity
  8
M0
100
AcDbCircle
 10
232.475525
 20
111.222061
 30
0.0
 40
1.4375
  0
ARC
  5
161
100
AcDbEntity
  8
M0
100
AcDbCircle
 10
225.971339
 20
58.113474
 30
0.0
 40
0.5
100
AcDbArc
 50
180.0
 51
270.0
  0
CIRCLE
  5
162
100
AcDbEntity
  8
M0
100
AcDbCircle
 10
240.471339
 20
86.613474
 30
0.0
 40
18.75
  0
CIRCLE
  5
163
100
AcDbEntity
  8
M0
  6
DASHDOT
100
AcDbCircle
 10
240.471339
 20
86.613474
 30
0.0
 40
25.875
  0
CIRCLE
  5
164
100
AcDbEntity
  8
M0
100
AcDbCircle
 10
214.596339
 20
86.613474
 30
0.0
 40
1.4375
  0
ARC
  5
165
100
AcDbEntity
  8
M0
100
AcDbCircle
 10
214.846339
 20
116.95629
 30
0.0
 40
1.25
100
AcDbArc
 50
271.494331
 51
0.0
  0
LINE
  5
166
100
AcDbEntity
  8
M0
100
AcDbLine
 10
216.096339
 20
125.188405
 30
0.0
 11
216.096339
 21
116.95629
 31
0.0
  0
ARC
  5
167
100
AcDbEntity
  8
M0
100
AcDbCircle
 10
214.846339
 20
112.520657
 30
0.0
 40
1.25
100
AcDbArc
 50
0.0
 51
88.50567
  0
ARC
  5
168
100
AcDbEntity
  8
M0
100
AcDbCircle
 10
209.283839
 20
114.291319
 30
0.0
 40
0.375
100
AcDbArc
 50
180.0
 51
268.505714
  0
CIRCLE
  5
169
100
AcDbEntity
  8
M0
100
AcDbCircle
 10
232.475525
 20
62.004885
 30
0.0
 40
1.4375
  0
ARC
  5
16A
100
AcDbEntity
  8
M0
100
AcDbCircle
 10
240.471339
 20
86.613474
 30
0.0
 40
29.0
100
AcDbArc
 50
302.49256
 51
237.507442
  0
CIRCLE
  5
16B
100
AcDbEntity
  8
M0
100
AcDbCircle
 10
219.538024
 20
71.404532
 30
0.0
 40
1.4375
  0
CIRCLE
  5
16C
100
AcDbEntity
  8
M0
100
AcDbCircle
 10
240.471339
 20
86.613474
 30
0.0
 40
22.625
  0
CIRCLE
  5
16D
100
AcDbEntity
  8
M0
100
AcDbCircle
 10
219.538024
 20
101.822417
 30
0.0
 40
1.4375
  0
ARC
  5
16E
100
AcDbEntity
  8
M0
100
AcDbCircle
 10
209.283839
 20
131.238473
 30
0.0
 40
0.375
100
AcDbArc
 50
90.0
 51
180.0
  0
ARC
  5
16F
100
AcDbEntity
  8
M0
100
AcDbCircle
 10
209.283839
 20
129.238474
 30
0.0
 40
0.375
100
AcDbArc
 50
180.0
 51
270.0
  0
ARC
  5
170
100
AcDbEntity
  8
M0
100
AcDbCircle
 10
224.221339
 20
61.098772
 30
0.0
 40
1.25
100
AcDbArc
 50
0.0
 51
57.507398
  0
ARC
  5
171
100
AcDbEntity
  8
M0
100
AcDbCircle
 10
214.153463
 20
127.613474
 30
0.0
 40
1.25
100
AcDbArc
 50
15.945405
 51
90.0
  0
ARC
  5
172
100
AcDbEntity
  8
M0
100
AcDbCircle
 10
214.846339
 20
125.188405
 30
0.0
 40
1.25
100
AcDbArc
 50
0.0
 51
15.945405
  0
CIRCLE
  5
173
100
AcDbEntity
  8
M0
100
AcDbCircle
 10
240.471339
 20
86.613474
 30
0.0
 40
23.0
  0
LINE
  5
174
100
AcDbEntity
  8
M0
100
AcDbLine
 10
225.971339
 20
57.613474
 30
0.0
 11
254.971339
 21
57.613474
 31
0.0
  0
LINE
  5
175
100
AcDbEntity
  8
M0
  6
DASHDOT
100
AcDbLine
 10
231.635947
 20
59.420935
 30
0.0
 11
233.210264
 21
64.266184
 31
0.0
  0
LINE
  5
176
100
AcDbEntity
  8
M0
100
AcDbLine
 10
225.471339
 20
61.098772
 30
0.0
 11
225.471339
 21
58.113474
 31
0.0
  0
ARC
  5
177
100
AcDbEntity
  8
M0
100
AcDbCircle
 10
209.283839
 20
115.185629
 30
0.0
 40
0.375
100
AcDbArc
 50
91.494288
 51
180.0
  0
LINE
  5
178
100
AcDbEntity
  8
M0
  6
DASHDOT
100
AcDbLine
 10
206.287832
 20
86.613474
 30
0.0
 11
274.654847
 21
86.613474
 31
0.0
  0
LINE
  5
179
100
AcDbEntity
  8
M0
100
AcDbLine
 10
216.084257
 20
125.361781
 30
0.0
 11
264.846339
 21
125.361781
 31
0.0
  0
LINE
  5
17A
100
AcDbEntity
  8
M0
  6
DASHDOT
100
AcDbLine
 10
240.471339
 20
131.613473
 30
0.0
 11
240.471339
 21
52.429967
 31
0.0
  0
LINE
  5
17B
100
AcDbEntity
  8
M0
100
AcDbLine
 10
208.908839
 20
115.185629
 30
0.0
 11
208.908839
 21
114.291319
 31
0.0
  0
LINE
  5
17C
100
AcDbEntity
  8
M0
100
AcDbLine
 10
209.199293
 20
113.925974
 30
0.0
 11
230.723142
 21
113.925974
 31
0.0
  0
LINE
  5
17D
100
AcDbEntity
  8
M0
100
AcDbLine
 10
215.355367
 20
127.956875
 30
0.0
 11
216.048244
 21
125.531806
 31
0.0
  0
LINE
  5
17E
100
AcDbEntity
  8
M0
  6
DASHDOT
100
AcDbLine
 10
211.721339
 20
131.613473
 30
0.0
 11
211.721339
 21
127.176419
 31
0.0
  0
LINE
  5
17F
100
AcDbEntity
  8
M0
100
AcDbLine
 10
209.199293
 20
115.550974
 30
0.0
 11
238.568422
 21
115.550974
 31
0.0
  0
LINE
  5
180
100
AcDbEntity
  8
M0
100
AcDbLine
 10
209.27406
 20
113.916446
 30
0.0
 11
214.878937
 21
113.770232
 31
0.0
  0
LINE
  5
181
100
AcDbEntity
  8
M0
100
AcDbLine
 10
216.096339
 20
113.738474
 30
0.0
 11
230.212958
 21
113.738474
 31
0.0
  0
LINE
  5
182
100
AcDbEntity
  8
M0
100
AcDbLine
 10
271.65884
 20
131.613473
 30
0.0
 11
209.283839
 21
131.613473
 31
0.0
  0
LINE
  5
183
100
AcDbEntity
  8
M0
100
AcDbLine
 10
216.096339
 20
112.520657
 30
0.0
 11
216.096339
 21
102.325232
 31
0.0
  0
LINE
  5
184
100
AcDbEntity
  8
M0
100
AcDbLine
 10
216.096339
 20
115.738474
 30
0.0
 11
264.846339
 21
115.738474
 31
0.0
  0
LINE
  5
185
100
AcDbEntity
  8
M0
  6
DASHDOT
100
AcDbLine
 10
217.548443
 20
103.267933
 30
0.0
 11
221.651891
 21
100.286602
 31
0.0
  0
LINE
  5
186
100
AcDbEntity
  8
M0
  6
DASHDOT
100
AcDbLine
 10
217.627814
 20
70.01668
 30
0.0
 11
221.527432
 21
72.849921
 31
0.0
  0
LINE
  5
187
100
AcDbEntity
  8
M0
100
AcDbLine
 10
209.27406
 20
115.560501
 30
0.0
 11
214.878937
 21
115.706715
 31
0.0
  0
LINE
  5
188
100
AcDbEntity
  8
M0
  6
DASHDOT
100
AcDbLine
 10
233.250161
 20
108.837975
 30
0.0
 11
231.71026
 21
113.577304
 31
0.0
  0
LINE
  5
189
100
AcDbEntity
  8
M0
  6
DASHDOT
100
AcDbLine
 10
233.401377
 20
114.738474
 30
0.0
 11
207.143149
 21
114.738474
 31
0.0
  0
CIRCLE
  5
18A
100
AcDbEntity
  8
M0
100
AcDbCircle
 10
261.404655
 20
101.822417
 30
0.0
 40
1.4375
  0
CIRCLE
  5
18B
100
AcDbEntity
  8
M0
100
AcDbCircle
 10
261.404655
 20
71.404532
 30
0.0
 40
1.4375
  0
ARC
  5
18C
100
AcDbEntity
  8
M0
100
AcDbCircle
 10
266.096339
 20
116.95629
 30
0.0
 40
1.25
100
AcDbArc
 50
180.0
 51
268.505669
  0
ARC
  5
18D
100
AcDbEntity
  8
M0
100
AcDbCircle
 10
254.97134
 20
58.113474
 30
0.0
 40
0.5
100
AcDbArc
 50
270.0
 51
0.0
  0
CIRCLE
  5
18E
100
AcDbEntity
  8
M0
100
AcDbCircle
 10
248.467154
 20
111.222061
 30
0.0
 40
1.4375
  0
LINE
  5
18F
100
AcDbEntity
  8
M0
  6
DASHDOT
100
AcDbLine
 10
247.541302
 20
114.738474
 30
0.0
 11
273.79953
 21
114.738474
 31
0.0
  0
CIRCLE
  5
190
100
AcDbEntity
  8
M0
100
AcDbCircle
 10
248.467154
 20
62.004885
 30
0.0
 40
1.4375
  0
CIRCLE
  5
191
100
AcDbEntity
  8
M0
100
AcDbCircle
 10
266.346339
 20
86.613474
 30
0.0
 40
1.4375
  0
ARC
  5
192
100
AcDbEntity
  8
M0
100
AcDbCircle
 10
266.789216
 20
127.613474
 30
0.0
 40
1.25
100
AcDbArc
 50
90.0
 51
164.054595
  0
ARC
  5
193
100
AcDbEntity
  8
M0
100
AcDbCircle
 10
256.72134
 20
61.098772
 30
0.0
 40
1.25
100
AcDbArc
 50
122.492602
 51
180.0
  0
ARC
  5
194
100
AcDbEntity
  8
M0
100
AcDbCircle
 10
271.65884
 20
115.185629
 30
0.0
 40
0.375
100
AcDbArc
 50
0.0
 51
88.505712
  0
ARC
  5
195
100
AcDbEntity
  8
M0
100
AcDbCircle
 10
266.096339
 20
125.188405
 30
0.0
 40
1.25
100
AcDbArc
 50
164.054595
 51
180.0
  0
ARC
  5
196
100
AcDbEntity
  8
M0
100
AcDbCircle
 10
271.65884
 20
114.291319
 30
0.0
 40
0.375
100
AcDbArc
 50
271.494286
 51
0.0
  0
ARC
  5
197
100
AcDbEntity
  8
M0
100
AcDbCircle
 10
266.096339
 20
112.520657
 30
0.0
 40
1.25
100
AcDbArc
 50
91.49433
 51
180.0
  0
ARC
  5
198
100
AcDbEntity
  8
M0
100
AcDbCircle
 10
271.65884
 20
129.238474
 30
0.0
 40
0.375
100
AcDbArc
 50
270.0
 51
0.0
  0
LINE
  5
199
100
AcDbEntity
  8
M0
100
AcDbLine
 10
271.743386
 20
113.925974
 30
0.0
 11
250.219537
 21
113.925974
 31
0.0
  0
LINE
  5
19A
100
AcDbEntity
  8
M0
100
AcDbLine
 10
272.03384
 20
115.185629
 30
0.0
 11
272.03384
 21
114.291319
 31
0.0
  0
LINE
  5
19B
100
AcDbEntity
  8
M0
  6
DASHDOT
100
AcDbLine
 10
269.22134
 20
131.613473
 30
0.0
 11
269.22134
 21
127.176419
 31
0.0
  0
LINE
  5
19C
100
AcDbEntity
  8
M0
100
AcDbLine
 10
265.587312
 20
127.956875
 30
0.0
 11
264.894435
 21
125.531806
 31
0.0
  0
LINE
  5
19D
100
AcDbEntity
  8
M0
100
AcDbLine
 10
264.846339
 20
125.188405
 30
0.0
 11
264.846339
 21
116.95629
 31
0.0
  0
LINE
  5
19E
100
AcDbEntity
  8
M0
100
AcDbLine
 10
272.03384
 20
131.238473
 30
0.0
 11
272.03384
 21
129.238474
 31
0.0
  0
LINE
  5
19F
100
AcDbEntity
  8
M0
100
AcDbLine
 10
255.47134
 20
61.098772
 30
0.0
 11
255.47134
 21
58.113474
 31
0.0
  0
LINE
  5
1A0
100
AcDbEntity
  8
M0
  6
DASHDOT
100
AcDbLine
 10
249.306731
 20
59.420935
 30
0.0
 11
247.732415
 21
64.266184
 31
0.0
  0
LINE
  5
1A1
100
AcDbEntity
  8
M0
100
AcDbLine
 10
271.668619
 20
115.560501
 30
0.0
 11
266.063742
 21
115.706715
 31
0.0
  0
LINE
  5
1A2
100
AcDbEntity
  8
M0
  6
DASHDOT
100
AcDbLine
 10
263.314865
 20
70.01668
 30
0.0
 11
259.415247
 21
72.849921
 31
0.0
  0
ARC
  5
1A3
100
AcDbEntity
  8
M0
100
AcDbCircle
 10
271.65884
 20
131.238473
 30
0.0
 40
0.375
100
AcDbArc
 50
0.0
 51
90.0
  0
LINE
  5
1A4
100
AcDbEntity
  8
M0
  6
DASHDOT
100
AcDbLine
 10
247.692518
 20
108.837975
 30
0.0
 11
249.232419
 21
113.577304
 31
0.0
  0
LINE
  5
1A5
100
AcDbEntity
  8
M0
100
AcDbLine
 10
264.846339
 20
113.738474
 30
0.0
 11
250.72972
 21
113.738474
 31
0.0
  0
LINE
  5
1A6
100
AcDbEntity
  8
M0
100
AcDbLine
 10
271.668619
 20
113.916446
 30
0.0
 11
266.063742
 21
113.770232
 31
0.0
  0
LINE
  5
1A7
100
AcDbEntity
  8
M0
  6
DASHDOT
100
AcDbLine
 10
263.394236
 20
103.267933
 30
0.0
 11
259.290788
 21
100.286602
 31
0.0
  0
LINE
  5
1A8
100
AcDbEntity
  8
M0
100
AcDbLine
 10
264.846339
 20
112.520657
 30
0.0
 11
264.846339
 21
102.325232
 31
0.0
  0
LINE
  5
1A9
100
AcDbEntity
  8
M0
100
AcDbLine
 10
271.743386
 20
115.550974
 30
0.0
 11
242.374257
 21
115.550974
 31
0.0
  0
LINE
  5
1AA
100
AcDbEntity
  8
M0
100
AcDbLine
 10
233.494535
 20
163.300974
 30
0.0
 11
233.494535
 21
162.300974
 31
0.0
  0
LINE
  5
1AB
100
AcDbEntity
  8
M0
100
AcDbLine
 10
230.976597
 20
163.471983
 30
0.0
 11
228.867022
 21
157.675974
 31
0.0
  0
LINE
  5
1AC
100
AcDbEntity
  8
M0
100
AcDbLine
 10
233.744535
 20
162.050974
 30
0.0
 11
247.198144
 21
162.050974
 31
0.0
  0
ARC
  5
1AD
100
AcDbEntity
  8
M0
100
AcDbCircle
 10
235.346339
 20
163.300974
 30
0.0
 40
0.5
100
AcDbArc
 50
0.0
 51
90.0
  0
LINE
  5
1AE
100
AcDbEntity
  8
M0
  6
DASHDOT
100
AcDbLine
 10
240.471339
 20
162.050974
 30
0.0
 11
240.471339
 21
157.675974
 31
0.0
  0
LINE
  5
1AF
100
AcDbEntity
  8
M0
100
AcDbLine
 10
231.446443
 20
163.800974
 30
0.0
 11
235.346339
 21
163.800974
 31
0.0
  0
LINE
  5
1B0
100
AcDbEntity
  8
M0
100
AcDbLine
 10
235.347864
 20
161.863474
 30
0.0
 11
235.347864
 21
157.863474
 31
0.0
  0
ARC
  5
1B1
100
AcDbEntity
  8
M0
100
AcDbCircle
 10
233.744535
 20
162.300974
 30
0.0
 40
0.25
100
AcDbArc
 50
180.0
 51
270.0
  0
ARC
  5
1B2
100
AcDbEntity
  8
M0
100
AcDbCircle
 10
231.446443
 20
163.300974
 30
0.0
 40
0.5
100
AcDbArc
 50
90.0
 51
160.000115
  0
ARC
  5
1B3
100
AcDbEntity
  8
M0
100
AcDbCircle
 10
232.994535
 20
163.300974
 30
0.0
 40
0.5
100
AcDbArc
 50
0.0
 51
90.0
  0
LINE
  5
1B4
100
AcDbEntity
  8
M0
100
AcDbLine
 10
228.867022
 20
157.675974
 30
0.0
 11
252.075657
 21
157.675974
 31
0.0
  0
LINE
  5
1B5
100
AcDbEntity
  8
M0
100
AcDbLine
 10
233.125561
 20
162.877844
 30
0.0
 11
231.046377
 21
157.675974
 31
0.0
  0
ARC
  5
1B6
100
AcDbEntity
  8
M0
100
AcDbCircle
 10
236.096339
 20
162.300974
 30
0.0
 40
0.25
100
AcDbArc
 50
180.0
 51
270.0
  0
LINE
  5
1B7
100
AcDbEntity
  8
M0
100
AcDbLine
 10
235.846339
 20
163.300974
 30
0.0
 11
235.846339
 21
162.300974
 31
0.0
  0
ARC
  5
1B8
100
AcDbEntity
  8
M0
100
AcDbCircle
 10
245.59634
 20
163.300974
 30
0.0
 40
0.5
100
AcDbArc
 50
90.0
 51
180.0
  0
LINE
  5
1B9
100
AcDbEntity
  8
M0
100
AcDbLine
 10
245.09634
 20
163.300974
 30
0.0
 11
245.09634
 21
162.300974
 31
0.0
  0
ARC
  5
1BA
100
AcDbEntity
  8
M0
100
AcDbCircle
 10
247.198144
 20
162.300974
 30
0.0
 40
0.25
100
AcDbArc
 50
270.0
 51
0.0
  0
ARC
  5
1BB
100
AcDbEntity
  8
M0
100
AcDbCircle
 10
247.948144
 20
163.300974
 30
0.0
 40
0.5
100
AcDbArc
 50
90.0
 51
180.0
  0
ARC
  5
1BC
100
AcDbEntity
  8
M0
100
AcDbCircle
 10
249.496236
 20
163.300974
 30
0.0
 40
0.5
100
AcDbArc
 50
19.999885
 51
90.0
  0
LINE
  5
1BD
100
AcDbEntity
  8
M0
100
AcDbLine
 10
249.966082
 20
163.471983
 30
0.0
 11
252.075657
 21
157.675974
 31
0.0
  0
LINE
  5
1BE
100
AcDbEntity
  8
M0
100
AcDbLine
 10
247.448144
 20
163.300974
 30
0.0
 11
247.448144
 21
162.300974
 31
0.0
  0
LINE
  5
1BF
100
AcDbEntity
  8
M0
100
AcDbLine
 10
249.496236
 20
163.800974
 30
0.0
 11
245.59634
 21
163.800974
 31
0.0
  0
LINE
  5
1C0
100
AcDbEntity
  8
M0
100
AcDbLine
 10
247.817118
 20
162.877844
 30
0.0
 11
249.896302
 21
157.675974
 31
0.0
  0
LINE
  5
1C1
100
AcDbEntity
  8
M0
100
AcDbLine
 10
245.594815
 20
161.863474
 30
0.0
 11
245.594815
 21
157.863474
 31
0.0
  0
ARC
  5
1C2
100
AcDbEntity
  8
M0
100
AcDbCircle
 10
244.84634
 20
162.300974
 30
0.0
 40
0.25
100
AcDbArc
 50
270.0
 51
0.0
  0
ARC
  5
1C3
100
AcDbEntity
  8
M0
100
AcDbCircle
 10
91.471342
 20
131.988473
 30
0.0
 40
0.375
100
AcDbArc
 50
180.0
 51
270.0
  0
LINE
  5
1C4
100
AcDbEntity
  8
M0
100
AcDbLine
 10
91.096342
 20
133.613473
 30
0.0
 11
91.096342
 21
131.988473
 31
0.0
  0
LINE
  5
1C5
100
AcDbEntity
  8
M0
100
AcDbLine
 10
108.591589
 20
156.689184
 30
0.0
 11
109.004675
 21
156.012656
 31
0.0
  0
LINE
  5
1C6
100
AcDbEntity
  8
M0
100
AcDbLine
 10
91.471342
 20
133.988473
 30
0.0
 11
130.096342
 21
133.988473
 31
0.0
  0
LINE
  5
1C7
100
AcDbEntity
  8
M0
100
AcDbLine
 10
112.155874
 20
155.738474
 30
0.0
 11
109.41181
 21
155.738474
 31
0.0
  0
LINE
  5
1C8
100
AcDbEntity
  8
M0
100
AcDbLine
 10
105.033842
 20
157.675974
 30
0.0
 11
105.033842
 21
147.238474
 31
0.0
  0
LINE
  5
1C9
100
AcDbEntity
  8
M0
100
AcDbLine
 10
109.392691
 20
150.846581
 30
0.0
 11
109.186568
 21
155.417548
 31
0.0
  0
ARC
  5
1CA
100
AcDbEntity
  8
M0
100
AcDbCircle
 10
102.630331
 20
149.972254
 30
0.0
 40
2.0
100
AcDbArc
 50
91.701349
 51
150.081393
  0
ARC
  5
1CB
100
AcDbEntity
  8
M0
100
AcDbCircle
 10
107.937834
 20
155.361235
 30
0.0
 40
1.25
100
AcDbArc
 50
2.582046
 51
31.408529
  0
LINE
  5
1CC
100
AcDbEntity
  8
M0
100
AcDbLine
 10
98.533842
 20
137.238473
 30
0.0
 11
98.142828
 21
135.205202
 31
0.0
  0
ARC
  5
1CD
100
AcDbEntity
  8
M0
100
AcDbCircle
 10
102.533842
 20
153.220822
 30
0.0
 40
1.25
100
AcDbArc
 50
271.701219
 51
0.0
  0
ARC
  5
1CE
100
AcDbEntity
  8
M0
100
AcDbCircle
 10
108.658842
 20
153.863474
 30
0.0
 40
0.375
100
AcDbArc
 50
90.0
 51
147.470829
  0
LINE
  5
1CF
100
AcDbEntity
  8
M0
100
AcDbLine
 10
108.881262
 20
154.238474
 30
0.0
 11
108.658842
 21
154.238474
 31
0.0
  0
LINE
  5
1D0
100
AcDbEntity
  8
M0
100
AcDbLine
 10
111.800375
 20
150.488474
 30
0.0
 11
109.767309
 21
150.488474
 31
0.0
  0
LINE
  5
1D1
100
AcDbEntity
  8
M0
100
AcDbLine
 10
123.033842
 20
137.238473
 30
0.0
 11
98.533842
 21
137.238473
 31
0.0
  0
LINE
  5
1D2
100
AcDbEntity
  8
M0
100
AcDbLine
 10
108.408842
 20
156.630827
 30
0.0
 11
108.408842
 21
154.392981
 31
0.0
  0
ARC
  5
1D3
100
AcDbEntity
  8
M0
100
AcDbCircle
 10
108.881262
 20
153.863474
 30
0.0
 40
0.375
100
AcDbArc
 50
2.581707
 51
90.0
  0
ARC
  5
1D4
100
AcDbEntity
  8
M0
100
AcDbCircle
 10
96.669813
 20
135.488473
 30
0.0
 40
1.5
100
AcDbArc
 50
270.0
 51
349.11452
  0
LINE
  5
1D5
100
AcDbEntity
  8
M0
100
AcDbLine
 10
98.533842
 20
146.329096
 30
0.0
 11
98.533842
 21
137.238473
 31
0.0
  0
ARC
  5
1D6
100
AcDbEntity
  8
M0
100
AcDbCircle
 10
100.533842
 20
146.329096
 30
0.0
 40
2.0
100
AcDbArc
 50
150.081393
 51
180.0
  0
ARC
  5
1D7
100
AcDbEntity
  8
M0
100
AcDbCircle
 10
91.471342
 20
133.613473
 30
0.0
 40
0.375
100
AcDbArc
 50
90.0
 51
180.0
  0
ARC
  5
1D8
100
AcDbEntity
  8
M0
100
AcDbCircle
 10
108.058165
 20
156.363474
 30
0.0
 40
0.625
100
AcDbArc
 50
31.408346
 51
65.03005
  0
ARC
  5
1D9
100
AcDbEntity
  8
M0
100
AcDbCircle
 10
109.767309
 20
150.863474
 30
0.0
 40
0.375
100
AcDbArc
 50
182.581998
 51
270.0
  0
LINE
  5
1DA
100
AcDbEntity
  8
M0
100
AcDbLine
 10
108.71712
 20
156.988474
 30
0.0
 11
112.850564
 21
156.988474
 31
0.0
  0
ARC
  5
1DB
100
AcDbEntity
  8
M0
100
AcDbCircle
 10
104.408842
 20
147.238474
 30
0.0
 40
0.625
100
AcDbArc
 50
270.0
 51
0.0
  0
LINE
  5
1DC
100
AcDbEntity
  8
M0
100
AcDbLine
 10
100.896857
 20
150.969796
 30
0.0
 11
98.800368
 21
147.326638
 31
0.0
  0
LINE
  5
1DD
100
AcDbEntity
  8
M0
  6
DASHDOT
100
AcDbLine
 10
93.908842
 20
135.628488
 30
0.0
 11
93.908842
 21
131.613473
 31
0.0
  0
LINE
  5
1DE
100
AcDbEntity
  8
M0
  6
DASHDOT
100
AcDbLine
 10
110.783842
 20
157.675974
 30
0.0
 11
110.783842
 21
131.613473
 31
0.0
  0
LINE
  5
1DF
100
AcDbEntity
  8
M0
100
AcDbLine
 10
91.471342
 20
131.613473
 30
0.0
 11
130.096342
 21
131.613473
 31
0.0
  0
LINE
  5
1E0
100
AcDbEntity
  8
M0
100
AcDbLine
 10
116.533842
 20
146.613474
 30
0.0
 11
105.033842
 21
146.613474
 31
0.0
  0
LINE
  5
1E1
100
AcDbEntity
  8
M0
100
AcDbLine
 10
103.783842
 20
157.675974
 30
0.0
 11
103.783842
 21
153.220822
 31
0.0
  0
ARC
  5
1E2
100
AcDbEntity
  8
M0
100
AcDbCircle
 10
112.908842
 20
153.863474
 30
0.0
 40
0.375
100
AcDbArc
 50
32.529171
 51
90.0
  0
ARC
  5
1E3
100
AcDbEntity
  8
M0
100
AcDbCircle
 10
112.686423
 20
153.863474
 30
0.0
 40
0.375
100
AcDbArc
 50
90.0
 51
177.418293
  0
ARC
  5
1E4
100
AcDbEntity
  8
M0
100
AcDbCircle
 10
119.033842
 20
153.220822
 30
0.0
 40
1.25
100
AcDbArc
 50
180.0
 51
268.298781
  0
ARC
  5
1E5
100
AcDbEntity
  8
M0
100
AcDbCircle
 10
118.937353
 20
149.972254
 30
0.0
 40
2.0
100
AcDbArc
 50
29.918607
 51
88.298651
  0
ARC
  5
1E6
100
AcDbEntity
  8
M0
100
AcDbCircle
 10
113.629851
 20
155.361235
 30
0.0
 40
1.25
100
AcDbArc
 50
148.591471
 51
177.417954
  0
ARC
  5
1E7
100
AcDbEntity
  8
M0
100
AcDbCircle
 10
130.096342
 20
131.988473
 30
0.0
 40
0.375
100
AcDbArc
 50
270.0
 51
0.0
  0
ARC
  5
1E8
100
AcDbEntity
  8
M0
100
AcDbCircle
 10
111.800375
 20
150.863474
 30
0.0
 40
0.375
100
AcDbArc
 50
270.0
 51
357.418002
  0
ARC
  5
1E9
100
AcDbEntity
  8
M0
100
AcDbCircle
 10
117.158842
 20
147.238474
 30
0.0
 40
0.625
100
AcDbArc
 50
180.0
 51
270.0
  0
ARC
  5
1EA
100
AcDbEntity
  8
M0
100
AcDbCircle
 10
113.50952
 20
156.363474
 30
0.0
 40
0.625
100
AcDbArc
 50
114.96995
 51
148.591654
  0
ARC
  5
1EB
100
AcDbEntity
  8
M0
100
AcDbCircle
 10
121.033842
 20
146.329096
 30
0.0
 40
2.0
100
AcDbArc
 50
0.0
 51
29.918607
  0
ARC
  5
1EC
100
AcDbEntity
  8
M0
100
AcDbCircle
 10
130.096342
 20
133.613473
 30
0.0
 40
0.375
100
AcDbArc
 50
0.0
 51
90.0
  0
LINE
  5
1ED
100
AcDbEntity
  8
M0
100
AcDbLine
 10
123.033842
 20
137.238473
 30
0.0
 11
123.424856
 21
135.205202
 31
0.0
  0
LINE
  5
1EE
100
AcDbEntity
  8
M0
100
AcDbLine
 10
112.686423
 20
154.238474
 30
0.0
 11
112.908842
 21
154.238474
 31
0.0
  0
LINE
  5
1EF
100
AcDbEntity
  8
M0
100
AcDbLine
 10
112.174994
 20
150.846581
 30
0.0
 11
112.381117
 21
155.417548
 31
0.0
  0
LINE
  5
1F0
100
AcDbEntity
  8
M0
100
AcDbLine
 10
112.976095
 20
156.689184
 30
0.0
 11
112.56301
 21
156.012656
 31
0.0
  0
LINE
  5
1F1
100
AcDbEntity
  8
M0
100
AcDbLine
 10
116.533842
 20
157.675974
 30
0.0
 11
116.533842
 21
147.238474
 31
0.0
  0
LINE
  5
1F2
100
AcDbEntity
  8
M0
100
AcDbLine
 10
130.471342
 20
133.613473
 30
0.0
 11
130.471342
 21
131.988473
 31
0.0
  0
LINE
  5
1F3
100
AcDbEntity
  8
M0
100
AcDbLine
 10
117.783842
 20
157.675974
 30
0.0
 11
117.783842
 21
153.220822
 31
0.0
  0
ARC
  5
1F4
100
AcDbEntity
  8
M0
100
AcDbCircle
 10
124.897871
 20
135.488473
 30
0.0
 40
1.5
100
AcDbArc
 50
190.88548
 51
270.0
  0
LINE
  5
1F5
100
AcDbEntity
  8
M0
  6
DASHDOT
100
AcDbLine
 10
127.658842
 20
135.628488
 30
0.0
 11
127.658842
 21
131.613473
 31
0.0
  0
LINE
  5
1F6
100
AcDbEntity
  8
M0
100
AcDbLine
 10
123.033842
 20
146.329096
 30
0.0
 11
123.033842
 21
137.238473
 31
0.0
  0
LINE
  5
1F7
100
AcDbEntity
  8
M0
100
AcDbLine
 10
120.670828
 20
150.969796
 30
0.0
 11
122.767317
 21
147.326638
 31
0.0
  0
LINE
  5
1F8
100
AcDbEntity
  8
M0
100
AcDbLine
 10
113.158842
 20
156.630827
 30
0.0
 11
113.158842
 21
154.392981
 31
0.0
  0
LINE
  5
1F9
100
AcDbEntity
  8
M0
100
AcDbLine
 10
98.271521
 20
125.363473
 30
0.0
 11
123.283842
 21
125.363473
 31
0.0
  0
LINE
  5
1FA
100
AcDbEntity
  8
M0
100
AcDbLine
 10
98.283842
 20
125.188405
 30
0.0
 11
98.283842
 21
116.95629
 31
0.0
  0
LINE
  5
1FB
100
AcDbEntity
  8
M0
100
AcDbLine
 10
98.283842
 20
113.738474
 30
0.0
 11
123.283842
 21
113.738474
 31
0.0
  0
LINE
  5
1FC
100
AcDbEntity
  8
M0
100
AcDbLine
 10
106.533842
 20
76.652094
 30
0.0
 11
106.533842
 21
73.221339
 31
0.0
  0
LINE
  5
1FD
100
AcDbEntity
  8
M0
100
AcDbLine
 10
106.126601
 20
82.704203
 30
0.0
 11
115.441084
 21
82.704203
 31
0.0
  0
LINE
  5
1FE
100
AcDbEntity
  8
M0
100
AcDbLine
 10
91.096342
 20
131.238473
 30
0.0
 11
91.096342
 21
129.238474
 31
0.0
  0
LINE
  5
1FF
100
AcDbEntity
  8
M0
  6
DASHDOT
100
AcDbLine
 10
131.767253
 20
114.738474
 30
0.0
 11
89.800431
 21
114.738474
 31
0.0
  0
LINE
  5
200
100
AcDbEntity
  8
M0
100
AcDbLine
 10
91.386793
 20
115.550974
 30
0.0
 11
130.180888
 21
115.550974
 31
0.0
  0
LINE
  5
201
100
AcDbEntity
  8
M0
100
AcDbLine
 10
91.096342
 20
115.185629
 30
0.0
 11
91.096342
 21
114.291319
 31
0.0
  0
LINE
  5
202
100
AcDbEntity
  8
M0
  6
DASHDOT
100
AcDbLine
 10
93.908842
 20
131.613473
 30
0.0
 11
93.908842
 21
127.176419
 31
0.0
  0
LINE
  5
203
100
AcDbEntity
  8
M0
  6
DASHDOT
100
AcDbLine
 10
81.330437
 20
86.613474
 30
0.0
 11
140.237248
 21
86.613474
 31
0.0
  0
LINE
  5
204
100
AcDbEntity
  8
M0
100
AcDbLine
 10
98.283842
 20
115.738474
 30
0.0
 11
123.283842
 21
115.738474
 31
0.0
  0
LINE
  5
205
100
AcDbEntity
  8
M0
100
AcDbLine
 10
97.542868
 20
127.956875
 30
0.0
 11
98.235747
 21
125.531806
 31
0.0
  0
LINE
  5
206
100
AcDbEntity
  8
M0
100
AcDbLine
 10
92.908842
 20
106.738473
 30
0.0
 11
89.965864
 21
107.198313
 31
0.0
  0
LINE
  5
207
100
AcDbEntity
  8
M0
100
AcDbLine
 10
86.533842
 20
115.613474
 30
0.0
 11
88.533842
 21
115.613474
 31
0.0
  0
ARC
  5
208
100
AcDbEntity
  8
M0
100
AcDbCircle
 10
91.471342
 20
131.238473
 30
0.0
 40
0.375
100
AcDbArc
 50
90.0
 51
180.0
  0
ARC
  5
209
100
AcDbEntity
  8
M0
100
AcDbCircle
 10
88.533842
 20
57.988474
 30
0.0
 40
0.375
100
AcDbArc
 50
270.0
 51
0.0
  0
LINE
  5
20A
100
AcDbEntity
  8
M0
100
AcDbLine
 10
86.533842
 20
57.613474
 30
0.0
 11
88.533842
 21
57.613474
 31
0.0
  0
LINE
  5
20B
100
AcDbEntity
  8
M0
100
AcDbLine
 10
88.908842
 20
115.238474
 30
0.0
 11
88.908842
 21
57.988474
 31
0.0
  0
LINE
  5
20C
100
AcDbEntity
  8
M0
100
AcDbLine
 10
98.52355
 20
112.78418
 30
0.0
 11
106.533842
 21
76.652094
 31
0.0
  0
LINE
  5
20D
100
AcDbEntity
  8
M0
100
AcDbLine
 10
91.386793
 20
113.925974
 30
0.0
 11
130.180888
 21
113.925974
 31
0.0
  0
LINE
  5
20E
100
AcDbEntity
  8
M0
100
AcDbLine
 10
85.783842
 20
63.988474
 30
0.0
 11
85.783842
 21
109.238473
 31
0.0
  0
LINE
  5
20F
100
AcDbEntity
  8
M0
100
AcDbLine
 10
128.658842
 20
66.488474
 30
0.0
 11
92.908842
 21
66.488474
 31
0.0
  0
LINE
  5
210
100
AcDbEntity
  8
M0
100
AcDbLine
 10
91.471342
 20
128.863474
 30
0.0
 11
130.096342
 21
128.863474
 31
0.0
  0
ARC
  5
211
100
AcDbEntity
  8
M0
100
AcDbCircle
 10
96.340964
 20
127.613474
 30
0.0
 40
1.25
100
AcDbArc
 50
15.945405
 51
90.0
  0
ARC
  5
212
100
AcDbEntity
  8
M0
100
AcDbCircle
 10
106.126601
 20
81.954203
 30
0.0
 40
0.75
100
AcDbArc
 50
90.0
 51
192.500044
  0
ARC
  5
213
100
AcDbEntity
  8
M0
100
AcDbCircle
 10
91.471342
 20
129.238474
 30
0.0
 40
0.375
100
AcDbArc
 50
180.0
 51
270.0
  0
LINE
  5
214
100
AcDbEntity
  8
M0
100
AcDbLine
 10
92.908842
 20
66.488474
 30
0.0
 11
89.965864
 21
66.028635
 31
0.0
  0
LINE
  5
215
100
AcDbEntity
  8
M0
100
AcDbLine
 10
92.908842
 20
106.738473
 30
0.0
 11
92.908842
 21
66.488474
 31
0.0
  0
ARC
  5
216
100
AcDbEntity
  8
M0
100
AcDbCircle
 10
97.83914
 20
108.363473
 30
0.0
 40
1.625
100
AcDbArc
 50
270.0
 51
12.500039
  0
ARC
  5
217
100
AcDbEntity
  8
M0
100
AcDbCircle
 10
91.471342
 20
115.185629
 30
0.0
 40
0.375
100
AcDbArc
 50
91.494579
 51
180.0
  0
ARC
  5
218
100
AcDbEntity
  8
M0
100
AcDbCircle
 10
97.033842
 20
125.188405
 30
0.0
 40
1.25
100
AcDbArc
 50
0.0
 51
15.945405
  0
ARC
  5
219
100
AcDbEntity
  8
M0
100
AcDbCircle
 10
86.533842
 20
115.238474
 30
0.0
 40
0.375
100
AcDbArc
 50
90.0
 51
180.0
  0
ARC
  5
21A
100
AcDbEntity
  8
M0
100
AcDbCircle
 10
86.533842
 20
57.988474
 30
0.0
 40
0.375
100
AcDbArc
 50
180.0
 51
270.0
  0
LINE
  5
21B
100
AcDbEntity
  8
M0
100
AcDbLine
 10
85.783842
 20
63.988474
 30
0.0
 11
86.158842
 21
63.613474
 31
0.0
  0
ARC
  5
21C
100
AcDbEntity
  8
M0
100
AcDbCircle
 10
88.533842
 20
115.238474
 30
0.0
 40
0.375
100
AcDbArc
 50
0.0
 51
90.0
  0
LINE
  5
21D
100
AcDbEntity
  8
M0
  6
DASHDOT
100
AcDbLine
 10
110.783842
 20
131.613473
 30
0.0
 11
110.783842
 21
62.731002
 31
0.0
  0
ARC
  5
21E
100
AcDbEntity
  8
M0
100
AcDbCircle
 10
90.158842
 20
108.433328
 30
0.0
 40
1.25
100
AcDbArc
 50
180.0
 51
261.119032
  0
ARC
  5
21F
100
AcDbEntity
  8
M0
100
AcDbCircle
 10
105.783842
 20
73.221339
 30
0.0
 40
0.75
100
AcDbArc
 50
312.022022
 51
0.0
  0
LINE
  5
220
100
AcDbEntity
  8
M0
100
AcDbLine
 10
91.461561
 20
115.560501
 30
0.0
 11
97.066435
 21
115.706715
 31
0.0
  0
LINE
  5
221
100
AcDbEntity
  8
M0
100
AcDbLine
 10
85.783842
 20
109.238474
 30
0.0
 11
86.158842
 21
109.613474
 31
0.0
  0
ARC
  5
222
100
AcDbEntity
  8
M0
100
AcDbCircle
 10
97.303175
 20
112.513631
 30
0.0
 40
1.25
100
AcDbArc
 50
12.499919
 51
88.505538
  0
LINE
  5
223
100
AcDbEntity
  8
M0
100
AcDbLine
 10
97.83914
 20
106.738473
 30
0.0
 11
92.908842
 21
106.738473
 31
0.0
  0
LINE
  5
224
100
AcDbEntity
  8
M0
100
AcDbLine
 10
91.471342
 20
131.613473
 30
0.0
 11
130.096342
 21
131.613473
 31
0.0
  0
ARC
  5
225
100
AcDbEntity
  8
M0
100
AcDbCircle
 10
90.158842
 20
64.793619
 30
0.0
 40
1.25
100
AcDbArc
 50
98.880961
 51
180.0
  0
ARC
  5
226
100
AcDbEntity
  8
M0
100
AcDbCircle
 10
97.033842
 20
116.95629
 30
0.0
 40
1.25
100
AcDbArc
 50
271.494112
 51
0.0
  0
LINE
  5
227
100
AcDbEntity
  8
M0
100
AcDbLine
 10
91.461561
 20
113.916446
 30
0.0
 11
97.335776
 21
113.763206
 31
0.0
  0
LINE
  5
228
100
AcDbEntity
  8
M0
100
AcDbLine
 10
86.158842
 20
57.988474
 30
0.0
 11
86.158842
 21
115.238474
 31
0.0
  0
ARC
  5
229
100
AcDbEntity
  8
M0
100
AcDbCircle
 10
91.471342
 20
114.291319
 30
0.0
 40
0.375
100
AcDbArc
 50
180.0
 51
268.505423
  0
ARC
  5
22A
100
AcDbEntity
  8
M0
100
AcDbCircle
 10
130.096342
 20
129.238474
 30
0.0
 40
0.375
100
AcDbArc
 50
270.0
 51
0.0
  0
ARC
  5
22B
100
AcDbEntity
  8
M0
100
AcDbCircle
 10
115.441084
 20
81.954203
 30
0.0
 40
0.75
100
AcDbArc
 50
347.499956
 51
90.0
  0
ARC
  5
22C
100
AcDbEntity
  8
M0
100
AcDbCircle
 10
130.096342
 20
115.185629
 30
0.0
 40
0.375
100
AcDbArc
 50
360.0
 51
88.505421
  0
ARC
  5
22D
100
AcDbEntity
  8
M0
100
AcDbCircle
 10
123.728545
 20
108.363473
 30
0.0
 40
1.625
100
AcDbArc
 50
167.499961
 51
270.0
  0
ARC
  5
22E
100
AcDbEntity
  8
M0
100
AcDbCircle
 10
124.533842
 20
125.188405
 30
0.0
 40
1.25
100
AcDbArc
 50
164.054595
 51
180.0
  0
LINE
  5
22F
100
AcDbEntity
  8
M0
100
AcDbLine
 10
135.408842
 20
57.988474
 30
0.0
 11
135.408842
 21
115.238474
 31
0.0
  0
LINE
  5
230
100
AcDbEntity
  8
M0
100
AcDbLine
 10
130.106123
 20
113.916446
 30
0.0
 11
124.231909
 21
113.763206
 31
0.0
  0
ARC
  5
231
100
AcDbEntity
  8
M0
100
AcDbCircle
 10
133.033842
 20
57.988474
 30
0.0
 40
0.375
100
AcDbArc
 50
180.0
 51
270.0
  0
ARC
  5
232
100
AcDbEntity
  8
M0
100
AcDbCircle
 10
130.096342
 20
131.238473
 30
0.0
 40
0.375
100
AcDbArc
 50
0.0
 51
90.0
  0
ARC
  5
233
100
AcDbEntity
  8
M0
100
AcDbCircle
 10
124.264509
 20
112.513631
 30
0.0
 40
1.25
100
AcDbArc
 50
91.494462
 51
167.500081
  0
ARC
  5
234
100
AcDbEntity
  8
M0
100
AcDbCircle
 10
115.783842
 20
73.221339
 30
0.0
 40
0.75
100
AcDbArc
 50
180.0
 51
227.977978
  0
ARC
  5
235
100
AcDbEntity
  8
M0
100
AcDbCircle
 10
124.533842
 20
116.95629
 30
0.0
 40
1.25
100
AcDbArc
 50
180.0
 51
268.505888
  0
ARC
  5
236
100
AcDbEntity
  8
M0
100
AcDbCircle
 10
131.408842
 20
64.793619
 30
0.0
 40
1.25
100
AcDbArc
 50
0.0
 51
81.119039
  0
ARC
  5
237
100
AcDbEntity
  8
M0
100
AcDbCircle
 10
130.096342
 20
114.291319
 30
0.0
 40
0.375
100
AcDbArc
 50
271.494577
 51
0.0
  0
ARC
  5
238
100
AcDbEntity
  8
M0
100
AcDbCircle
 10
135.033842
 20
115.238474
 30
0.0
 40
0.375
100
AcDbArc
 50
0.0
 51
90.0
  0
ARC
  5
239
100
AcDbEntity
  8
M0
100
AcDbCircle
 10
125.226721
 20
127.613474
 30
0.0
 40
1.25
100
AcDbArc
 50
90.0
 51
164.054595
  0
ARC
  5
23A
100
AcDbEntity
  8
M0
100
AcDbCircle
 10
133.033842
 20
115.238474
 30
0.0
 40
0.375
100
AcDbArc
 50
90.0
 51
180.0
  0
ARC
  5
23B
100
AcDbEntity
  8
M0
100
AcDbCircle
 10
135.033842
 20
57.988474
 30
0.0
 40
0.375
100
AcDbArc
 50
270.0
 51
0.0
  0
LINE
  5
23C
100
AcDbEntity
  8
M0
100
AcDbLine
 10
128.658842
 20
106.738473
 30
0.0
 11
131.60182
 21
107.198313
 31
0.0
  0
LINE
  5
23D
100
AcDbEntity
  8
M0
100
AcDbLine
 10
124.024817
 20
127.956875
 30
0.0
 11
123.331938
 21
125.531806
 31
0.0
  0
LINE
  5
23E
100
AcDbEntity
  8
M0
100
AcDbLine
 10
135.033842
 20
57.613474
 30
0.0
 11
133.033842
 21
57.613474
 31
0.0
  0
LINE
  5
23F
100
AcDbEntity
  8
M0
100
AcDbLine
 10
135.033842
 20
115.613474
 30
0.0
 11
133.033842
 21
115.613474
 31
0.0
  0
LINE
  5
240
100
AcDbEntity
  8
M0
100
AcDbLine
 10
132.658842
 20
115.238474
 30
0.0
 11
132.658842
 21
57.988474
 31
0.0
  0
LINE
  5
241
100
AcDbEntity
  8
M0
100
AcDbLine
 10
115.033842
 20
76.652094
 30
0.0
 11
115.033842
 21
73.221339
 31
0.0
  0
LINE
  5
242
100
AcDbEntity
  8
M0
100
AcDbLine
 10
123.283842
 20
125.188405
 30
0.0
 11
123.283842
 21
116.95629
 31
0.0
  0
LINE
  5
243
100
AcDbEntity
  8
M0
100
AcDbLine
 10
130.471342
 20
115.185629
 30
0.0
 11
130.471342
 21
114.291319
 31
0.0
  0
LINE
  5
244
100
AcDbEntity
  8
M0
100
AcDbLine
 10
130.471342
 20
131.238473
 30
0.0
 11
130.471342
 21
129.238474
 31
0.0
  0
LINE
  5
245
100
AcDbEntity
  8
M0
100
AcDbLine
 10
130.106123
 20
115.560501
 30
0.0
 11
124.50125
 21
115.706715
 31
0.0
  0
LINE
  5
246
100
AcDbEntity
  8
M0
100
AcDbLine
 10
135.783842
 20
63.988474
 30
0.0
 11
135.408842
 21
63.613474
 31
0.0
  0
LINE
  5
247
100
AcDbEntity
  8
M0
100
AcDbLine
 10
123.728545
 20
106.738473
 30
0.0
 11
128.658842
 21
106.738473
 31
0.0
  0
LINE
  5
248
100
AcDbEntity
  8
M0
100
AcDbLine
 10
135.783842
 20
109.238474
 30
0.0
 11
135.408842
 21
109.613474
 31
0.0
  0
ARC
  5
249
100
AcDbEntity
  8
M0
100
AcDbCircle
 10
131.408842
 20
108.433328
 30
0.0
 40
1.25
100
AcDbArc
 50
278.880968
 51
0.0
  0
LINE
  5
24A
100
AcDbEntity
  8
M0
100
AcDbLine
 10
123.044134
 20
112.78418
 30
0.0
 11
115.033842
 21
76.652094
 31
0.0
  0
LINE
  5
24B
100
AcDbEntity
  8
M0
  6
DASHDOT
100
AcDbLine
 10
127.658842
 20
131.613473
 30
0.0
 11
127.658842
 21
127.176419
 31
0.0
  0
LINE
  5
24C
100
AcDbEntity
  8
M0
100
AcDbLine
 10
128.658842
 20
66.488474
 30
0.0
 11
131.60182
 21
66.028635
 31
0.0
  0
LINE
  5
24D
100
AcDbEntity
  8
M0
100
AcDbLine
 10
135.783842
 20
63.988474
 30
0.0
 11
135.783842
 21
109.238473
 31
0.0
  0
LINE
  5
24E
100
AcDbEntity
  8
M0
100
AcDbLine
 10
128.658842
 20
106.738473
 30
0.0
 11
128.658842
 21
66.488474
 31
0.0
  0
LINE
  5
24F
100
AcDbEntity
  8
M0
  6
DASHDOT
100
AcDbLine
 10
137.923753
 20
60.738474
 30
0.0
 11
129.72235
 21
60.738474
 31
0.0
  0
LINE
  5
250
100
AcDbEntity
  8
M0
  6
DASHDOT
100
AcDbLine
 10
137.923753
 20
112.488474
 30
0.0
 11
129.72235
 21
112.488474
 31
0.0
  0
LINE
  5
251
100
AcDbEntity
  8
M0
  6
DASHDOT
100
AcDbLine
 10
91.205049
 20
112.488474
 30
0.0
 11
83.296554
 21
112.488474
 31
0.0
  0
LINE
  5
252
100
AcDbEntity
  8
M0
  6
DASHDOT
100
AcDbLine
 10
91.205049
 20
60.738474
 30
0.0
 11
83.296554
 21
60.738474
 31
0.0
  0
LINE
  5
253
100
AcDbEntity
  8
M0
100
AcDbLine
 10
103.346342
 20
162.050974
 30
0.0
 11
104.721342
 21
162.050974
 31
0.0
  0
LINE
  5
254
100
AcDbEntity
  8
M0
100
AcDbLine
 10
102.846342
 20
161.550974
 30
0.0
 11
102.846342
 21
157.675974
 31
0.0
  0
LINE
  5
255
100
AcDbEntity
  8
M0
100
AcDbLine
 10
104.721342
 20
163.300974
 30
0.0
 11
104.721342
 21
157.675974
 31
0.0
  0
LINE
  5
256
100
AcDbEntity
  8
M0
100
AcDbLine
 10
102.846342
 20
157.675974
 30
0.0
 11
118.721342
 21
157.675974
 31
0.0
  0
ARC
  5
257
100
AcDbEntity
  8
M0
100
AcDbCircle
 10
103.346342
 20
161.550974
 30
0.0
 40
0.5
100
AcDbArc
 50
90.0
 51
180.0
  0
LINE
  5
258
100
AcDbEntity
  8
M0
  6
DASHDOT
100
AcDbLine
 10
110.783842
 20
163.800974
 30
0.0
 11
110.783842
 21
157.675974
 31
0.0
  0
LINE
  5
259
100
AcDbEntity
  8
M0
100
AcDbLine
 10
105.221342
 20
163.800974
 30
0.0
 11
116.346342
 21
163.800974
 31
0.0
  0
ARC
  5
25A
100
AcDbEntity
  8
M0
100
AcDbCircle
 10
105.221342
 20
163.300974
 30
0.0
 40
0.5
100
AcDbArc
 50
90.0
 51
180.0
  0
ARC
  5
25B
100
AcDbEntity
  8
M0
100
AcDbCircle
 10
118.221342
 20
161.550974
 30
0.0
 40
0.5
100
AcDbArc
 50
0.0
 51
90.0
  0
ARC
  5
25C
100
AcDbEntity
  8
M0
100
AcDbCircle
 10
116.346342
 20
163.300974
 30
0.0
 40
0.5
100
AcDbArc
 50
0.0
 51
90.0
  0
LINE
  5
25D
100
AcDbEntity
  8
M0
100
AcDbLine
 10
118.721342
 20
161.550974
 30
0.0
 11
118.721342
 21
157.675974
 31
0.0
  0
LINE
  5
25E
100
AcDbEntity
  8
M0
100
AcDbLine
 10
116.846342
 20
163.300974
 30
0.0
 11
116.846342
 21
157.675974
 31
0.0
  0
LINE
  5
25F
100
AcDbEntity
  8
M0
100
AcDbLine
 10
118.221342
 20
162.050974
 30
0.0
 11
116.846342
 21
162.050974
 31
0.0
  0
LINE
  5
260
100
AcDbEntity
  8
M0
100
AcDbLine
 10
108.596342
 20
164.113474
 30
0.0
 11
112.971342
 21
164.113474
 31
0.0
  0
LINE
  5
261
100
AcDbEntity
  8
M0
100
AcDbLine
 10
112.971342
 20
164.113474
 30
0.0
 11
113.151764
 21
163.800974
 31
0.0
  0
LINE
  5
262
100
AcDbEntity
  8
M0
100
AcDbLine
 10
108.596342
 20
164.113474
 30
0.0
 11
108.415915
 21
163.800974
 31
0.0
  0
LINE
  5
263
100
AcDbEntity
  8
M0
  6
DASHDOT
100
AcDbLine
 10
110.783842
 20
164.113474
 30
0.0
 11
110.783842
 21
163.800974
 31
0.0
  0
ARC
  5
264
100
AcDbEntity
  8
M0
100
AcDbCircle
 10
112.172919
 20
252.831799
 30
0.0
 40
34.042492
100
AcDbArc
 50
273.23248
 51
277.504168
  0
ARC
  5
265
100
AcDbEntity
  8
M0
100
AcDbCircle
 10
115.640219
 20
220.960475
 30
0.0
 40
1.25
100
AcDbArc
 50
90.0
 51
172.296818
  0
ARC
  5
266
100
AcDbEntity
  8
M0
100
AcDbCircle
 10
111.125609
 20
215.192358
 30
0.0
 40
0.375
100
AcDbArc
 50
187.703
 51
270.0
  0
ARC
  5
267
100
AcDbEntity
  8
M0
100
AcDbCircle
 10
113.220221
 20
251.721238
 30
0.0
 40
0.375
100
AcDbArc
 50
7.702639
 51
90.0
  0
ARC
  5
268
100
AcDbEntity
  8
M0
100
AcDbCircle
 10
108.705611
 20
245.953118
 30
0.0
 40
1.25
100
AcDbArc
 50
270.0
 51
352.296905
  0
ARC
  5
269
100
AcDbEntity
  8
M0
100
AcDbCircle
 10
112.172919
 20
214.081797
 30
0.0
 40
34.042492
100
AcDbArc
 50
93.232493
 51
97.504181
  0
ARC
  5
26A
100
AcDbEntity
  8
M0
100
AcDbCircle
 10
113.220221
 20
215.192358
 30
0.0
 40
0.375
100
AcDbArc
 50
270.0
 51
352.297
  0
ARC
  5
26B
100
AcDbEntity
  8
M0
100
AcDbCircle
 10
115.640219
 20
245.953118
 30
0.0
 40
1.25
100
AcDbArc
 50
187.703095
 51
270.0
  0
ARC
  5
26C
100
AcDbEntity
  8
M0
100
AcDbCircle
 10
111.125609
 20
251.721238
 30
0.0
 40
0.375
100
AcDbArc
 50
90.0
 51
172.297361
  0
ARC
  5
26D
100
AcDbEntity
  8
M0
100
AcDbCircle
 10
108.705611
 20
220.960475
 30
0.0
 40
1.25
100
AcDbArc
 50
7.703182
 51
90.0
  0
LINE
  5
26E
100
AcDbEntity
  8
M0
  6
DASHDOT
100
AcDbLine
 10
112.172919
 20
266.76693
 30
0.0
 11
112.172919
 21
199.788988
 31
0.0
  0
LINE
  5
26F
100
AcDbEntity
  8
M0
  6
DASHDOT
100
AcDbLine
 10
117.797911
 20
261.394692
 30
0.0
 11
122.547915
 21
261.394692
 31
0.0
  0
LINE
  5
270
100
AcDbEntity
  8
M0
  6
DASHDOT
100
AcDbLine
 10
120.172919
 20
259.019692
 30
0.0
 11
120.172919
 21
263.769692
 31
0.0
  0
LINE
  5
271
100
AcDbEntity
  8
M0
  6
DASHDOT
100
AcDbLine
 10
127.262152
 20
247.956799
 30
0.0
 11
127.262152
 21
252.706795
 31
0.0
  0
LINE
  5
272
100
AcDbEntity
  8
M0
  6
DASHDOT
100
AcDbLine
 10
124.887152
 20
250.331799
 30
0.0
 11
129.637156
 21
250.331799
 31
0.0
  0
LINE
  5
273
100
AcDbEntity
  8
M0
  6
DASHDOT
100
AcDbLine
 10
128.814925
 20
237.206797
 30
0.0
 11
128.814925
 21
241.956795
 31
0.0
  0
LINE
  5
274
100
AcDbEntity
  8
M0
  6
DASHDOT
100
AcDbLine
 10
126.439921
 20
239.581797
 30
0.0
 11
131.189921
 21
239.581797
 31
0.0
  0
LINE
  5
275
100
AcDbEntity
  8
M0
  6
DASHDOT
100
AcDbLine
 10
97.905913
 20
239.581797
 30
0.0
 11
93.155913
 21
239.581797
 31
0.0
  0
LINE
  5
276
100
AcDbEntity
  8
M0
  6
DASHDOT
100
AcDbLine
 10
95.530905
 20
237.206797
 30
0.0
 11
95.530905
 21
241.956795
 31
0.0
  0
LINE
  5
277
100
AcDbEntity
  8
M0
  6
DASHDOT
100
AcDbLine
 10
99.458678
 20
250.331799
 30
0.0
 11
94.708678
 21
250.331799
 31
0.0
  0
LINE
  5
278
100
AcDbEntity
  8
M0
  6
DASHDOT
100
AcDbLine
 10
106.547919
 20
261.394692
 30
0.0
 11
101.797919
 21
261.394692
 31
0.0
  0
LINE
  5
279
100
AcDbEntity
  8
M0
  6
DASHDOT
100
AcDbLine
 10
97.083678
 20
247.956799
 30
0.0
 11
97.083678
 21
252.706795
 31
0.0
  0
LINE
  5
27A
100
AcDbEntity
  8
M0
  6
DASHDOT
100
AcDbLine
 10
104.172919
 20
259.019692
 30
0.0
 11
104.172919
 21
263.769692
 31
0.0
  0
LINE
  5
27B
100
AcDbEntity
  8
M0
  6
DASHDOT
100
AcDbLine
 10
117.797911
 20
205.518901
 30
0.0
 11
122.547915
 21
205.518901
 31
0.0
  0
LINE
  5
27C
100
AcDbEntity
  8
M0
  6
DASHDOT
100
AcDbLine
 10
120.172919
 20
207.893901
 30
0.0
 11
120.172919
 21
203.143901
 31
0.0
  0
LINE
  5
27D
100
AcDbEntity
  8
M0
  6
DASHDOT
100
AcDbLine
 10
124.887152
 20
216.581797
 30
0.0
 11
129.637156
 21
216.581797
 31
0.0
  0
LINE
  5
27E
100
AcDbEntity
  8
M0
  6
DASHDOT
100
AcDbLine
 10
127.262152
 20
218.956797
 30
0.0
 11
127.262152
 21
214.206797
 31
0.0
  0
LINE
  5
27F
100
AcDbEntity
  8
M0
  6
DASHDOT
100
AcDbLine
 10
128.814925
 20
229.706797
 30
0.0
 11
128.814925
 21
224.956797
 31
0.0
  0
LINE
  5
280
100
AcDbEntity
  8
M0
  6
DASHDOT
100
AcDbLine
 10
126.439921
 20
227.331797
 30
0.0
 11
131.189921
 21
227.331797
 31
0.0
  0
LINE
  5
281
100
AcDbEntity
  8
M0
  6
DASHDOT
100
AcDbLine
 10
97.905913
 20
227.331797
 30
0.0
 11
93.155913
 21
227.331797
 31
0.0
  0
LINE
  5
282
100
AcDbEntity
  8
M0
  6
DASHDOT
100
AcDbLine
 10
95.530905
 20
229.706797
 30
0.0
 11
95.530905
 21
224.956797
 31
0.0
  0
LINE
  5
283
100
AcDbEntity
  8
M0
  6
DASHDOT
100
AcDbLine
 10
99.458678
 20
216.581797
 30
0.0
 11
94.708678
 21
216.581797
 31
0.0
  0
LINE
  5
284
100
AcDbEntity
  8
M0
  6
DASHDOT
100
AcDbLine
 10
106.547919
 20
205.518901
 30
0.0
 11
101.797919
 21
205.518901
 31
0.0
  0
LINE
  5
285
100
AcDbEntity
  8
M0
  6
DASHDOT
100
AcDbLine
 10
97.083678
 20
218.956797
 30
0.0
 11
97.083678
 21
214.206797
 31
0.0
  0
LINE
  5
286
100
AcDbEntity
  8
M0
  6
DASHDOT
100
AcDbLine
 10
104.172919
 20
207.893901
 30
0.0
 11
104.172919
 21
203.143901
 31
0.0
  0
ARC
  5
287
100
AcDbEntity
  8
M0
100
AcDbCircle
 10
175.922916
 20
233.456797
 30
0.0
 40
83.4375
100
AcDbArc
 50
164.457016
 51
195.542984
  0
ARC
  5
288
100
AcDbEntity
  8
M0
100
AcDbCircle
 10
107.278548
 20
252.549034
 30
0.0
 40
12.1875
100
AcDbArc
 50
96.612919
 51
164.457014
  0
ARC
  5
289
100
AcDbEntity
  8
M0
100
AcDbCircle
 10
112.172919
 20
210.331797
 30
0.0
 40
54.6875
100
AcDbArc
 50
83.387057
 51
96.612943
  0
ARC
  5
28A
100
AcDbEntity
  8
M0
100
AcDbCircle
 10
48.422919
 20
233.456797
 30
0.0
 40
83.4375
100
AcDbArc
 50
344.457015
 51
15.542985
  0
ARC
  5
28B
100
AcDbEntity
  8
M0
100
AcDbCircle
 10
117.067282
 20
252.549034
 30
0.0
 40
12.1875
100
AcDbArc
 50
15.542986
 51
83.387046
  0
ARC
  5
28C
100
AcDbEntity
  8
M0
100
AcDbCircle
 10
107.278548
 20
214.364559
 30
0.0
 40
12.1875
100
AcDbArc
 50
195.542986
 51
263.387081
  0
ARC
  5
28D
100
AcDbEntity
  8
M0
100
AcDbCircle
 10
112.172919
 20
256.581799
 30
0.0
 40
54.6875
100
AcDbArc
 50
263.387057
 51
276.612943
  0
ARC
  5
28E
100
AcDbEntity
  8
M0
100
AcDbCircle
 10
117.067282
 20
214.364559
 30
0.0
 40
12.1875
100
AcDbArc
 50
276.612955
 51
344.457014
  0
LINE
  5
28F
100
AcDbEntity
  8
M0
100
AcDbLine
 10
117.922919
 20
246.345574
 30
0.0
 11
117.922919
 21
243.536365
 31
0.0
  0
LINE
  5
290
100
AcDbEntity
  8
M0
100
AcDbLine
 10
106.422919
 20
246.345574
 30
0.0
 11
106.422919
 21
243.536365
 31
0.0
  0
LINE
  5
291
100
AcDbEntity
  8
M0
100
AcDbLine
 10
106.422919
 20
223.377229
 30
0.0
 11
106.422919
 21
220.568019
 31
0.0
  0
LINE
  5
292
100
AcDbEntity
  8
M0
100
AcDbLine
 10
117.922919
 20
223.377229
 30
0.0
 11
117.922919
 21
220.568019
 31
0.0
  0
LINE
  5
293
100
AcDbEntity
  8
M0
100
AcDbLine
 10
113.591841
 20
251.7715
 30
0.0
 11
114.401503
 21
245.785569
 31
0.0
  0
LINE
  5
294
100
AcDbEntity
  8
M0
100
AcDbLine
 10
110.939589
 20
250.345948
 30
0.0
 11
113.406249
 21
250.345948
 31
0.0
  0
LINE
  5
295
100
AcDbEntity
  8
M0
100
AcDbLine
 10
111.125609
 20
252.096238
 30
0.0
 11
113.220221
 21
252.096238
 31
0.0
  0
LINE
  5
296
100
AcDbEntity
  8
M0
100
AcDbLine
 10
110.753989
 20
251.7715
 30
0.0
 11
109.944327
 21
245.785569
 31
0.0
  0
LINE
  5
297
100
AcDbEntity
  8
M0
100
AcDbLine
 10
110.939589
 20
216.567646
 30
0.0
 11
113.406249
 21
216.567646
 31
0.0
  0
LINE
  5
298
100
AcDbEntity
  8
M0
100
AcDbLine
 10
113.591841
 20
215.142093
 30
0.0
 11
114.401503
 21
221.128026
 31
0.0
  0
LINE
  5
299
100
AcDbEntity
  8
M0
100
AcDbLine
 10
110.753989
 20
215.142093
 30
0.0
 11
109.944327
 21
221.128026
 31
0.0
  0
LINE
  5
29A
100
AcDbEntity
  8
M0
100
AcDbLine
 10
111.125609
 20
214.817358
 30
0.0
 11
113.220221
 21
214.817358
 31
0.0
  0
ARC
  5
29B
100
AcDbEntity
  8
M0
100
AcDbCircle
 10
112.172919
 20
210.331797
 30
0.0
 40
47.875
100
AcDbArc
 50
83.387057
 51
96.612943
  0
ARC
  5
29C
100
AcDbEntity
  8
M0
100
AcDbCircle
 10
112.172919
 20
210.331797
 30
0.0
 40
47.25
100
AcDbArc
 50
83.387057
 51
96.612943
  0
ARC
  5
29D
100
AcDbEntity
  8
M0
100
AcDbCircle
 10
175.922916
 20
233.456797
 30
0.0
 40
76.625
100
AcDbArc
 50
164.457015
 51
195.542985
  0
ARC
  5
29E
100
AcDbEntity
  8
M0
100
AcDbCircle
 10
175.922916
 20
233.456797
 30
0.0
 40
76.0
100
AcDbArc
 50
164.457016
 51
195.542985
  0
ARC
  5
29F
100
AcDbEntity
  8
M0
100
AcDbCircle
 10
48.422919
 20
233.456797
 30
0.0
 40
76.625
100
AcDbArc
 50
344.457016
 51
15.542985
  0
ARC
  5
2A0
100
AcDbEntity
  8
M0
100
AcDbCircle
 10
48.422919
 20
233.456797
 30
0.0
 40
76.0
100
AcDbArc
 50
344.457016
 51
15.542984
  0
ARC
  5
2A1
100
AcDbEntity
  8
M0
100
AcDbCircle
 10
112.172919
 20
256.581799
 30
0.0
 40
47.875
100
AcDbArc
 50
263.387057
 51
276.612943
  0
ARC
  5
2A2
100
AcDbEntity
  8
M0
100
AcDbCircle
 10
112.172919
 20
256.581799
 30
0.0
 40
47.25
100
AcDbArc
 50
263.387057
 51
276.612943
  0
ARC
  5
2A3
100
AcDbEntity
  8
M0
100
AcDbCircle
 10
107.278548
 20
252.549034
 30
0.0
 40
5.375
100
AcDbArc
 50
96.612884
 51
164.456991
  0
ARC
  5
2A4
100
AcDbEntity
  8
M0
100
AcDbCircle
 10
107.278548
 20
252.549034
 30
0.0
 40
4.75
100
AcDbArc
 50
96.61288
 51
164.457002
  0
ARC
  5
2A5
100
AcDbEntity
  8
M0
100
AcDbCircle
 10
117.067282
 20
252.549034
 30
0.0
 40
5.375
100
AcDbArc
 50
15.542987
 51
83.387035
  0
ARC
  5
2A6
100
AcDbEntity
  8
M0
100
AcDbCircle
 10
117.067282
 20
252.549034
 30
0.0
 40
4.75
100
AcDbArc
 50
15.542973
 51
83.387028
  0
ARC
  5
2A7
100
AcDbEntity
  8
M0
100
AcDbCircle
 10
117.067282
 20
214.364559
 30
0.0
 40
4.75
100
AcDbArc
 50
276.612974
 51
344.457027
  0
ARC
  5
2A8
100
AcDbEntity
  8
M0
100
AcDbCircle
 10
107.278548
 20
214.364559
 30
0.0
 40
5.375
100
AcDbArc
 50
195.542999
 51
263.387113
  0
ARC
  5
2A9
100
AcDbEntity
  8
M0
100
AcDbCircle
 10
117.067282
 20
214.364559
 30
0.0
 40
5.375
100
AcDbArc
 50
276.612968
 51
344.457023
  0
ARC
  5
2AA
100
AcDbEntity
  8
M0
100
AcDbCircle
 10
107.278548
 20
214.364559
 30
0.0
 40
4.75
100
AcDbArc
 50
195.542998
 51
263.387117
  0
ARC
  5
2AB
100
AcDbEntity
  8
M0
100
AcDbCircle
 10
116.422919
 20
246.345574
 30
0.0
 40
1.5
100
AcDbArc
 50
0.0
 51
82.496022
  0
ARC
  5
2AC
100
AcDbEntity
  8
M0
100
AcDbCircle
 10
107.922919
 20
246.345574
 30
0.0
 40
1.5
100
AcDbArc
 50
97.504267
 51
180.0
  0
ARC
  5
2AD
100
AcDbEntity
  8
M0
100
AcDbCircle
 10
112.172919
 20
214.081797
 30
0.0
 40
34.042492
100
AcDbArc
 50
82.495831
 51
86.76752
  0
ARC
  5
2AE
100
AcDbEntity
  8
M0
100
AcDbCircle
 10
112.172919
 20
252.831799
 30
0.0
 40
34.042492
100
AcDbArc
 50
262.495819
 51
266.767507
  0
ARC
  5
2AF
100
AcDbEntity
  8
M0
100
AcDbCircle
 10
107.922919
 20
220.568019
 30
0.0
 40
1.5
100
AcDbArc
 50
180.0
 51
262.495738
  0
ARC
  5
2B0
100
AcDbEntity
  8
M0
100
AcDbCircle
 10
116.422919
 20
220.568019
 30
0.0
 40
1.5
100
AcDbArc
 50
277.503973
 51
0.0
  0
ARC
  5
2B1
100
AcDbEntity
  8
M0
100
AcDbCircle
 10
112.172919
 20
233.456797
 30
0.0
 40
7.9375
100
AcDbArc
 50
324.681496
 51
35.318503
  0
ARC
  5
2B2
100
AcDbEntity
  8
M0
100
AcDbCircle
 10
120.485419
 20
227.567187
 30
0.0
 40
2.25
100
AcDbArc
 50
144.681495
 51
180.0
  0
ARC
  5
2B3
100
AcDbEntity
  8
M0
100
AcDbCircle
 10
117.73542
 20
240.372303
 30
0.0
 40
0.5
100
AcDbArc
 50
0.0
 51
51.188533
  0
ARC
  5
2B4
100
AcDbEntity
  8
M0
100
AcDbCircle
 10
108.140171
 20
228.359058
 30
0.0
 40
0.5
100
AcDbArc
 50
109.72545
 51
140.000029
  0
ARC
  5
2B5
100
AcDbEntity
  8
M0
100
AcDbCircle
 10
106.610419
 20
240.377624
 30
0.0
 40
0.5
100
AcDbArc
 50
180.0
 51
219.999987
  0
ARC
  5
2B6
100
AcDbEntity
  8
M0
100
AcDbCircle
 10
112.172919
 20
233.456797
 30
0.0
 40
9.375
100
AcDbArc
 50
231.188482
 51
308.811525
  0
ARC
  5
2B7
100
AcDbEntity
  8
M0
100
AcDbCircle
 10
112.172919
 20
233.456797
 30
0.0
 40
7.9375
100
AcDbArc
 50
144.681497
 51
215.318504
  0
ARC
  5
2B8
100
AcDbEntity
  8
M0
100
AcDbCircle
 10
103.860418
 20
227.567187
 30
0.0
 40
2.25
100
AcDbArc
 50
0.0
 51
35.318505
  0
ARC
  5
2B9
100
AcDbEntity
  8
M0
100
AcDbCircle
 10
103.860418
 20
239.346406
 30
0.0
 40
2.25
100
AcDbArc
 50
324.681499
 51
0.0
  0
ARC
  5
2BA
100
AcDbEntity
  8
M0
100
AcDbCircle
 10
106.610419
 20
240.372303
 30
0.0
 40
0.5
100
AcDbArc
 50
128.811467
 51
180.0
  0
ARC
  5
2BB
100
AcDbEntity
  8
M0
100
AcDbCircle
 10
117.73542
 20
240.377624
 30
0.0
 40
0.5
100
AcDbArc
 50
320.000013
 51
0.0
  0
ARC
  5
2BC
100
AcDbEntity
  8
M0
100
AcDbCircle
 10
120.485419
 20
239.346406
 30
0.0
 40
2.25
100
AcDbArc
 50
180.0
 51
215.318501
  0
ARC
  5
2BD
100
AcDbEntity
  8
M0
100
AcDbCircle
 10
106.610419
 20
226.541291
 30
0.0
 40
0.5
100
AcDbArc
 50
180.0
 51
231.188558
  0
ARC
  5
2BE
100
AcDbEntity
  8
M0
100
AcDbCircle
 10
116.205667
 20
228.359058
 30
0.0
 40
0.5
100
AcDbArc
 50
39.999971
 51
70.27455
  0
ARC
  5
2BF
100
AcDbEntity
  8
M0
100
AcDbCircle
 10
117.73542
 20
226.541291
 30
0.0
 40
0.5
100
AcDbArc
 50
308.811442
 51
0.0
  0
ARC
  5
2C0
100
AcDbEntity
  8
M0
100
AcDbCircle
 10
106.610419
 20
226.535969
 30
0.0
 40
0.5
100
AcDbArc
 50
140.000013
 51
180.0
  0
ARC
  5
2C1
100
AcDbEntity
  8
M0
100
AcDbCircle
 10
117.73542
 20
226.535969
 30
0.0
 40
0.5
100
AcDbArc
 50
0.0
 51
39.999987
  0
ARC
  5
2C2
100
AcDbEntity
  8
M0
100
AcDbCircle
 10
117.73542
 20
243.06744
 30
0.0
 40
0.5
100
AcDbArc
 50
0.0
 51
59.93838
  0
ARC
  5
2C3
100
AcDbEntity
  8
M0
100
AcDbCircle
 10
112.172919
 20
233.456797
 30
0.0
 40
11.604318
100
AcDbArc
 50
239.938371
 51
300.061635
  0
ARC
  5
2C4
100
AcDbEntity
  8
M0
100
AcDbCircle
 10
112.172919
 20
233.456797
 30
0.0
 40
11.604318
100
AcDbArc
 50
59.938364
 51
120.06163
  0
ARC
  5
2C5
100
AcDbEntity
  8
M0
100
AcDbCircle
 10
106.610419
 20
223.846154
 30
0.0
 40
0.5
100
AcDbArc
 50
180.0
 51
239.93838
  0
ARC
  5
2C6
100
AcDbEntity
  8
M0
100
AcDbCircle
 10
112.172919
 20
241.550545
 30
0.0
 40
0.343749
100
AcDbArc
 50
0.0
 51
180.0
  0
ARC
  5
2C7
100
AcDbEntity
  8
M0
100
AcDbCircle
 10
106.610419
 20
243.06744
 30
0.0
 40
0.5
100
AcDbArc
 50
120.06162
 51
180.0
  0
ARC
  5
2C8
100
AcDbEntity
  8
M0
100
AcDbCircle
 10
117.73542
 20
223.846154
 30
0.0
 40
0.5
100
AcDbArc
 50
300.06162
 51
0.0
  0
ARC
  5
2C9
100
AcDbEntity
  8
M0
100
AcDbCircle
 10
113.70417
 20
240.738046
 30
0.0
 40
0.343749
100
AcDbArc
 50
180.0
 51
0.0
  0
ARC
  5
2CA
100
AcDbEntity
  8
M0
100
AcDbCircle
 10
112.172919
 20
240.738046
 30
0.0
 40
0.343749
100
AcDbArc
 50
180.0
 51
0.0
  0
ARC
  5
2CB
100
AcDbEntity
  8
M0
100
AcDbCircle
 10
113.70417
 20
241.550545
 30
0.0
 40
0.531249
100
AcDbArc
 50
0.0
 51
180.0
  0
ARC
  5
2CC
100
AcDbEntity
  8
M0
100
AcDbCircle
 10
113.70417
 20
240.738046
 30
0.0
 40
0.531249
100
AcDbArc
 50
180.0
 51
0.0
  0
ARC
  5
2CD
100
AcDbEntity
  8
M0
100
AcDbCircle
 10
110.641668
 20
241.550545
 30
0.0
 40
0.343749
100
AcDbArc
 50
270.0
 51
180.0
  0
ARC
  5
2CE
100
AcDbEntity
  8
M0
100
AcDbCircle
 10
110.641668
 20
240.738046
 30
0.0
 40
0.343749
100
AcDbArc
 50
180.0
 51
90.0
  0
ARC
  5
2CF
100
AcDbEntity
  8
M0
100
AcDbCircle
 10
112.172919
 20
241.550545
 30
0.0
 40
0.531249
100
AcDbArc
 50
0.0
 51
180.0
  0
ARC
  5
2D0
100
AcDbEntity
  8
M0
100
AcDbCircle
 10
110.641668
 20
240.738046
 30
0.0
 40
0.531249
100
AcDbArc
 50
180.0
 51
49.880818
  0
ARC
  5
2D1
100
AcDbEntity
  8
M0
100
AcDbCircle
 10
113.70417
 20
241.550545
 30
0.0
 40
0.343749
100
AcDbArc
 50
0.0
 51
180.0
  0
ARC
  5
2D2
100
AcDbEntity
  8
M0
100
AcDbCircle
 10
112.172919
 20
240.738046
 30
0.0
 40
0.531249
100
AcDbArc
 50
180.0
 51
0.0
  0
ARC
  5
2D3
100
AcDbEntity
  8
M0
100
AcDbCircle
 10
110.641668
 20
241.550545
 30
0.0
 40
0.531249
100
AcDbArc
 50
310.119182
 51
180.0
  0
LINE
  5
2D4
100
AcDbEntity
  8
M0
100
AcDbLine
 10
106.110418
 20
243.06744
 30
0.0
 11
106.110418
 21
239.346406
 31
0.0
  0
LINE
  5
2D5
100
AcDbEntity
  8
M0
100
AcDbLine
 10
106.227397
 20
226.857363
 30
0.0
 11
107.757149
 21
228.680451
 31
0.0
  0
LINE
  5
2D6
100
AcDbEntity
  8
M0
100
AcDbLine
 10
118.118442
 20
226.857363
 30
0.0
 11
116.588689
 21
228.680451
 31
0.0
  0
LINE
  5
2D7
100
AcDbEntity
  8
M0
100
AcDbLine
 10
118.235419
 20
243.06744
 30
0.0
 11
118.235419
 21
239.346406
 31
0.0
  0
LINE
  5
2D8
100
AcDbEntity
  8
M0
100
AcDbLine
 10
106.227397
 20
240.05623
 30
0.0
 11
107.757149
 21
238.233142
 31
0.0
  0
LINE
  5
2D9
100
AcDbEntity
  8
M0
100
AcDbLine
 10
118.118442
 20
240.05623
 30
0.0
 11
116.588689
 21
238.233142
 31
0.0
  0
LINE
  5
2DA
100
AcDbEntity
  8
M0
100
AcDbLine
 10
118.235419
 20
223.846154
 30
0.0
 11
118.235419
 21
227.567187
 31
0.0
  0
LINE
  5
2DB
100
AcDbEntity
  8
M0
100
AcDbLine
 10
106.110418
 20
223.846154
 30
0.0
 11
106.110418
 21
227.567187
 31
0.0
  0
LINE
  5
2DC
100
AcDbEntity
  8
M0
100
AcDbLine
 10
111.82917
 20
241.550545
 30
0.0
 11
111.82917
 21
240.738046
 31
0.0
  0
LINE
  5
2DD
100
AcDbEntity
  8
M0
100
AcDbLine
 10
112.516669
 20
241.550545
 30
0.0
 11
112.516669
 21
240.738046
 31
0.0
  0
ARC
  5
2DE
100
AcDbEntity
  8
M0
100
AcDbCircle
 10
116.205667
 20
238.554537
 30
0.0
 40
0.5
100
AcDbArc
 50
289.725416
 51
319.99995
  0
LINE
  5
2DF
100
AcDbEntity
  8
M0
100
AcDbLine
 10
111.64167
 20
241.550545
 30
0.0
 11
111.64167
 21
240.738046
 31
0.0
  0
ARC
  5
2E0
100
AcDbEntity
  8
M0
100
AcDbCircle
 10
112.172919
 20
233.456797
 30
0.0
 40
9.375
100
AcDbArc
 50
51.188474
 51
128.81152
  0
LINE
  5
2E1
100
AcDbEntity
  8
M0
100
AcDbLine
 10
112.704168
 20
241.550545
 30
0.0
 11
112.704168
 21
240.738046
 31
0.0
  0
ARC
  5
2E2
100
AcDbEntity
  8
M0
100
AcDbCircle
 10
108.140171
 20
238.554537
 30
0.0
 40
0.5
100
AcDbArc
 50
220.00005
 51
250.274584
  0
LINE
  5
2E3
100
AcDbEntity
  8
M0
100
AcDbLine
 10
114.047919
 20
241.550545
 30
0.0
 11
114.047919
 21
240.738046
 31
0.0
  0
LINE
  5
2E4
100
AcDbEntity
  8
M0
100
AcDbLine
 10
110.110419
 20
240.738046
 30
0.0
 11
110.297919
 21
240.738046
 31
0.0
  0
LINE
  5
2E5
100
AcDbEntity
  8
M0
100
AcDbLine
 10
110.641668
 20
241.206796
 30
0.0
 11
110.641668
 21
241.081796
 31
0.0
  0
LINE
  5
2E6
100
AcDbEntity
  8
M0
100
AcDbLine
 10
114.235419
 20
241.550545
 30
0.0
 11
114.235419
 21
240.738046
 31
0.0
  0
LINE
  5
2E7
100
AcDbEntity
  8
M0
100
AcDbLine
 10
113.172919
 20
241.550545
 30
0.0
 11
113.172919
 21
240.738046
 31
0.0
  0
LINE
  5
2E8
100
AcDbEntity
  8
M0
100
AcDbLine
 10
110.110419
 20
241.550545
 30
0.0
 11
110.297919
 21
241.550545
 31
0.0
  0
LINE
  5
2E9
100
AcDbEntity
  8
M0
100
AcDbLine
 10
113.360419
 20
241.550545
 30
0.0
 11
113.360419
 21
240.738046
 31
0.0
  0
LINE
  5
314
100
AcDbEntity
  8
M0
  6
DASHDOT
100
AcDbLine
 10
82.719513
 20
233.456797
 30
0.0
 11
141.626324
 21
233.456797
 31
0.0
  0
LINE
  5
315
100
AcDbEntity
  8
M0
100
AcDbLine
 10
94.297919
 20
253.581796
 30
0.0
 11
91.354941
 21
254.041636
 31
0.0
  0
LINE
  5
316
100
AcDbEntity
  8
M0
100
AcDbLine
 10
87.922919
 20
262.456797
 30
0.0
 11
89.922919
 21
262.456797
 31
0.0
  0
ARC
  5
317
100
AcDbEntity
  8
M0
100
AcDbCircle
 10
89.922919
 20
204.831797
 30
0.0
 40
0.375
100
AcDbArc
 50
270.0
 51
0.0
  0
LINE
  5
318
100
AcDbEntity
  8
M0
100
AcDbLine
 10
87.922919
 20
204.456797
 30
0.0
 11
89.922919
 21
204.456797
 31
0.0
  0
LINE
  5
319
100
AcDbEntity
  8
M0
100
AcDbLine
 10
90.297919
 20
262.081797
 30
0.0
 11
90.297919
 21
204.831797
 31
0.0
  0
LINE
  5
31A
100
AcDbEntity
  8
M0
100
AcDbLine
 10
87.172919
 20
210.831797
 30
0.0
 11
87.172919
 21
256.081796
 31
0.0
  0
LINE
  5
31B
100
AcDbEntity
  8
M0
100
AcDbLine
 10
130.047919
 20
213.331797
 30
0.0
 11
129.396994
 21
213.331797
 31
0.0
  0
LINE
  5
31C
100
AcDbEntity
  8
M0
100
AcDbLine
 10
94.297919
 20
213.331797
 30
0.0
 11
91.354941
 21
212.871958
 31
0.0
  0
LINE
  5
31D
100
AcDbEntity
  8
M0
100
AcDbLine
 10
94.297919
 20
253.581796
 30
0.0
 11
94.297919
 21
250.753509
 31
0.0
  0
ARC
  5
31E
100
AcDbEntity
  8
M0
100
AcDbCircle
 10
87.922919
 20
262.081797
 30
0.0
 40
0.375
100
AcDbArc
 50
90.0
 51
180.0
  0
ARC
  5
31F
100
AcDbEntity
  8
M0
100
AcDbCircle
 10
87.922919
 20
204.831797
 30
0.0
 40
0.375
100
AcDbArc
 50
180.0
 51
270.0
  0
LINE
  5
320
100
AcDbEntity
  8
M0
100
AcDbLine
 10
87.172919
 20
210.831797
 30
0.0
 11
87.547919
 21
210.456797
 31
0.0
  0
ARC
  5
321
100
AcDbEntity
  8
M0
100
AcDbCircle
 10
89.922919
 20
262.081797
 30
0.0
 40
0.375
100
AcDbArc
 50
0.0
 51
90.0
  0
ARC
  5
322
100
AcDbEntity
  8
M0
100
AcDbCircle
 10
91.547919
 20
255.276651
 30
0.0
 40
1.25
100
AcDbArc
 50
180.0
 51
261.119032
  0
LINE
  5
323
100
AcDbEntity
  8
M0
100
AcDbLine
 10
87.172919
 20
256.081797
 30
0.0
 11
87.547919
 21
256.456797
 31
0.0
  0
LINE
  5
324
100
AcDbEntity
  8
M0
100
AcDbLine
 10
94.948841
 20
253.581796
 30
0.0
 11
94.297919
 21
253.581796
 31
0.0
  0
ARC
  5
325
100
AcDbEntity
  8
M0
100
AcDbCircle
 10
91.547919
 20
211.636942
 30
0.0
 40
1.25
100
AcDbArc
 50
98.880961
 51
180.0
  0
LINE
  5
326
100
AcDbEntity
  8
M0
100
AcDbLine
 10
87.547919
 20
204.831797
 30
0.0
 11
87.547919
 21
262.081797
 31
0.0
  0
LINE
  5
327
100
AcDbEntity
  8
M0
100
AcDbLine
 10
136.797919
 20
204.831797
 30
0.0
 11
136.797919
 21
262.081797
 31
0.0
  0
ARC
  5
328
100
AcDbEntity
  8
M0
100
AcDbCircle
 10
134.422919
 20
204.831797
 30
0.0
 40
0.375
100
AcDbArc
 50
180.0
 51
270.0
  0
ARC
  5
329
100
AcDbEntity
  8
M0
100
AcDbCircle
 10
132.797919
 20
211.636942
 30
0.0
 40
1.25
100
AcDbArc
 50
0.0
 51
81.119039
  0
ARC
  5
32A
100
AcDbEntity
  8
M0
100
AcDbCircle
 10
136.422919
 20
262.081797
 30
0.0
 40
0.375
100
AcDbArc
 50
0.0
 51
90.0
  0
ARC
  5
32B
100
AcDbEntity
  8
M0
100
AcDbCircle
 10
134.422919
 20
262.081797
 30
0.0
 40
0.375
100
AcDbArc
 50
90.0
 51
180.0
  0
ARC
  5
32C
100
AcDbEntity
  8
M0
100
AcDbCircle
 10
136.422919
 20
204.831797
 30
0.0
 40
0.375
100
AcDbArc
 50
270.0
 51
0.0
  0
LINE
  5
32D
100
AcDbEntity
  8
M0
100
AcDbLine
 10
130.047919
 20
253.581796
 30
0.0
 11
132.990897
 21
254.041636
 31
0.0
  0
LINE
  5
32E
100
AcDbEntity
  8
M0
100
AcDbLine
 10
136.422919
 20
204.456797
 30
0.0
 11
134.422919
 21
204.456797
 31
0.0
  0
LINE
  5
32F
100
AcDbEntity
  8
M0
100
AcDbLine
 10
136.422919
 20
262.456797
 30
0.0
 11
134.422919
 21
262.456797
 31
0.0
  0
LINE
  5
330
100
AcDbEntity
  8
M0
100
AcDbLine
 10
134.047919
 20
262.081797
 30
0.0
 11
134.047919
 21
204.831797
 31
0.0
  0
LINE
  5
331
100
AcDbEntity
  8
M0
100
AcDbLine
 10
137.172919
 20
210.831797
 30
0.0
 11
136.797919
 21
210.456797
 31
0.0
  0
LINE
  5
332
100
AcDbEntity
  8
M0
100
AcDbLine
 10
129.396994
 20
253.581796
 30
0.0
 11
130.047919
 21
253.581796
 31
0.0
  0
LINE
  5
333
100
AcDbEntity
  8
M0
100
AcDbLine
 10
137.172919
 20
256.081797
 30
0.0
 11
136.797919
 21
256.456797
 31
0.0
  0
ARC
  5
334
100
AcDbEntity
  8
M0
100
AcDbCircle
 10
132.797919
 20
255.276651
 30
0.0
 40
1.25
100
AcDbArc
 50
278.880968
 51
0.0
  0
LINE
  5
335
100
AcDbEntity
  8
M0
100
AcDbLine
 10
130.047919
 20
213.331797
 30
0.0
 11
132.990897
 21
212.871958
 31
0.0
  0
LINE
  5
336
100
AcDbEntity
  8
M0
100
AcDbLine
 10
137.172919
 20
210.831797
 30
0.0
 11
137.172919
 21
256.081796
 31
0.0
  0
LINE
  5
337
100
AcDbEntity
  8
M0
100
AcDbLine
 10
130.047919
 20
253.581796
 30
0.0
 11
130.047919
 21
250.753496
 31
0.0
  0
LINE
  5
338
100
AcDbEntity
  8
M0
  6
DASHDOT
100
AcDbLine
 10
139.681196
 20
207.581797
 30
0.0
 11
130.893979
 21
207.581797
 31
0.0
  0
LINE
  5
339
100
AcDbEntity
  8
M0
  6
DASHDOT
100
AcDbLine
 10
139.681196
 20
259.331797
 30
0.0
 11
130.893979
 21
259.331797
 31
0.0
  0
LINE
  5
33A
100
AcDbEntity
  8
M0
  6
DASHDOT
100
AcDbLine
 10
92.816039
 20
259.331797
 30
0.0
 11
84.907544
 21
259.331797
 31
0.0
  0
LINE
  5
33B
100
AcDbEntity
  8
M0
  6
DASHDOT
100
AcDbLine
 10
92.816039
 20
207.581797
 30
0.0
 11
84.907544
 21
207.581797
 31
0.0
  0
LINE
  5
33C
100
AcDbEntity
  8
M0
100
AcDbLine
 10
94.948841
 20
213.331797
 30
0.0
 11
94.297919
 21
213.331797
 31
0.0
  0
LINE
  5
33D
100
AcDbEntity
  8
M0
100
AcDbLine
 10
130.047919
 20
216.160098
 30
0.0
 11
130.047919
 21
213.331797
 31
0.0
  0
LINE
  5
33E
100
AcDbEntity
  8
M0
100
AcDbLine
 10
94.297919
 20
216.160085
 30
0.0
 11
94.297919
 21
213.331797
 31
0.0
  0
TEXT
  5
33F
100
AcDbEntity
  8
DN0
100
AcDbText
 10
298.157533
 20
37.555767
 30
0.0
 40
5.0
  1
　　　　　　　ＦＬ：ＪＩＳ－７．５Ｋ
 41
0.916667
100
AcDbText
  0
TEXT
  5
340
100
AcDbEntity
  8
DN0
100
AcDbText
 10
298.157533
 20
30.555767
 30
0.0
 40
5.0
  1
φ３００　ＳＥ－１ソフトシ－ル仕切弁
 41
0.916667
100
AcDbText
  0
MTEXT
  5
343
100
AcDbEntity
  8
M0
100
AcDbMText
 10
303.231724
 20
24.357142
 30
0.0
 40
7.0
 41
95.3987
 71
     1
 72
     5
  1
千代田工業株式会社
  0
ENDSEC
  0
SECTION
  2
OBJECTS
  0
DICTIONARY
  5
C
100
AcDbDictionary
  3
ACAD_GROUP
350
D
  3
ACAD_MLINESTYLE
350
1B
  0
DICTIONARY
  5
D
102
{ACAD_REACTORS
330
C
102
}
100
AcDbDictionary
  0
DICTIONARY
  5
1B
102
{ACAD_REACTORS
330
C
102
}
100
AcDbDictionary
  3
STANDARD
350
1C
  0
MLINESTYLE
  5
1C
102
{ACAD_REACTORS
330
1B
102
}
100
AcDbMlineStyle
  2
STANDARD
 70
     0
  3

 62
   256
 51
90.0
 52
90.0
 71
     2
 49
0.5
 62
   256
  6
BYLAYER
 49
-0.5
 62
   256
  6
BYLAYER
  0
ENDSEC
  0
EOF
